  0
SECTION
  2
HEADER
  9
$ACADVER
  1
AC1032
  9
$ACADMAINTVER
 90
        9
  9
$DWGCODEPAGE
  3
ANSI_1252
  9
$LASTSAVEDBY
  1
PhuongND
  9
$REQUIREDVERSIONS
160
                 0
  9
$INSBASE
 10
0.0
 20
0.0
 30
0.0
  9
$EXTMIN
 10
583.1448305925063
 20
-493.8149544073531
 30
0.0
  9
$EXTMAX
 10
2711.615050350739
 20
245.05974788294
 30
0.0
  9
$LIMMIN
 10
0.0
 20
0.0
  9
$LIMMAX
 10
12.0
 20
9.0
  9
$ORTHOMODE
 70
     1
  9
$REGENMODE
 70
     1
  9
$FILLMODE
 70
     1
  9
$QTEXTMODE
 70
     0
  9
$MIRRTEXT
 70
     1
  9
$LTSCALE
 40
1.0
  9
$ATTMODE
 70
     1
  9
$TEXTSIZE
 40
0.25
  9
$TRACEWID
 40
0.05
  9
$TEXTSTYLE
  7
STANDARD
  9
$CLAYER
  8
Defpoints
  9
$CELTYPE
  6
BYLAYER
  9
$CECOLOR
 62
   256
  9
$CELTSCALE
 40
1.0
  9
$DISPSILH
 70
     0
  9
$DIMSCALE
 40
1.0
  9
$DIMASZ
 40
3.5
  9
$DIMEXO
 40
2.0
  9
$DIMDLI
 40
12.0
  9
$DIMRND
 40
0.0
  9
$DIMDLE
 40
0.0
  9
$DIMEXE
 40
1.5
  9
$DIMTP
 40
0.0
  9
$DIMTM
 40
0.0
  9
$DIMTXT
 40
3.0
  9
$DIMCEN
 40
4.0
  9
$DIMTSZ
 40
0.0
  9
$DIMTOL
 70
     0
  9
$DIMLIM
 70
     0
  9
$DIMTIH
 70
     1
  9
$DIMTOH
 70
     1
  9
$DIMSE1
 70
     0
  9
$DIMSE2
 70
     0
  9
$DIMTAD
 70
     0
  9
$DIMZIN
 70
     3
  9
$DIMBLK
  1
Closed
  9
$DIMASO
 70
     1
  9
$DIMSHO
 70
     1
  9
$DIMPOST
  1

  9
$DIMAPOST
  1

  9
$DIMALT
 70
     0
  9
$DIMALTD
 70
     2
  9
$DIMALTF
 40
25.4
  9
$DIMLFAC
 40
0.039370078
  9
$DIMTOFL
 70
     1
  9
$DIMTVP
 40
0.0
  9
$DIMTIX
 70
     0
  9
$DIMSOXD
 70
     0
  9
$DIMSAH
 70
     0
  9
$DIMBLK1
  1
Closed
  9
$DIMBLK2
  1
Dot
  9
$DIMSTYLE
  2
new 1
  9
$DIMCLRD
 70
     0
  9
$DIMCLRE
 70
     0
  9
$DIMCLRT
 70
     0
  9
$DIMTFAC
 40
0.8
  9
$DIMGAP
 40
1.5
  9
$DIMJUST
 70
     0
  9
$DIMSD1
 70
     0
  9
$DIMSD2
 70
     0
  9
$DIMTOLJ
 70
     1
  9
$DIMTZIN
 70
     0
  9
$DIMALTZ
 70
     0
  9
$DIMALTTZ
 70
     0
  9
$DIMUPT
 70
     0
  9
$DIMDEC
 70
     4
  9
$DIMTDEC
 70
     4
  9
$DIMALTU
 70
     2
  9
$DIMALTTD
 70
     2
  9
$DIMTXSTY
  7
STANDARD
  9
$DIMAUNIT
 70
     0
  9
$DIMADEC
 70
     2
  9
$DIMALTRND
 40
0.0
  9
$DIMAZIN
 70
     3
  9
$DIMDSEP
 70
    46
  9
$DIMATFIT
 70
     3
  9
$DIMFRAC
 70
     0
  9
$DIMLDRBLK
  1
Closed
  9
$DIMLUNIT
 70
     4
  9
$DIMLWD
 70
    -2
  9
$DIMLWE
 70
    -1
  9
$DIMTMOVE
 70
     2
  9
$DIMFXL
 40
1.0
  9
$DIMFXLON
 70
     0
  9
$DIMJOGANG
 40
1.570796326794896
  9
$DIMTFILL
 70
     1
  9
$DIMTFILLCLR
 70
     0
  9
$DIMARCSYM
 70
     0
  9
$DIMLTYPE
  6

  9
$DIMLTEX1
  6
BYLAYER
  9
$DIMLTEX2
  6
BYLAYER
  9
$DIMTXTDIRECTION
 70
     0
  9
$LUNITS
 70
     2
  9
$LUPREC
 70
     0
  9
$SKETCHINC
 40
0.1
  9
$FILLETRAD
 40
0.5
  9
$AUNITS
 70
     0
  9
$AUPREC
 70
     0
  9
$MENU
  1
.
  9
$ELEVATION
 40
0.0
  9
$PELEVATION
 40
0.0
  9
$THICKNESS
 40
0.0
  9
$LIMCHECK
 70
     0
  9
$CHAMFERA
 40
0.5
  9
$CHAMFERB
 40
0.5
  9
$CHAMFERC
 40
1.0
  9
$CHAMFERD
 40
0.0
  9
$SKPOLY
 70
     0
  9
$TDCREATE
 40
2451667.537939815
  9
$TDUCREATE
 40
2451667.246273149
  9
$TDUPDATE
 40
2459586.796435186
  9
$TDUUPDATE
 40
2459586.504768519
  9
$TDINDWG
 40
1.9319093634
  9
$TDUSRTIMER
 40
1.9319093634
  9
$USRTIMER
 70
     1
  9
$ANGBASE
 50
0.0
  9
$ANGDIR
 70
     0
  9
$PDMODE
 70
     0
  9
$PDSIZE
 40
0.0
  9
$PLINEWID
 40
0.0
  9
$SPLFRAME
 70
     0
  9
$SPLINETYPE
 70
     6
  9
$SPLINESEGS
 70
     8
  9
$HANDSEED
  5
50F9
  9
$SURFTAB1
 70
     6
  9
$SURFTAB2
 70
     6
  9
$SURFTYPE
 70
     6
  9
$SURFU
 70
     6
  9
$SURFV
 70
     6
  9
$UCSBASE
  2

  9
$UCSNAME
  2

  9
$UCSORG
 10
0.0
 20
0.0
 30
0.0
  9
$UCSXDIR
 10
1.0
 20
0.0
 30
0.0
  9
$UCSYDIR
 10
0.0
 20
1.0
 30
0.0
  9
$UCSORTHOREF
  2

  9
$UCSORTHOVIEW
 70
     0
  9
$UCSORGTOP
 10
0.0
 20
0.0
 30
0.0
  9
$UCSORGBOTTOM
 10
0.0
 20
0.0
 30
0.0
  9
$UCSORGLEFT
 10
0.0
 20
0.0
 30
0.0
  9
$UCSORGRIGHT
 10
0.0
 20
0.0
 30
0.0
  9
$UCSORGFRONT
 10
0.0
 20
0.0
 30
0.0
  9
$UCSORGBACK
 10
0.0
 20
0.0
 30
0.0
  9
$PUCSBASE
  2

  9
$PUCSNAME
  2

  9
$PUCSORG
 10
0.0
 20
0.0
 30
0.0
  9
$PUCSXDIR
 10
1.0
 20
0.0
 30
0.0
  9
$PUCSYDIR
 10
0.0
 20
1.0
 30
0.0
  9
$PUCSORTHOREF
  2

  9
$PUCSORTHOVIEW
 70
     0
  9
$PUCSORGTOP
 10
0.0
 20
0.0
 30
0.0
  9
$PUCSORGBOTTOM
 10
0.0
 20
0.0
 30
0.0
  9
$PUCSORGLEFT
 10
0.0
 20
0.0
 30
0.0
  9
$PUCSORGRIGHT
 10
0.0
 20
0.0
 30
0.0
  9
$PUCSORGFRONT
 10
0.0
 20
0.0
 30
0.0
  9
$PUCSORGBACK
 10
0.0
 20
0.0
 30
0.0
  9
$USERI1
 70
     0
  9
$USERI2
 70
     0
  9
$USERI3
 70
     0
  9
$USERI4
 70
     0
  9
$USERI5
 70
     0
  9
$USERR1
 40
0.0
  9
$USERR2
 40
0.0
  9
$USERR3
 40
0.0
  9
$USERR4
 40
0.0
  9
$USERR5
 40
0.0
  9
$WORLDVIEW
 70
     1
  9
$SHADEDGE
 70
     3
  9
$SHADEDIF
 70
    70
  9
$TILEMODE
 70
     1
  9
$MAXACTVP
 70
    48
  9
$PINSBASE
 10
0.0
 20
0.0
 30
0.0
  9
$PLIMCHECK
 70
     0
  9
$PEXTMIN
 10
40.07863934062789
 20
-170.6521290962268
 30
0.0
  9
$PEXTMAX
 10
785.1898010242084
 20
286.3058410696337
 30
0.0
  9
$PLIMMIN
 10
40.07863934062789
 20
-10.69415893036625
  9
$PLIMMAX
 10
250.0786393406279
 20
286.3058410696337
  9
$UNITMODE
 70
     0
  9
$VISRETAIN
 70
     1
  9
$PLINEGEN
 70
     0
  9
$PSLTSCALE
 70
     1
  9
$TREEDEPTH
 70
  3020
  9
$CMLSTYLE
  2
STANDARD
  9
$CMLJUST
 70
     0
  9
$CMLSCALE
 40
1.0
  9
$PROXYGRAPHICS
 70
     1
  9
$MEASUREMENT
 70
     0
  9
$CELWEIGHT
370
    -1
  9
$ENDCAPS
280
     0
  9
$JOINSTYLE
280
     0
  9
$LWDISPLAY
290
     0
  9
$INSUNITS
 70
     4
  9
$HYPERLINKBASE
  1

  9
$STYLESHEET
  1

  9
$XEDIT
290
     1
  9
$CEPSNTYPE
380
     0
  9
$PSTYLEMODE
290
     1
  9
$FINGERPRINTGUID
  2
{F1C9EDB5-A23C-6A47-A128-A2D269DD3D0B}
  9
$VERSIONGUID
  2
{1719D3E8-D626-004B-B5E7-FA08E59B8A3A}
  9
$EXTNAMES
290
     1
  9
$PSVPSCALE
 40
0.0
  9
$OLESTARTUP
290
     0
  9
$SORTENTS
280
   127
  9
$INDEXCTL
280
     0
  9
$HIDETEXT
280
     0
  9
$XCLIPFRAME
280
     2
  9
$HALOGAP
280
     0
  9
$OBSCOLOR
 70
   257
  9
$OBSLTYPE
280
     0
  9
$INTERSECTIONDISPLAY
280
     0
  9
$INTERSECTIONCOLOR
 70
   257
  9
$DIMASSOC
280
     1
  9
$PROJECTNAME
  1

  9
$CAMERADISPLAY
290
     0
  9
$LENSLENGTH
 40
50.0
  9
$CAMERAHEIGHT
 40
0.0
  9
$STEPSPERSEC
 40
2.0
  9
$STEPSIZE
 40
6.0
  9
$3DDWFPREC
 40
2.0
  9
$PSOLWIDTH
 40
0.25
  9
$PSOLHEIGHT
 40
4.0
  9
$LOFTANG1
 40
1.570796326794896
  9
$LOFTANG2
 40
1.570796326794896
  9
$LOFTMAG1
 40
0.0
  9
$LOFTMAG2
 40
0.0
  9
$LOFTPARAM
 70
     7
  9
$LOFTNORMALS
280
     1
  9
$LATITUDE
 40
37.795
  9
$LONGITUDE
 40
-122.394
  9
$NORTHDIRECTION
 40
0.0
  9
$TIMEZONE
 70
 -8000
  9
$LIGHTGLYPHDISPLAY
280
     1
  9
$TILEMODELIGHTSYNCH
280
     1
  9
$CMATERIAL
347
1CF
  9
$SOLIDHIST
280
     0
  9
$SHOWHIST
280
     1
  9
$DWFFRAME
280
     2
  9
$DGNFRAME
280
     0
  9
$REALWORLDSCALE
290
     1
  9
$INTERFERECOLOR
 62
     1
  9
$INTERFEREOBJVS
345
1F1
  9
$INTERFEREVPVS
346
1EE
  9
$CSHADOW
280
     0
  9
$SHADOWPLANELOCATION
 40
0.0
  0
ENDSEC
  0
SECTION
  2
CLASSES
  0
CLASS
  1
ACDBDICTIONARYWDFLT
  2
AcDbDictionaryWithDefault
  3
ObjectDBX Classes
 90
        0
 91
        1
280
     1
281
     0
  0
CLASS
  1
DICTIONARYVAR
  2
AcDbDictionaryVar
  3
ObjectDBX Classes
 90
        0
 91
        9
280
     0
281
     0
  0
CLASS
  1
MATERIAL
  2
AcDbMaterial
  3
ObjectDBX Classes
 90
     1153
 91
        3
280
     0
281
     0
  0
CLASS
  1
VISUALSTYLE
  2
AcDbVisualStyle
  3
ObjectDBX Classes
 90
     4095
 91
       24
280
     0
281
     0
  0
CLASS
  1
TABLESTYLE
  2
AcDbTableStyle
  3
ObjectDBX Classes
 90
     4095
 91
        1
280
     0
281
     0
  0
CLASS
  1
SCALE
  2
AcDbScale
  3
ObjectDBX Classes
 90
     1153
 91
       21
280
     0
281
     0
  0
CLASS
  1
MLEADERSTYLE
  2
AcDbMLeaderStyle
  3
ACDB_MLEADERSTYLE_CLASS
 90
     4095
 91
        1
280
     0
281
     0
  0
CLASS
  1
ACDBSECTIONVIEWSTYLE
  2
AcDbSectionViewStyle
  3
ObjectDBX Classes
 90
     1025
 91
        1
280
     0
281
     0
  0
CLASS
  1
ACDBDETAILVIEWSTYLE
  2
AcDbDetailViewStyle
  3
ObjectDBX Classes
 90
     1025
 91
        1
280
     0
281
     0
  0
CLASS
  1
SORTENTSTABLE
  2
AcDbSortentsTable
  3
ObjectDBX Classes
 90
        0
 91
        2
280
     0
281
     0
  0
CLASS
  1
PLOTSETTINGS
  2
AcDbPlotSettings
  3
ObjectDBX Classes
 90
        0
 91
        1
280
     0
281
     0
  0
CLASS
  1
CELLSTYLEMAP
  2
AcDbCellStyleMap
  3
ObjectDBX Classes
 90
     1152
 91
        1
280
     0
281
     0
  0
CLASS
  1
ACDB_ALDIMOBJECTCONTEXTDATA_CLASS
  2
AcDbAlignedDimensionObjectContextData
  3
ObjectDBX Classes
 90
     1153
 91
        0
280
     0
281
     0
  0
CLASS
  1
EXACXREFPANELOBJECT
  2
ExAcXREFPanelObject
  3
EXAC_ESW
 90
     1025
 91
        0
280
     0
281
     0
  0
CLASS
  1
NPOCOLLECTION
  2
AcDbImpNonPersistentObjectsCollection
  3
ObjectDBX Classes
 90
     1153
 91
        0
280
     0
281
     0
  0
CLASS
  1
ACDB_DMDIMOBJECTCONTEXTDATA_CLASS
  2
AcDbDiametricDimensionObjectContextData
  3
ObjectDBX Classes
 90
     1153
 91
        0
280
     0
281
     0
  0
ENDSEC
  0
SECTION
  2
TABLES
  0
TABLE
  2
VPORT
  5
1AE
330
0
100
AcDbSymbolTable
 70
     1
  0
VPORT
  5
1CA
330
1AE
100
AcDbSymbolTableRecord
100
AcDbViewportTableRecord
  2
*ACTIVE
 70
     0
 10
0.0
 20
0.0
 11
1.0
 21
1.0
 12
2578.346989305494
 22
-215.6710696642071
 13
0.0
 23
0.0
 14
0.5
 24
0.5
 15
0.5
 25
0.5
 16
0.0
 26
0.0
 36
1.0
 17
0.0
 27
0.0
 37
0.0
 40
1087.56957508317
 41
2.351715686274509
 42
50.0
 43
0.0
 44
0.0
 50
0.0
 51
0.0
 71
     0
 72
   100
 73
     1
 74
     3
 75
     0
 76
     0
 77
     0
 78
     0
281
     0
 65
     1
110
570.0932382115738
120
68.45542691787591
130
0.0
111
1.0
121
0.0
131
0.0
112
0.0
122
1.0
132
0.0
 79
     0
146
0.0
348
1ED
 60
     3
 61
     5
292
     1
282
     1
141
0.0
142
0.0
 63
   250
421
  3355443
1001
ACAD_NAV_VCDISPLAY
1070
     3
  0
ENDTAB
  0
TABLE
  2
LTYPE
  5
1A7
330
0
100
AcDbSymbolTable
 70
     4
  0
LTYPE
  5
1A8
102
{ACAD_XDICTIONARY
360
1A9
102
}
330
1A7
100
AcDbSymbolTableRecord
100
AcDbLinetypeTableRecord
  2
BYBLOCK
 70
     0
  3

 72
    65
 73
     0
 40
0.0
  0
LTYPE
  5
1AA
102
{ACAD_XDICTIONARY
360
1AB
102
}
330
1A7
100
AcDbSymbolTableRecord
100
AcDbLinetypeTableRecord
  2
BYLAYER
 70
     0
  3

 72
    65
 73
     0
 40
0.0
  0
LTYPE
  5
5
102
{ACAD_XDICTIONARY
360
6
102
}
330
1A7
100
AcDbSymbolTableRecord
100
AcDbLinetypeTableRecord
  2
CONTINUOUS
 70
     0
  3
Solid line
 72
    65
 73
     0
 40
0.0
  0
LTYPE
  5
140
330
1A7
100
AcDbSymbolTableRecord
100
AcDbLinetypeTableRecord
  2
HIDDEN
 70
     0
  3
Hidden __ __ __ __ __ __ __ __ __ __ __ __ __ _
 72
    65
 73
     2
 40
0.375
 49
0.25
 74
     0
 49
-0.125
 74
     0
  0
ENDTAB
  0
TABLE
  2
LAYER
  5
1A5
102
{ACAD_XDICTIONARY
360
22C
102
}
330
0
100
AcDbSymbolTable
 70
    49
  0
LAYER
  5
61
102
{ACAD_XDICTIONARY
360
686
102
}
330
1A5
100
AcDbSymbolTableRecord
100
AcDbLayerTableRecord
  2
0
 70
     0
 62
     7
  6
CONTINUOUS
370
    -3
390
1CD
347
1DF
348
0
  0
LAYER
  5
4
102
{ACAD_XDICTIONARY
360
688
102
}
330
1A5
100
AcDbSymbolTableRecord
100
AcDbLayerTableRecord
  2
USP
 70
     0
 62
     7
  6
CONTINUOUS
370
    -3
390
1CD
347
1DF
348
0
  0
LAYER
  5
13F
102
{ACAD_XDICTIONARY
360
68A
102
}
330
1A5
100
AcDbSymbolTableRecord
100
AcDbLayerTableRecord
  2
USP-HID
 70
     0
 62
     7
  6
HIDDEN
370
    -3
390
1CD
347
1DF
348
0
  0
LAYER
  5
D
102
{ACAD_XDICTIONARY
360
68C
102
}
330
1A5
100
AcDbSymbolTableRecord
100
AcDbLayerTableRecord
  2
USP-GEO
 70
     0
 62
     7
  6
CONTINUOUS
370
    -3
390
1CD
347
1DF
348
0
  0
LAYER
  5
9
102
{ACAD_XDICTIONARY
360
68E
102
}
330
1A5
100
AcDbSymbolTableRecord
100
AcDbLayerTableRecord
  2
USP-TXT
 70
     0
 62
     7
  6
CONTINUOUS
370
    -3
390
1CD
347
1DF
348
0
  0
LAYER
  5
85C
330
1A5
100
AcDbSymbolTableRecord
100
AcDbLayerTableRecord
  2
Defpoints
 70
     0
 62
     7
  6
CONTINUOUS
290
     0
370
    -3
390
1CD
347
1DF
348
0
  0
LAYER
  5
AC9
330
1A5
100
AcDbSymbolTableRecord
100
AcDbLayerTableRecord
  2
PDF_Geometry
 70
     0
 62
     7
  6
CONTINUOUS
370
    -3
390
1CD
347
1DF
348
0
  0
LAYER
  5
ACC
330
1A5
100
AcDbSymbolTableRecord
100
AcDbLayerTableRecord
  2
PDF_Text
 70
     0
 62
     7
  6
CONTINUOUS
370
    -3
390
1CD
347
1DF
348
0
  0
LAYER
  5
F68
102
{ACAD_XDICTIONARY
360
F69
102
}
330
1A5
100
AcDbSymbolTableRecord
100
AcDbLayerTableRecord
  2
OBJ
 70
     0
 62
   179
  6
CONTINUOUS
370
    -3
390
1CD
347
1DF
348
0
  0
LAYER
  5
FDB
330
1A5
100
AcDbSymbolTableRecord
100
AcDbLayerTableRecord
  2
PDF2_Geometry
 70
     0
 62
     7
  6
CONTINUOUS
370
    -3
390
1CD
347
1DF
348
0
  0
LAYER
  5
FDC
330
1A5
100
AcDbSymbolTableRecord
100
AcDbLayerTableRecord
  2
PDF2_Text
 70
     0
 62
     7
  6
CONTINUOUS
370
    -3
390
1CD
347
1DF
348
0
  0
LAYER
  5
14CE
330
1A5
100
AcDbSymbolTableRecord
100
AcDbLayerTableRecord
  2
PDF3_Geometry
 70
     0
 62
     7
  6
CONTINUOUS
370
    -3
390
1CD
347
1DF
348
0
  0
LAYER
  5
14CF
330
1A5
100
AcDbSymbolTableRecord
100
AcDbLayerTableRecord
  2
PDF3_Text
 70
     0
 62
     7
  6
CONTINUOUS
370
    -3
390
1CD
347
1DF
348
0
  0
LAYER
  5
1D1F
330
1A5
100
AcDbSymbolTableRecord
100
AcDbLayerTableRecord
  2
PDF4_Geometry
 70
     0
 62
     7
  6
CONTINUOUS
370
    -3
390
1CD
347
1DF
348
0
  0
LAYER
  5
1D20
330
1A5
100
AcDbSymbolTableRecord
100
AcDbLayerTableRecord
  2
PDF4_Text
 70
     0
 62
     7
  6
CONTINUOUS
370
    -3
390
1CD
347
1DF
348
0
  0
LAYER
  5
1EE0
330
1A5
100
AcDbSymbolTableRecord
100
AcDbLayerTableRecord
  2
PDF5_Geometry
 70
     0
 62
     7
  6
CONTINUOUS
370
    -3
390
1CD
347
1DF
348
0
  0
LAYER
  5
1EE1
330
1A5
100
AcDbSymbolTableRecord
100
AcDbLayerTableRecord
  2
PDF5_Solid Fills
 70
     0
 62
     8
420
  8421504
  6
CONTINUOUS
370
    -3
390
1CD
347
1DF
348
0
  0
LAYER
  5
1EE8
330
1A5
100
AcDbSymbolTableRecord
100
AcDbLayerTableRecord
  2
PDF5_Text
 70
     0
 62
     7
  6
CONTINUOUS
370
    -3
390
1CD
347
1DF
348
0
  0
LAYER
  5
2105
330
1A5
100
AcDbSymbolTableRecord
100
AcDbLayerTableRecord
  2
PDF6_Geometry
 70
     0
 62
     7
  6
CONTINUOUS
370
    -3
390
1CD
347
1DF
348
0
  0
LAYER
  5
2106
330
1A5
100
AcDbSymbolTableRecord
100
AcDbLayerTableRecord
  2
PDF6_Solid Fills
 70
     0
 62
     8
420
  8421504
  6
CONTINUOUS
370
    -3
390
1CD
347
1DF
348
0
  0
LAYER
  5
210C
330
1A5
100
AcDbSymbolTableRecord
100
AcDbLayerTableRecord
  2
PDF6_Text
 70
     0
 62
     8
420
  8421504
  6
CONTINUOUS
370
    -3
390
1CD
347
1DF
348
0
  0
LAYER
  5
2263
330
1A5
100
AcDbSymbolTableRecord
100
AcDbLayerTableRecord
  2
PDF7_Geometry
 70
     0
 62
     7
  6
CONTINUOUS
370
    -3
390
1CD
347
1DF
348
0
  0
LAYER
  5
2264
330
1A5
100
AcDbSymbolTableRecord
100
AcDbLayerTableRecord
  2
PDF7_Solid Fills
 70
     0
 62
     8
420
  8421504
  6
CONTINUOUS
370
    -3
390
1CD
347
1DF
348
0
  0
LAYER
  5
226C
330
1A5
100
AcDbSymbolTableRecord
100
AcDbLayerTableRecord
  2
PDF7_Text
 70
     0
 62
     8
420
  8421504
  6
CONTINUOUS
370
    -3
390
1CD
347
1DF
348
0
  0
LAYER
  5
254A
330
1A5
100
AcDbSymbolTableRecord
100
AcDbLayerTableRecord
  2
PDF8_Geometry
 70
     0
 62
     7
  6
CONTINUOUS
370
    -3
390
1CD
347
1DF
348
0
  0
LAYER
  5
254B
330
1A5
100
AcDbSymbolTableRecord
100
AcDbLayerTableRecord
  2
PDF8_Solid Fills
 70
     0
 62
     8
420
  8421504
  6
CONTINUOUS
370
    -3
390
1CD
347
1DF
348
0
  0
LAYER
  5
2553
330
1A5
100
AcDbSymbolTableRecord
100
AcDbLayerTableRecord
  2
PDF8_Text
 70
     0
 62
     8
420
  8421504
  6
CONTINUOUS
370
    -3
390
1CD
347
1DF
348
0
  0
LAYER
  5
267E
330
1A5
100
AcDbSymbolTableRecord
100
AcDbLayerTableRecord
  2
PDF9_Geometry
 70
     0
 62
     7
  6
CONTINUOUS
370
    -3
390
1CD
347
1DF
348
0
  0
LAYER
  5
267F
330
1A5
100
AcDbSymbolTableRecord
100
AcDbLayerTableRecord
  2
PDF9_Solid Fills
 70
     0
 62
     8
420
  8421504
  6
CONTINUOUS
370
    -3
390
1CD
347
1DF
348
0
  0
LAYER
  5
2689
330
1A5
100
AcDbSymbolTableRecord
100
AcDbLayerTableRecord
  2
PDF9_Text
 70
     0
 62
     8
420
  8421504
  6
CONTINUOUS
370
    -3
390
1CD
347
1DF
348
0
  0
LAYER
  5
2ABD
330
1A5
100
AcDbSymbolTableRecord
100
AcDbLayerTableRecord
  2
TOLERANCES
 70
     0
 62
     7
  6
CONTINUOUS
370
    -3
390
1CD
347
1DF
348
0
  0
LAYER
  5
3945
330
1A5
100
AcDbSymbolTableRecord
100
AcDbLayerTableRecord
  2
PDF10_Geometry
 70
     0
 62
     7
  6
CONTINUOUS
370
    -3
390
1CD
347
1DF
348
0
  0
LAYER
  5
3946
330
1A5
100
AcDbSymbolTableRecord
100
AcDbLayerTableRecord
  2
PDF10_Solid Fills
 70
     0
 62
   250
420
  1579043
  6
CONTINUOUS
370
    -3
390
1CD
347
1DF
348
0
  0
LAYER
  5
3948
330
1A5
100
AcDbSymbolTableRecord
100
AcDbLayerTableRecord
  2
PDF10_Text
 70
     0
 62
   250
420
  1579043
  6
CONTINUOUS
370
    -3
390
1CD
347
1DF
348
0
  0
LAYER
  5
3ADF
330
1A5
100
AcDbSymbolTableRecord
100
AcDbLayerTableRecord
  2
PDF11_Geometry
 70
     0
 62
     7
  6
CONTINUOUS
370
    -3
390
1CD
347
1DF
348
0
  0
LAYER
  5
3AE0
330
1A5
100
AcDbSymbolTableRecord
100
AcDbLayerTableRecord
  2
PDF11_Solid Fills
 70
     0
 62
     8
420
  8421504
  6
CONTINUOUS
370
    -3
390
1CD
347
1DF
348
0
  0
LAYER
  5
3AE6
330
1A5
100
AcDbSymbolTableRecord
100
AcDbLayerTableRecord
  2
PDF11_Text
 70
     0
 62
     7
  6
CONTINUOUS
370
    -3
390
1CD
347
1DF
348
0
  0
LAYER
  5
4090
330
1A5
100
AcDbSymbolTableRecord
100
AcDbLayerTableRecord
  2
PDF12_Geometry
 70
     0
 62
     7
  6
CONTINUOUS
370
    -3
390
1CD
347
1DF
348
0
  0
LAYER
  5
4091
330
1A5
100
AcDbSymbolTableRecord
100
AcDbLayerTableRecord
  2
PDF12_Solid Fills
 70
     0
 62
   250
420
  1579043
  6
CONTINUOUS
370
    -3
390
1CD
347
1DF
348
0
  0
LAYER
  5
4094
330
1A5
100
AcDbSymbolTableRecord
100
AcDbLayerTableRecord
  2
PDF12_Text
 70
     0
 62
   250
420
  1579043
  6
CONTINUOUS
370
    -3
390
1CD
347
1DF
348
0
  0
LAYER
  5
4683
330
1A5
100
AcDbSymbolTableRecord
100
AcDbLayerTableRecord
  2
PDF13_Geometry
 70
     0
 62
     7
  6
CONTINUOUS
370
    -3
390
1CD
347
1DF
348
0
  0
LAYER
  5
4684
330
1A5
100
AcDbSymbolTableRecord
100
AcDbLayerTableRecord
  2
PDF13_Solid Fills
 70
     0
 62
   250
420
  1579043
  6
CONTINUOUS
370
    -3
390
1CD
347
1DF
348
0
  0
LAYER
  5
4687
330
1A5
100
AcDbSymbolTableRecord
100
AcDbLayerTableRecord
  2
PDF13_Text
 70
     0
 62
   250
420
  1579043
  6
CONTINUOUS
370
    -3
390
1CD
347
1DF
348
0
  0
LAYER
  5
49FF
330
1A5
100
AcDbSymbolTableRecord
100
AcDbLayerTableRecord
  2
PDF14_Geometry
 70
     0
 62
     7
  6
CONTINUOUS
370
    -3
390
1CD
347
1DF
348
0
  0
LAYER
  5
4A00
330
1A5
100
AcDbSymbolTableRecord
100
AcDbLayerTableRecord
  2
PDF14_Solid Fills
 70
     0
 62
   250
420
  1579043
  6
CONTINUOUS
370
    -3
390
1CD
347
1DF
348
0
  0
LAYER
  5
4A03
330
1A5
100
AcDbSymbolTableRecord
100
AcDbLayerTableRecord
  2
PDF14_Text
 70
     0
 62
   250
420
  1579043
  6
CONTINUOUS
370
    -3
390
1CD
347
1DF
348
0
  0
LAYER
  5
4D71
330
1A5
100
AcDbSymbolTableRecord
100
AcDbLayerTableRecord
  2
PDF15_Geometry
 70
     0
 62
     7
  6
CONTINUOUS
370
    -3
390
1CD
347
1DF
348
0
  0
LAYER
  5
4D72
330
1A5
100
AcDbSymbolTableRecord
100
AcDbLayerTableRecord
  2
PDF15_Solid Fills
 70
     0
 62
   250
420
  1579043
  6
CONTINUOUS
370
    -3
390
1CD
347
1DF
348
0
  0
LAYER
  5
4D75
330
1A5
100
AcDbSymbolTableRecord
100
AcDbLayerTableRecord
  2
PDF15_Text
 70
     0
 62
   250
420
  1579043
  6
CONTINUOUS
370
    -3
390
1CD
347
1DF
348
0
  0
ENDTAB
  0
TABLE
  2
STYLE
  5
1A6
330
0
100
AcDbSymbolTable
 70
     9
  0
STYLE
  5
A
102
{ACAD_XDICTIONARY
360
B
102
}
330
1A6
100
AcDbSymbolTableRecord
100
AcDbTextStyleTableRecord
  2
STANDARD
 70
     0
 40
0.0
 41
1.0
 50
0.0
 71
     0
 42
0.25
  3
txt
  4

  0
STYLE
  5
ACB
330
1A6
100
AcDbSymbolTableRecord
100
AcDbTextStyleTableRecord
  2
PDF Arial Bold
 70
     0
 40
0.0
 41
1.0
 50
0.0
 71
     0
 42
0.25
  3
arialbd.ttf
  4

1001
ACAD
1000
Arial
1071
 33554466
  0
STYLE
  5
ACE
330
1A6
100
AcDbSymbolTableRecord
100
AcDbTextStyleTableRecord
  2
PDF Arial
 70
     0
 40
0.0
 41
1.0
 50
0.0
 71
     0
 42
0.25
  3
arial.ttf
  4

1001
ACAD
1000
Arial
1071
       34
  0
STYLE
  5
F6A
330
1A6
100
AcDbSymbolTableRecord
100
AcDbTextStyleTableRecord
  2
SLDTEXTSTYLE0
 70
     0
 40
0.0
 41
0.605
 50
0.0
 71
     0
 42
0.125
  3
TXT
  4

  0
STYLE
  5
1EE7
330
1A6
100
AcDbSymbolTableRecord
100
AcDbTextStyleTableRecord
  2
PDF Century Gothic
 70
     0
 40
0.0
 41
1.0
 50
0.0
 71
     0
 42
0.25
  3
GOTHIC.TTF
  4

1001
ACAD
1000
Century Gothic
1071
       34
  0
STYLE
  5
2ABE
330
1A6
100
AcDbSymbolTableRecord
100
AcDbTextStyleTableRecord
  2
SLDTEXTSTYLE1
 70
     0
 40
0.0
 41
0.605
 50
0.0
 71
     0
 42
0.125
  3
TXT
  4

  0
STYLE
  5
365B
330
1A6
100
AcDbSymbolTableRecord
100
AcDbTextStyleTableRecord
  2
SLDTEXTSTYLE2
 70
     0
 40
0.0
 41
0.6875
 50
0.0
 71
     0
 42
0.1377952755905512
  3
TXT
  4

  0
ENDTAB
  0
TABLE
  2
VIEW
  5
1AC
330
0
100
AcDbSymbolTable
 70
    15
  0
ENDTAB
  0
TABLE
  2
UCS
  5
1AD
330
0
100
AcDbSymbolTable
 70
     0
  0
ENDTAB
  0
TABLE
  2
APPID
  5
1B0
330
0
100
AcDbSymbolTable
 70
    11
  0
APPID
  5
1B1
330
1B0
100
AcDbSymbolTableRecord
100
AcDbRegAppTableRecord
  2
ACAD
 70
     0
  0
APPID
  5
222
330
1B0
100
AcDbSymbolTableRecord
100
AcDbRegAppTableRecord
  2
ACAD_EXEMPT_FROM_CAD_STANDARDS
 70
     0
  0
APPID
  5
232
330
1B0
100
AcDbSymbolTableRecord
100
AcDbRegAppTableRecord
  2
ACAD_NAV_VCDISPLAY
 70
     0
  0
APPID
  5
238
330
1B0
100
AcDbSymbolTableRecord
100
AcDbRegAppTableRecord
  2
ACAD_PSEXT
 70
     0
  0
APPID
  5
19B9
330
1B0
100
AcDbSymbolTableRecord
100
AcDbRegAppTableRecord
  2
PLOTTRANSPARENCY
 70
     0
  0
APPID
  5
1B92
330
1B0
100
AcDbSymbolTableRecord
100
AcDbRegAppTableRecord
  2
AcadAnnoMonitorAlertIconDisabled
 70
     0
  0
APPID
  5
1BD0
330
1B0
100
AcDbSymbolTableRecord
100
AcDbRegAppTableRecord
  2
ACAD_DSTYLE_DIMJAG
 70
     0
  0
APPID
  5
1BD1
330
1B0
100
AcDbSymbolTableRecord
100
AcDbRegAppTableRecord
  2
ACAD_DSTYLE_DIMBREAK
 70
     0
  0
APPID
  5
1BD2
330
1B0
100
AcDbSymbolTableRecord
100
AcDbRegAppTableRecord
  2
ACAD_DSTYLE_DIMTALN
 70
     0
  0
APPID
  5
1C03
330
1B0
100
AcDbSymbolTableRecord
100
AcDbRegAppTableRecord
  2
AcadAnnotative
 70
     0
  0
APPID
  5
23BF
330
1B0
100
AcDbSymbolTableRecord
100
AcDbRegAppTableRecord
  2
ACAD_DSTYLE_DIMRADIAL_EXTENSION
 70
     0
  0
ENDTAB
  0
TABLE
  2
DIMSTYLE
  5
1B2
330
0
100
AcDbSymbolTable
 70
    12
100
AcDbDimStyleTable
 71
     2
340
1BD3
340
1BB
  0
DIMSTYLE
105
1BB
102
{ACAD_XDICTIONARY
360
1BC
102
}
330
1B2
100
AcDbSymbolTableRecord
100
AcDbDimStyleTableRecord
  2
STANDARD
 70
     0
340
A
  0
DIMSTYLE
105
1BD3
330
1B2
100
AcDbSymbolTableRecord
100
AcDbDimStyleTableRecord
  2
new 1
 70
     0
 41
3.5
 42
2.0
 43
12.0
 44
1.5
 50
90.0
 69
     1
 78
     3
 79
     3
140
3.0
141
4.0
144
0.039370078
146
0.8
147
1.5
172
     1
179
     2
277
     4
279
     2
340
A
341
1BF7
342
1BF7
343
1BF7
344
1BFE
346
1AA
347
1AA
372
    -1
1001
AcadAnnotative
1000
AnnotativeData
1002
{
1070
     1
1070
     1
1002
}
1001
ACAD_DSTYLE_DIMJAG
1070
   388
1040
1.5
1001
ACAD_DSTYLE_DIMBREAK
1070
   391
1040
0.13
1001
ACAD_DSTYLE_DIMTALN
1070
   392
1070
     0
  0
DIMSTYLE
105
2ABF
330
1B2
100
AcDbSymbolTableRecord
100
AcDbDimStyleTableRecord
  2
SLDDIMSTYLE0
 70
     0
 41
0.156
 44
0.0
 78
    12
 79
     3
140
0.09100341796875
144
2.0
147
0.0227508544921875
173
     1
272
     0
276
     2
277
     5
284
    12
340
2ABE
341
1BF7
343
1BF7
344
1BF7
  0
DIMSTYLE
105
2AC0
330
1B2
100
AcDbSymbolTableRecord
100
AcDbDimStyleTableRecord
  2
SLDDIMSTYLE1
 70
     0
 41
0.156
 44
0.0
 45
0.000000001
 78
    12
 79
     3
140
0.09100341796875
144
2.0
147
0.0227508544921875
173
     1
271
     6
272
     3
276
     2
277
     5
284
    12
340
2ABE
341
1BF7
343
1BF7
344
1BF7
  0
DIMSTYLE
105
2AC1
330
1B2
100
AcDbSymbolTableRecord
100
AcDbDimStyleTableRecord
  2
SLDDIMSTYLE2
 70
     0
 41
0.156
 44
0.0
 45
0.000000001
 78
    12
 79
     3
140
0.09100341796875
141
0.0
144
2.0
147
0.0227508544921875
173
     1
271
     3
272
     3
276
     2
277
     5
284
    12
340
2ABE
341
1BF7
343
1BF7
344
1BF7
  0
DIMSTYLE
105
2AC2
330
1B2
100
AcDbSymbolTableRecord
100
AcDbDimStyleTableRecord
  2
SLDDIMSTYLE3
 70
     0
 41
0.156
 44
0.0
 45
0.000000001
 78
    12
 79
     3
140
0.09100341796875
144
2.0
147
0.0227508544921875
172
     1
173
     1
271
     6
272
     3
276
     2
277
     5
284
    12
289
     0
340
2ABE
341
1BF7
343
1BF7
344
1BF7
  0
DIMSTYLE
105
2AC3
330
1B2
100
AcDbSymbolTableRecord
100
AcDbDimStyleTableRecord
  2
SLDDIMSTYLE4
 70
     0
 41
0.156
 44
0.0
 45
0.000000001
146
0.156
147
0.0
173
     1
271
     0
272
     0
276
     2
277
     5
340
A
341
1BF7
343
1BF7
344
1BF7
  0
DIMSTYLE
105
2AC4
330
1B2
100
AcDbSymbolTableRecord
100
AcDbDimStyleTableRecord
  2
SLDDIMSTYLE5
 70
     0
  3
<>
 41
0.156
 44
0.0
 45
0.000000001
 78
    12
 79
     3
140
0.09100341796875
141
0.0
144
2.0
147
0.0227508544921875
173
     1
271
     3
272
     3
276
     2
277
     5
284
    12
340
2ABE
341
1BF7
343
1BF7
344
1BF7
  0
DIMSTYLE
105
2AC5
330
1B2
100
AcDbSymbolTableRecord
100
AcDbDimStyleTableRecord
  2
SLDDIMSTYLE6
 70
     0
 41
0.156
 44
0.0
 45
0.000000001
146
0.156
147
0.0
173
     1
271
     0
272
     0
276
     2
277
     5
340
A
  0
ENDTAB
  0
TABLE
  2
BLOCK_RECORD
  5
1
330
0
100
AcDbSymbolTable
 70
    34
  0
BLOCK_RECORD
  5
2
102
{ACAD_XDICTIONARY
360
19C
102
}
330
1
100
AcDbSymbolTableRecord
100
AcDbBlockTableRecord
  2
*MODEL_SPACE
340
21D
 70
     0
280
     1
281
     0
  0
BLOCK_RECORD
  5
2932
330
1
100
AcDbSymbolTableRecord
100
AcDbBlockTableRecord
  2
*Paper_Space
340
2933
 70
     0
280
     1
281
     0
  0
BLOCK_RECORD
  5
7
330
1
100
AcDbSymbolTableRecord
100
AcDbBlockTableRecord
  2
JUS26_T
340
0
 70
     0
280
     1
281
     0
  0
BLOCK_RECORD
  5
64
330
1
100
AcDbSymbolTableRecord
100
AcDbBlockTableRecord
  2
JUS26_F
340
0
 70
     0
280
     1
281
     0
  0
BLOCK_RECORD
  5
133
330
1
100
AcDbSymbolTableRecord
100
AcDbBlockTableRecord
  2
JUS26_S
340
0
 70
     0
280
     1
281
     0
  0
BLOCK_RECORD
  5
1BF7
330
1
100
AcDbSymbolTableRecord
100
AcDbBlockTableRecord
  2
_Closed
340
0
102
{BLKREFS
331
2AA0
331
2AA9
331
2AAA
331
2A54
331
2A55
331
2A5D
331
2A5E
331
2A67
331
2A70
331
2A71
331
2A7A
331
2A7B
331
2A86
331
2A87
331
2A8E
331
2A8F
331
2A98
102
}
 70
     0
280
     1
281
     0
  0
BLOCK_RECORD
  5
1BFE
330
1
100
AcDbSymbolTableRecord
100
AcDbBlockTableRecord
  2
_Dot
340
0
 70
     0
280
     1
281
     0
  0
BLOCK_RECORD
  5
2833
102
{ACAD_XDICTIONARY
360
2835
102
}
330
1
100
AcDbSymbolTableRecord
100
AcDbBlockTableRecord
  2
A$C722B59BA
340
0
 70
     4
280
     1
281
     0
  0
BLOCK_RECORD
  5
2A3E
330
1
100
AcDbSymbolTableRecord
100
AcDbBlockTableRecord
  2
SW_NOTE_0
340
0
 70
     0
280
     1
281
     0
  0
BLOCK_RECORD
  5
2A47
330
1
100
AcDbSymbolTableRecord
100
AcDbBlockTableRecord
  2
SW_NOTE_1
340
0
 70
     0
280
     1
281
     0
  0
BLOCK_RECORD
  5
2A50
330
1
100
AcDbSymbolTableRecord
100
AcDbBlockTableRecord
  2
_D
340
0
 70
     0
280
     1
281
     0
  0
BLOCK_RECORD
  5
2A5B
330
1
100
AcDbSymbolTableRecord
100
AcDbBlockTableRecord
  2
_D_1
340
0
 70
     0
280
     1
281
     0
  0
BLOCK_RECORD
  5
2A65
330
1
100
AcDbSymbolTableRecord
100
AcDbBlockTableRecord
  2
_D_2
340
0
 70
     0
280
     1
281
     0
  0
BLOCK_RECORD
  5
2A6E
330
1
100
AcDbSymbolTableRecord
100
AcDbBlockTableRecord
  2
_D_3
340
0
 70
     0
280
     1
281
     0
  0
BLOCK_RECORD
  5
2A78
330
1
100
AcDbSymbolTableRecord
100
AcDbBlockTableRecord
  2
_D_4
340
0
 70
     0
280
     1
281
     0
  0
BLOCK_RECORD
  5
2A82
330
1
100
AcDbSymbolTableRecord
100
AcDbBlockTableRecord
  2
_D_5
340
0
 70
     0
280
     1
281
     0
  0
BLOCK_RECORD
  5
2A8C
330
1
100
AcDbSymbolTableRecord
100
AcDbBlockTableRecord
  2
_D_6
340
0
 70
     0
280
     1
281
     0
  0
BLOCK_RECORD
  5
2A96
330
1
100
AcDbSymbolTableRecord
100
AcDbBlockTableRecord
  2
_D_7
340
0
 70
     0
280
     1
281
     0
  0
BLOCK_RECORD
  5
2A9E
330
1
100
AcDbSymbolTableRecord
100
AcDbBlockTableRecord
  2
_D_8
340
0
 70
     0
280
     1
281
     0
  0
BLOCK_RECORD
  5
2AA7
330
1
100
AcDbSymbolTableRecord
100
AcDbBlockTableRecord
  2
_D_9
340
0
 70
     0
280
     1
281
     0
  0
BLOCK_RECORD
  5
2AB1
330
1
100
AcDbSymbolTableRecord
100
AcDbBlockTableRecord
  2
SW_NOTE_2
340
0
 70
     0
280
     1
281
     0
  0
BLOCK_RECORD
  5
2AB6
330
1
100
AcDbSymbolTableRecord
100
AcDbBlockTableRecord
  2
SW_NOTE_3
340
0
 70
     0
280
     1
281
     0
  0
BLOCK_RECORD
  5
361E
330
1
100
AcDbSymbolTableRecord
100
AcDbBlockTableRecord
  2
SW_NOTE_0_1
340
0
 70
     0
280
     1
281
     0
  0
BLOCK_RECORD
  5
3624
330
1
100
AcDbSymbolTableRecord
100
AcDbBlockTableRecord
  2
_None
340
0
 70
     0
280
     1
281
     0
  0
BLOCK_RECORD
  5
3627
330
1
100
AcDbSymbolTableRecord
100
AcDbBlockTableRecord
  2
SW_CENTERMARKSYMBOL_0
340
0
 70
     0
280
     1
281
     0
  0
BLOCK_RECORD
  5
3636
330
1
100
AcDbSymbolTableRecord
100
AcDbBlockTableRecord
  2
SW_CENTERMARKSYMBOL_1
340
0
 70
     0
280
     1
281
     0
  0
BLOCK_RECORD
  5
3645
330
1
100
AcDbSymbolTableRecord
100
AcDbBlockTableRecord
  2
SW_CENTERMARKSYMBOL_2
340
0
 70
     0
280
     1
281
     0
  0
BLOCK_RECORD
  5
3650
330
1
100
AcDbSymbolTableRecord
100
AcDbBlockTableRecord
  2
SW_CENTERMARKSYMBOL_3
340
0
 70
     0
280
     1
281
     0
  0
BLOCK_RECORD
  5
3CCC
330
1
100
AcDbSymbolTableRecord
100
AcDbBlockTableRecord
  2
SW_CENTERMARKSYMBOL_4
340
0
 70
     0
280
     1
281
     0
  0
BLOCK_RECORD
  5
3CD7
330
1
100
AcDbSymbolTableRecord
100
AcDbBlockTableRecord
  2
SW_CENTERMARKSYMBOL_5
340
0
 70
     0
280
     1
281
     0
  0
BLOCK_RECORD
  5
3CE2
330
1
100
AcDbSymbolTableRecord
100
AcDbBlockTableRecord
  2
SW_CENTERMARKSYMBOL_6
340
0
 70
     0
280
     1
281
     0
  0
BLOCK_RECORD
  5
3CED
330
1
100
AcDbSymbolTableRecord
100
AcDbBlockTableRecord
  2
SW_CENTERMARKSYMBOL_7
340
0
 70
     0
280
     1
281
     0
  0
ENDTAB
  0
ENDSEC
  0
SECTION
  2
BLOCKS
  0
BLOCK
  5
19E
330
2
100
AcDbEntity
  8
0
100
AcDbBlockBegin
  2
*MODEL_SPACE
 70
     0
 10
0.0
 20
0.0
 30
0.0
  3
*MODEL_SPACE
  1

  0
ENDBLK
  5
19F
330
2
100
AcDbEntity
  8
0
100
AcDbBlockEnd
  0
BLOCK
  5
2934
330
2932
100
AcDbEntity
 67
     1
  8
0
100
AcDbBlockBegin
  2
*Paper_Space
 70
     0
 10
0.0
 20
0.0
 30
0.0
  3
*Paper_Space
  1

  0
ENDBLK
  5
2935
330
2932
100
AcDbEntity
 67
     1
  8
0
100
AcDbBlockEnd
  0
BLOCK
  5
60
330
7
100
AcDbEntity
  8
0
100
AcDbBlockBegin
  2
JUS26_T
 70
     0
 10
0.0
 20
0.0
 30
0.0
  3
JUS26_T
  1

  0
TEXT
  5
8
330
7
100
AcDbEntity
  8
USP-TXT
100
AcDbText
 10
-0.1709500000000048
 20
-1.5
 30
0.0
 40
0.25
  1
JUS26 - TOP VIEW
 72
     1
 11
1.829049999999995
 21
-1.5
 31
0.0
100
AcDbText
  0
LINE
  5
C
330
7
100
AcDbEntity
  8
USP-GEO
100
AcDbLine
 10
2.690300000000007
 20
1.98596453703594
 30
0.0
 11
3.658100000000018
 21
1.98596453703594
 31
0.0
  0
LINE
  5
E
330
7
100
AcDbEntity
  8
USP-GEO
100
AcDbLine
 10
3.658100000000018
 20
1.938164537035945
 30
0.0
 11
2.69810000000001
 21
1.938164537035945
 31
0.0
  0
LINE
  5
F
330
7
100
AcDbEntity
  8
USP-GEO
100
AcDbLine
 10
2.785457317305528
 20
0.9097831641453666
 30
0.0
 11
2.677204141832461
 21
0.8472831641453666
 31
0.0
  0
ARC
  5
10
330
7
100
AcDbEntity
  8
USP-GEO
100
AcDbCircle
 10
2.610300000000023
 20
1.088164537035979
 30
0.0
 40
0.25
100
AcDbArc
 50
314.4775121859278
 51
78.97717689259626
  0
LINE
  5
11
330
7
100
AcDbEntity
  8
USP-GEO
100
AcDbLine
 10
1.137799999999998
 20
0.0
 30
0.0
 11
2.520299999999991
 21
0.0
 31
0.0
  0
LINE
  5
12
330
7
100
AcDbEntity
  8
USP-GEO
100
AcDbLine
 10
2.520299999999991
 20
1.75
 30
0.0
 11
1.137799999999998
 21
1.75
 31
0.0
  0
LINE
  5
13
330
7
100
AcDbEntity
  8
USP-GEO
100
AcDbLine
 10
1.047800000000023
 20
1.18816453703549
 30
0.0
 11
1.047800000000023
 21
1.004831203702181
 31
0.0
  0
LINE
  5
14
330
7
100
AcDbEntity
  8
USP-GEO
100
AcDbLine
 10
1.087799999999987
 20
0.0762571963810501
 30
0.0
 11
1.087799999999987
 21
1.604695092532708
 31
0.0
  0
LINE
  5
15
330
7
100
AcDbEntity
  8
USP-GEO
100
AcDbLine
 10
1.000000000000014
 20
1.18816453703549
 30
0.0
 11
1.000000000000014
 21
1.004831203702167
 31
0.0
  0
ARC
  5
16
330
7
100
AcDbEntity
  8
USP-GEO
100
AcDbCircle
 10
1.047800000000023
 20
1.08816453703551
 30
0.0
 40
0.25
100
AcDbArc
 50
101.0228231074069
 51
225.5224878140711
  0
LINE
  5
17
330
7
100
AcDbEntity
  8
USP-GEO
100
AcDbLine
 10
0.8726426826945115
 20
0.9097831641448976
 30
0.0
 11
0.9808958581675639
 21
0.8472831641448976
 31
0.0
  0
LINE
  5
18
330
7
100
AcDbEntity
  8
USP-GEO
100
AcDbLine
 10
1.047800000000023
 20
1.004831203702167
 30
0.0
 11
1.047800000000023
 21
0.775664537035496
 31
0.0
  0
LINE
  5
19
330
7
100
AcDbEntity
  8
USP-GEO
100
AcDbLine
 10
1.047799999999995
 20
0.0513016220255622
 30
0.0
 11
1.047799999999995
 21
0.7756645370354818
 31
0.0
  0
LINE
  5
1A
330
7
100
AcDbEntity
  8
USP-GEO
100
AcDbLine
 10
1.087799999999987
 20
0.0762571963810643
 30
0.0
 11
1.09559999999999
 21
0.0762571963810643
 31
0.0
  0
LINE
  5
1B
330
7
100
AcDbEntity
  8
USP-GEO
100
AcDbLine
 10
1.087799999999987
 20
0.0762571963810501
 30
0.0
 11
1.04779999999998
 21
0.0762571963810501
 31
0.0
  0
LINE
  5
1C
330
7
100
AcDbEntity
  8
USP-GEO
100
AcDbLine
 10
1.0
 20
1.004831203702167
 30
0.0
 11
1.0
 21
0.775664537035496
 31
0.0
  0
LINE
  5
1D
330
7
100
AcDbEntity
  8
USP-GEO
100
AcDbLine
 10
1.047800000000009
 20
1.004831203702167
 30
0.0
 11
1.000000000000014
 21
1.004831203702167
 31
0.0
  0
LINE
  5
1E
330
7
100
AcDbEntity
  8
USP-GEO
100
AcDbLine
 10
1.047799999999995
 20
0.0513016220255622
 30
0.0
 11
1.0
 21
0.0513016220255622
 31
0.0
  0
LINE
  5
1F
330
7
100
AcDbEntity
  8
USP-GEO
100
AcDbLine
 10
1.0
 20
0.775664537035496
 30
0.0
 11
1.0
 21
0.0513016220255764
 31
0.0
  0
ARC
  5
20
330
7
100
AcDbEntity
  8
USP-GEO
100
AcDbCircle
 10
-1.047800000000279
 20
-0.0000000000005116
 30
0.0
 40
0.089999999999718
210
0.0
220
0.0
230
-1.0
100
AcDbArc
 50
122.0805589092353
 51
179.9999999996743
  0
ARC
  5
21
330
7
100
AcDbEntity
  8
USP-GEO
100
AcDbCircle
 10
1.047800000000023
 20
1.08816453703551
 30
0.0
 40
0.25
100
AcDbArc
 50
254.4775121859288
 51
258.9741248763002
  0
LINE
  5
22
330
7
100
AcDbEntity
  8
USP-GEO
100
AcDbLine
 10
1.0
 20
0.775664537035496
 30
0.0
 11
1.047800000000023
 21
0.775664537035496
 31
0.0
  0
LINE
  5
23
330
7
100
AcDbEntity
  8
USP-GEO
100
AcDbLine
 10
0.9678000000000253
 20
1.985964537035471
 30
0.0
 11
0.0
 21
1.985964537035471
 31
0.0
  0
LINE
  5
24
330
7
100
AcDbEntity
  8
USP-GEO
100
AcDbLine
 10
0.0
 20
1.938164537035461
 30
0.0
 11
0.9600000000000221
 21
1.938164537035461
 31
0.0
  0
LINE
  5
25
330
7
100
AcDbEntity
  8
USP-GEO
100
AcDbLine
 10
0.7139999999999987
 20
1.92575150624792
 30
0.0
 11
0.5360000000000014
 21
1.92575150624792
 31
0.0
  0
LINE
  5
26
330
7
100
AcDbEntity
  8
USP-GEO
100
AcDbLine
 10
0.5360000000000014
 20
1.731404044188053
 30
0.0
 11
0.7139999999999987
 21
1.731404044188053
 31
0.0
  0
LINE
  5
27
330
7
100
AcDbEntity
  8
USP-GEO
100
AcDbLine
 10
0.5360000000000014
 20
1.714657219661106
 30
0.0
 11
0.7139999999999987
 21
1.714657219661106
 31
0.0
  0
LINE
  5
28
330
7
100
AcDbEntity
  8
USP-GEO
100
AcDbLine
 10
0.5360000000000156
 20
1.92575150624792
 30
0.0
 11
0.5360000000000156
 21
1.93816453703549
 31
0.0
  0
LINE
  5
29
330
7
100
AcDbEntity
  8
USP-GEO
100
AcDbLine
 10
0.0
 20
1.985964537035471
 30
0.0
 11
0.0
 21
1.938164537035461
 31
0.0
  0
LINE
  5
2A
330
7
100
AcDbEntity
  8
USP-GEO
100
AcDbLine
 10
0.5360000000000014
 20
1.714657219661106
 30
0.0
 11
0.5360000000000014
 21
1.731404044188039
 31
0.0
  0
LINE
  5
2B
330
7
100
AcDbEntity
  8
USP-GEO
100
AcDbLine
 10
0.5360000000000014
 20
1.731404044188053
 30
0.0
 11
0.5360000000000014
 21
1.92575150624792
 31
0.0
  0
LINE
  5
2C
330
7
100
AcDbEntity
  8
USP-GEO
100
AcDbLine
 10
0.4125000000000299
 20
1.938164537035504
 30
0.0
 11
0.4125000000000299
 21
1.93827302355119
 31
0.0
  0
ARC
  5
2D
330
7
100
AcDbEntity
  8
USP-GEO
100
AcDbCircle
 10
-0.967800000000011
 20
1.905964537035472
 30
0.0
 40
0.08
210
0.0
220
0.0
230
-1.0
100
AcDbArc
 50
90.00000000001017
 51
180.0
  0
LINE
  5
2E
330
7
100
AcDbEntity
  8
USP-GEO
100
AcDbLine
 10
1.047799999999995
 20
1.842564537035698
 30
0.0
 11
1.047235273606503
 21
1.842564537035698
 31
0.0
  0
LINE
  5
2F
330
7
100
AcDbEntity
  8
USP-GEO
100
AcDbLine
 10
1.047800000000009
 20
1.905964537035472
 30
0.0
 11
1.047800000000009
 21
1.188164537035461
 31
0.0
  0
LINE
  5
30
330
7
100
AcDbEntity
  8
USP-GEO
100
AcDbLine
 10
1.04779999999998
 20
1.604695092532708
 30
0.0
 11
1.087799999999987
 21
1.604695092532708
 31
0.0
  0
ARC
  5
31
330
7
100
AcDbEntity
  8
USP-GEO
100
AcDbCircle
 10
-0.9600000000000079
 20
1.898164537035469
 30
0.0
 40
0.04
210
0.0
220
0.0
230
-1.0
100
AcDbArc
 50
90.00000000002037
 51
179.9999999999894
  0
LINE
  5
32
330
7
100
AcDbEntity
  8
USP-GEO
100
AcDbLine
 10
0.7139999999999987
 20
1.93816453703549
 30
0.0
 11
0.7139999999999987
 21
1.92575150624792
 31
0.0
  0
LINE
  5
33
330
7
100
AcDbEntity
  8
USP-GEO
100
AcDbLine
 10
0.7139999999999987
 20
1.731404044188053
 30
0.0
 11
0.7139999999999987
 21
1.92575150624792
 31
0.0
  0
LINE
  5
34
330
7
100
AcDbEntity
  8
USP-GEO
100
AcDbLine
 10
0.7139999999999987
 20
1.714657219661106
 30
0.0
 11
0.7139999999999987
 21
1.731404044188053
 31
0.0
  0
LINE
  5
35
330
7
100
AcDbEntity
  8
USP-GEO
100
AcDbLine
 10
1.000000000000014
 20
1.898164537035469
 30
0.0
 11
1.000000000000014
 21
1.188164537035461
 31
0.0
  0
LINE
  5
36
330
7
100
AcDbEntity
  8
USP-GEO
100
AcDbLine
 10
1.047800000000009
 20
1.188164537035461
 30
0.0
 11
1.000000000000014
 21
1.188164537035461
 31
0.0
  0
LINE
  5
37
330
7
100
AcDbEntity
  8
USP-GEO
100
AcDbLine
 10
1.047799999999995
 20
1.604695092532779
 30
0.0
 11
1.047195725753319
 21
1.604695092532779
 31
0.0
  0
LINE
  5
38
330
7
100
AcDbEntity
  8
USP-GEO
100
AcDbLine
 10
1.09559999999999
 20
1.604695092532708
 30
0.0
 11
1.087799999999987
 21
1.604695092532708
 31
0.0
  0
LINE
  5
39
330
7
100
AcDbEntity
  8
USP-GEO
100
AcDbLine
 10
1.09559999999999
 20
1.673742803618196
 30
0.0
 11
1.09559999999999
 21
1.604695092532708
 31
0.0
  0
ARC
  5
3A
330
7
100
AcDbEntity
  8
USP-GEO
100
AcDbCircle
 10
-1.047799999999952
 20
1.749999999999928
 30
0.0
 40
0.0900000000000337
210
0.0
220
0.0
230
-1.0
100
AcDbArc
 50
179.9999999999633
 51
237.9194410906462
  0
LINE
  5
3B
330
7
100
AcDbEntity
  8
USP-GEO
100
AcDbLine
 10
2.610300000000009
 20
1.188164537035945
 30
0.0
 11
2.610300000000009
 21
1.004831203702636
 31
0.0
  0
LINE
  5
3C
330
7
100
AcDbEntity
  8
USP-GEO
100
AcDbLine
 10
2.570299999999988
 20
1.604695092533191
 30
0.0
 11
2.570299999999988
 21
0.0762571963815333
 31
0.0
  0
LINE
  5
3D
330
7
100
AcDbEntity
  8
USP-GEO
100
AcDbLine
 10
2.658100000000018
 20
1.188164537035973
 30
0.0
 11
2.658100000000018
 21
1.004831203702636
 31
0.0
  0
LINE
  5
3E
330
7
100
AcDbEntity
  8
USP-GEO
100
AcDbLine
 10
2.610299999999995
 20
0.0513016220260596
 30
0.0
 11
2.610299999999995
 21
0.775664537035965
 31
0.0
  0
LINE
  5
3F
330
7
100
AcDbEntity
  8
USP-GEO
100
AcDbLine
 10
2.610300000000023
 20
1.004831203702636
 30
0.0
 11
2.610300000000023
 21
0.775664537035965
 31
0.0
  0
LINE
  5
40
330
7
100
AcDbEntity
  8
USP-GEO
100
AcDbLine
 10
2.610299850353058
 20
0.0762571963815333
 30
0.0
 11
2.570299999999988
 21
0.0762571963815333
 31
0.0
  0
LINE
  5
41
330
7
100
AcDbEntity
  8
USP-GEO
100
AcDbLine
 10
2.658100000000018
 20
1.004831203702636
 30
0.0
 11
2.658100000000018
 21
0.7756645370359508
 31
0.0
  0
LINE
  5
42
330
7
100
AcDbEntity
  8
USP-GEO
100
AcDbLine
 10
2.610300000000009
 20
1.004831203702636
 30
0.0
 11
2.658100000000018
 21
1.004831203702636
 31
0.0
  0
LINE
  5
43
330
7
100
AcDbEntity
  8
USP-GEO
100
AcDbLine
 10
2.65809999999999
 20
0.0776620114496183
 30
0.0
 11
2.65809999999999
 21
0.0762571963814622
 31
0.0
  0
LINE
  5
44
330
7
100
AcDbEntity
  8
USP-GEO
100
AcDbLine
 10
2.610299999999995
 20
0.0513016220260596
 30
0.0
 11
2.65809999999999
 21
0.0513016220260596
 31
0.0
  0
LINE
  5
45
330
7
100
AcDbEntity
  8
USP-GEO
100
AcDbLine
 10
2.65809999999999
 20
0.7756645370359508
 30
0.0
 11
2.65809999999999
 21
0.0513016220260454
 31
0.0
  0
LINE
  5
46
330
7
100
AcDbEntity
  8
USP-GEO
100
AcDbLine
 10
2.562499999999687
 20
0.0762571963815333
 30
0.0
 11
2.570299999999988
 21
0.0762571963815333
 31
0.0
  0
ARC
  5
47
330
7
100
AcDbEntity
  8
USP-GEO
100
AcDbCircle
 10
-2.61029999999998
 20
0.0000000000000142
 30
0.0
 40
0.089999999999998
210
0.0
220
0.0
230
-1.0
100
AcDbArc
 50
359.999999999991
 51
57.91944109042779
  0
ARC
  5
48
330
7
100
AcDbEntity
  8
USP-GEO
100
AcDbCircle
 10
2.610300000000023
 20
1.088164537035979
 30
0.0
 40
0.25
100
AcDbArc
 50
281.0228231074037
 51
285.5224878140663
  0
LINE
  5
49
330
7
100
AcDbEntity
  8
USP-GEO
100
AcDbLine
 10
2.610300000000023
 20
0.775664537035965
 30
0.0
 11
2.658100000000018
 21
0.775664537035965
 31
0.0
  0
LINE
  5
4A
330
7
100
AcDbEntity
  8
USP-GEO
100
AcDbLine
 10
2.570299999999988
 20
1.604695092533191
 30
0.0
 11
2.5625
 21
1.604695092533191
 31
0.0
  0
LINE
  5
4B
330
7
100
AcDbEntity
  8
USP-GEO
100
AcDbLine
 10
2.570299999999988
 20
1.604695092533191
 30
0.0
 11
2.610029459861237
 21
1.604695092533191
 31
0.0
  0
LINE
  5
4C
330
7
100
AcDbEntity
  8
USP-GEO
100
AcDbLine
 10
2.657495725753307
 20
1.604695092533248
 30
0.0
 11
2.65809999999999
 21
1.604695092533248
 31
0.0
  0
ARC
  5
4D
330
7
100
AcDbEntity
  8
USP-GEO
100
AcDbCircle
 10
-2.690300000000021
 20
1.905964537035941
 30
0.0
 40
0.08
210
0.0
220
0.0
230
-1.0
100
AcDbArc
 50
0.0
 51
89.99999999998982
  0
LINE
  5
4E
330
7
100
AcDbEntity
  8
USP-GEO
100
AcDbLine
 10
2.610300000000023
 20
1.905964537035941
 30
0.0
 11
2.610300000000023
 21
1.188164537035945
 31
0.0
  0
LINE
  5
4F
330
7
100
AcDbEntity
  8
USP-GEO
100
AcDbLine
 10
2.610300000000023
 20
1.188164537035945
 30
0.0
 11
2.658100000000018
 21
1.188164537035945
 31
0.0
  0
LINE
  5
50
330
7
100
AcDbEntity
  8
USP-GEO
100
AcDbLine
 10
2.658100000000004
 20
1.898164537035938
 30
0.0
 11
2.658100000000004
 21
1.188164537035945
 31
0.0
  0
ARC
  5
51
330
7
100
AcDbEntity
  8
USP-GEO
100
AcDbCircle
 10
-2.69810000000001
 20
1.898164537035938
 30
0.0
 40
0.04
210
0.0
220
0.0
230
-1.0
100
AcDbArc
 50
0.0
 51
90.0
  0
LINE
  5
52
330
7
100
AcDbEntity
  8
USP-GEO
100
AcDbLine
 10
2.657535273606512
 20
1.842564537036182
 30
0.0
 11
2.65809999999999
 21
1.842564537036182
 31
0.0
  0
LINE
  5
53
330
7
100
AcDbEntity
  8
USP-GEO
100
AcDbLine
 10
2.5625
 20
1.604695092533191
 30
0.0
 11
2.5625
 21
1.673742803618253
 31
0.0
  0
ARC
  5
54
330
7
100
AcDbEntity
  8
USP-GEO
100
AcDbCircle
 10
-2.610299999999995
 20
1.75
 30
0.0
 40
0.0899999999999981
210
0.0
220
0.0
230
-1.0
100
AcDbArc
 50
302.0805589093153
 51
0.0
  0
LINE
  5
55
330
7
100
AcDbEntity
  8
USP-GEO
100
AcDbLine
 10
3.122100000000017
 20
1.925751506248388
 30
0.0
 11
2.94410000000002
 21
1.925751506248388
 31
0.0
  0
LINE
  5
56
330
7
100
AcDbEntity
  8
USP-GEO
100
AcDbLine
 10
3.122100000000017
 20
1.938164537035959
 30
0.0
 11
3.122100000000017
 21
1.925751506248388
 31
0.0
  0
LINE
  5
57
330
7
100
AcDbEntity
  8
USP-GEO
100
AcDbLine
 10
2.944100000000034
 20
1.925751506248388
 30
0.0
 11
2.944100000000034
 21
1.938164537035959
 31
0.0
  0
LINE
  5
58
330
7
100
AcDbEntity
  8
USP-GEO
100
AcDbLine
 10
3.122100000000017
 20
1.731404044188522
 30
0.0
 11
3.122100000000017
 21
1.925751506248388
 31
0.0
  0
LINE
  5
59
330
7
100
AcDbEntity
  8
USP-GEO
100
AcDbLine
 10
3.122100000000017
 20
1.714657219661589
 30
0.0
 11
3.122100000000017
 21
1.731404044188536
 31
0.0
  0
LINE
  5
5A
330
7
100
AcDbEntity
  8
USP-GEO
100
AcDbLine
 10
2.94410000000002
 20
1.714657219661589
 30
0.0
 11
2.94410000000002
 21
1.731404044188536
 31
0.0
  0
LINE
  5
5B
330
7
100
AcDbEntity
  8
USP-GEO
100
AcDbLine
 10
2.94410000000002
 20
1.731404044188522
 30
0.0
 11
2.94410000000002
 21
1.925751506248388
 31
0.0
  0
LINE
  5
5C
330
7
100
AcDbEntity
  8
USP-GEO
100
AcDbLine
 10
2.94410000000002
 20
1.731404044188522
 30
0.0
 11
3.122100000000017
 21
1.731404044188522
 31
0.0
  0
LINE
  5
5D
330
7
100
AcDbEntity
  8
USP-GEO
100
AcDbLine
 10
3.245599999999996
 20
1.938273023551658
 30
0.0
 11
3.245599999999996
 21
1.938164537035987
 31
0.0
  0
LINE
  5
5E
330
7
100
AcDbEntity
  8
USP-GEO
100
AcDbLine
 10
2.94410000000002
 20
1.714657219661589
 30
0.0
 11
3.122100000000017
 21
1.714657219661589
 31
0.0
  0
LINE
  5
5F
330
7
100
AcDbEntity
  8
USP-GEO
100
AcDbLine
 10
3.658100000000018
 20
1.98596453703594
 30
0.0
 11
3.658100000000018
 21
1.938164537035945
 31
0.0
  0
ENDBLK
  5
62
330
7
100
AcDbEntity
  8
0
100
AcDbBlockEnd
  0
BLOCK
  5
130
330
64
100
AcDbEntity
  8
0
100
AcDbBlockBegin
  2
JUS26_F
 70
     0
 10
0.0
 20
0.0
 30
0.0
  3
JUS26_F
  1

  0
ARC
  5
65
330
64
100
AcDbEntity
  8
USP-GEO
100
AcDbCircle
 10
-3.558099999999996
 20
4.063582580011072
 30
0.0
 40
0.3125000000000225
210
0.0
220
0.0
230
-1.0
100
AcDbArc
 50
285.4660099534167
 51
74.53399004658255
  0
LINE
  5
66
330
64
100
AcDbEntity
  8
USP-GEO
100
AcDbLine
 10
2.94410000000002
 20
4.087789700126165
 30
0.0
 11
2.94410000000002
 21
4.271030428412288
 31
0.0
  0
LINE
  5
67
330
64
100
AcDbEntity
  8
USP-GEO
100
AcDbLine
 10
3.122100000000017
 20
4.087789700126165
 30
0.0
 11
3.122100000000017
 21
4.271030428412288
 31
0.0
  0
LINE
  5
68
330
64
100
AcDbEntity
  8
USP-GEO
100
AcDbLine
 10
2.933100000000024
 20
3.911942135623846
 30
0.0
 11
2.933100000000024
 21
4.611942135623849
 31
0.0
  0
LINE
  5
69
330
64
100
AcDbEntity
  8
USP-GEO
100
AcDbLine
 10
3.133100000000013
 20
4.611942135623849
 30
0.0
 11
3.133100000000013
 21
3.911942135623846
 31
0.0
  0
LINE
  5
6A
330
64
100
AcDbEntity
  8
USP-GEO
100
AcDbLine
 10
0.5360000000000014
 20
4.08778970012618
 30
0.0
 11
0.5360000000000014
 21
4.271030428412302
 31
0.0
  0
LINE
  5
6B
330
64
100
AcDbEntity
  8
USP-GEO
100
AcDbLine
 10
0.5250000000000057
 20
3.91194213562386
 30
0.0
 11
0.5250000000000057
 21
4.611942135623849
 31
0.0
  0
ARC
  5
6C
330
64
100
AcDbEntity
  8
USP-GEO
100
AcDbCircle
 10
0.1000000000000085
 20
4.063582580011086
 30
0.0
 40
0.3125000000000225
100
AcDbArc
 50
285.46600995342
 51
74.53399004658037
  0
ARC
  5
6D
330
64
100
AcDbEntity
  8
USP-GEO
100
AcDbCircle
 10
1.047800000000023
 20
4.063582580011029
 30
0.0
 40
0.25
100
AcDbArc
 50
101.0228231074069
 51
258.977176892593
  0
LINE
  5
6E
330
64
100
AcDbEntity
  8
USP-GEO
100
AcDbLine
 10
1.0
 20
4.36476658615274
 30
0.0
 11
1.0
 21
3.762398573869319
 31
0.0
  0
LINE
  5
6F
330
64
100
AcDbEntity
  8
USP-GEO
100
AcDbLine
 10
0.7139999999999987
 20
4.087789700126165
 30
0.0
 11
0.7139999999999987
 21
4.271030428412302
 31
0.0
  0
LINE
  5
70
330
64
100
AcDbEntity
  8
USP-GEO
100
AcDbLine
 10
0.7250000000000086
 20
4.611942135623849
 30
0.0
 11
0.7250000000000086
 21
3.91194213562386
 31
0.0
  0
LINE
  5
71
330
64
100
AcDbEntity
  8
USP-GEO
100
AcDbLine
 10
1.047800000000023
 20
4.36476658615274
 30
0.0
 11
1.047800000000023
 21
3.762398573869319
 31
0.0
  0
LINE
  5
72
330
64
100
AcDbEntity
  8
USP-GEO
100
AcDbLine
 10
2.658100000000018
 20
4.36476658615274
 30
0.0
 11
2.658100000000018
 21
3.762398573869319
 31
0.0
  0
LINE
  5
73
330
64
100
AcDbEntity
  8
USP-GEO
100
AcDbLine
 10
2.610300000000023
 20
4.36476658615274
 30
0.0
 11
2.610300000000023
 21
3.762398573869319
 31
0.0
  0
ARC
  5
74
330
64
100
AcDbEntity
  8
USP-GEO
100
AcDbCircle
 10
2.610300000000023
 20
4.063582580011029
 30
0.0
 40
0.25
100
AcDbArc
 50
281.0228231074
 51
78.9771768925996
  0
TEXT
  5
75
330
64
100
AcDbEntity
  8
USP-TXT
100
AcDbText
 10
-0.4209500000000044
 20
-1.5
 30
0.0
 40
0.25
  1
JUS26 - FRONT VIEW
 72
     1
 11
1.829049999999995
 21
-1.5
 31
0.0
100
AcDbText
  0
LINE
  5
76
330
64
100
AcDbEntity
  8
USP-GEO
100
AcDbLine
 10
1.137799999999998
 20
0.0478000000000094
 30
0.0
 11
2.520299999999991
 21
0.0477999999999952
 31
0.0
  0
LINE
  5
77
330
64
100
AcDbEntity
  8
USP-GEO
100
AcDbLine
 10
1.137799999999998
 20
0.0
 30
0.0
 11
2.520299999999991
 21
0.0
 31
0.0
  0
LINE
  5
78
330
64
100
AcDbEntity
  8
USP-GEO
100
AcDbLine
 10
0.9600000000000008
 20
2.07958257492281
 30
0.0
 11
0.9599999999999937
 21
0.4075421356238565
 31
0.0
  0
LINE
  5
79
330
64
100
AcDbEntity
  8
USP-GEO
100
AcDbLine
 10
0.9043999999999812
 20
0.4075421356238565
 30
0.0
 11
0.0732233047033617
 21
1.238718830920475
 31
0.0
  0
LINE
  5
7A
330
64
100
AcDbEntity
  8
USP-GEO
100
AcDbLine
 10
1.0
 20
1.238718830920447
 30
0.0
 11
1.0
 21
0.1750792206135827
 31
0.0
  0
LINE
  5
7B
330
64
100
AcDbEntity
  8
USP-GEO
100
AcDbLine
 10
1.047799999999995
 20
0.1750792206135827
 30
0.0
 11
1.047799999999995
 21
1.238718830920447
 31
0.0
  0
LINE
  5
7C
330
64
100
AcDbEntity
  8
USP-GEO
100
AcDbLine
 10
1.09559999999999
 20
0.0478000000000094
 30
0.0
 11
1.137799999999998
 21
0.0478000000000094
 31
0.0
  0
LINE
  5
7D
330
64
100
AcDbEntity
  8
USP-GEO
100
AcDbLine
 10
1.09559999999999
 20
0.0000000000000142
 30
0.0
 11
1.137799999999991
 21
0.0000000000000142
 31
0.0
  0
LINE
  5
7E
330
64
100
AcDbEntity
  8
USP-GEO
100
AcDbLine
 10
1.047799999999995
 20
0.1750792206135827
 30
0.0
 11
1.0
 21
0.1750792206135827
 31
0.0
  0
LINE
  5
7F
330
64
100
AcDbEntity
  8
USP-GEO
100
AcDbLine
 10
1.047799999999995
 20
0.095600000000033
 30
0.0
 11
1.0
 21
0.095600000000033
 31
0.0
  0
ARC
  5
80
330
64
100
AcDbEntity
  8
USP-GEO
100
AcDbCircle
 10
-1.079999999999984
 20
0.0800000000000125
 30
0.0
 40
0.08
210
0.0
220
0.0
230
-1.0
100
AcDbArc
 50
270.0
 51
0.0000000000048853
  0
LINE
  5
81
330
64
100
AcDbEntity
  8
USP-GEO
100
AcDbLine
 10
1.0
 20
0.1750792206135827
 30
0.0
 11
1.0
 21
0.0956000000000188
 31
0.0
  0
LINE
  5
82
330
64
100
AcDbEntity
  8
USP-GEO
100
AcDbLine
 10
0.9999999999999857
 20
0.0956000000000188
 30
0.0
 11
0.9999999999999857
 21
0.0800000000000125
 31
0.0
  0
ARC
  5
83
330
64
100
AcDbEntity
  8
USP-GEO
100
AcDbCircle
 10
-1.087799999999987
 20
0.0878000000000157
 30
0.0
 40
0.04
210
0.0
220
0.0
230
-1.0
100
AcDbArc
 50
270.0
 51
0.0
  0
LINE
  5
84
330
64
100
AcDbEntity
  8
USP-GEO
100
AcDbLine
 10
1.087799999999987
 20
0.0478000000000094
 30
0.0
 11
1.09559999999999
 21
0.0478000000000094
 31
0.0
  0
LINE
  5
85
330
64
100
AcDbEntity
  8
USP-GEO
100
AcDbLine
 10
1.09559999999999
 20
0.0478000000000094
 30
0.0
 11
1.09559999999999
 21
0.0
 31
0.0
  0
LINE
  5
86
330
64
100
AcDbEntity
  8
USP-GEO
100
AcDbLine
 10
1.079999999999984
 20
0.0000000000000142
 30
0.0
 11
1.09559999999999
 21
0.0000000000000142
 31
0.0
  0
LINE
  5
87
330
64
100
AcDbEntity
  8
USP-GEO
100
AcDbLine
 10
1.047799999999995
 20
0.0878000000000157
 30
0.0
 11
1.047799999999995
 21
0.095600000000033
 31
0.0
  0
LINE
  5
88
330
64
100
AcDbEntity
  8
USP-GEO
100
AcDbLine
 10
1.047799999999995
 20
0.095600000000033
 30
0.0
 11
1.047799999999995
 21
0.1750792206135969
 31
0.0
  0
LINE
  5
89
330
64
100
AcDbEntity
  8
USP-GEO
100
AcDbLine
 10
1.137799999999998
 20
0.0478000000000094
 30
0.0
 11
1.137799999999998
 21
0.0
 31
0.0
  0
LINE
  5
8A
330
64
100
AcDbEntity
  8
USP-GEO
100
AcDbLine
 10
0.9599999999999937
 20
0.4075421356238565
 30
0.0
 11
0.9043999999999812
 21
0.4075421356238565
 31
0.0
  0
LINE
  5
8B
330
64
100
AcDbEntity
  8
USP-GEO
100
AcDbLine
 10
0.9999690246961137
 20
0.4075421356238423
 30
0.0
 11
0.9599999999999937
 21
0.4075421356238423
 31
0.0
  0
LINE
  5
8C
330
64
100
AcDbEntity
  8
USP-GEO
100
AcDbLine
 10
1.04779999999998
 20
0.2014396103068918
 30
0.0
 11
1.047589517506942
 21
0.2014396103068918
 31
0.0
  0
LINE
  5
8D
330
64
100
AcDbEntity
  8
USP-GEO
100
AcDbLine
 10
1.047799999999995
 20
0.4075421356238281
 30
0.0
 11
1.047602349331221
 21
0.4075421356238281
 31
0.0
  0
ARC
  5
8E
330
64
100
AcDbEntity
  8
USP-GEO
100
AcDbCircle
 10
1.047799999999995
 20
2.313582580011058
 30
0.0
 40
0.25
100
AcDbArc
 50
101.0228231074037
 51
258.9771768925963
  0
LINE
  5
8F
330
64
100
AcDbEntity
  8
USP-GEO
100
AcDbLine
 10
1.0
 20
2.614766586152754
 30
0.0
 11
1.0
 21
2.012398573869376
 31
0.0
  0
LINE
  5
90
330
64
100
AcDbEntity
  8
USP-GEO
100
AcDbLine
 10
1.047799999999995
 20
2.012398573869361
 30
0.0
 11
1.047799999999995
 21
2.61476658615274
 31
0.0
  0
ARC
  5
91
330
64
100
AcDbEntity
  8
USP-GEO
100
AcDbCircle
 10
0.0999999999999943
 20
2.313582580011114
 30
0.0
 40
0.312500000000006
100
AcDbArc
 50
285.4660099534222
 51
74.53399004657818
  0
ELLIPSE
  5
92
330
64
100
AcDbEntity
  8
USP-GEO
100
AcDbEllipse
 10
0.9267692704310235
 20
2.313582580011058
 30
0.0
 11
-0.0000000000000003
 21
-0.0625000000000019
 31
0.0
210
0.0
220
0.0
230
1.0
 40
0.8660254037844484
 41
-3.141592653589787
 42
-1.570796326794892
  0
ELLIPSE
  5
93
330
64
100
AcDbEntity
  8
USP-GEO
100
AcDbEllipse
 10
0.9267692704310235
 20
2.313582580011058
 30
0.0
 11
-0.0000000000000003
 21
-0.0625000000000019
 31
0.0
210
0.0
220
0.0
230
1.0
 40
0.8660254037844484
 41
-1.570796326794892
 42
0.0000000000000058
  0
LINE
  5
94
330
64
100
AcDbEntity
  8
USP-GEO
100
AcDbLine
 10
-0.0000000000000071
 20
1.415495526217142
 30
0.0
 11
0.0
 21
1.771451368956064
 31
0.0
  0
CIRCLE
  5
95
330
64
100
AcDbEntity
  8
USP-GEO
100
AcDbCircle
 10
-0.3125
 20
1.561942135623851
 30
0.0
 40
0.086
210
0.0
220
0.0
230
-1.0
  0
ARC
  5
96
330
64
100
AcDbEntity
  8
USP-GEO
100
AcDbCircle
 10
-0.25
 20
1.415495526217114
 30
0.0
 40
0.2500000000000003
210
0.0
220
0.0
230
-1.0
100
AcDbArc
 50
315.0000000000009
 51
0.0000000000032569
  0
ARC
  5
97
330
64
100
AcDbEntity
  8
USP-GEO
100
AcDbCircle
 10
-0.25
 20
1.771451368956078
 30
0.0
 40
0.2499999999999995
210
0.0
220
0.0
230
-1.0
100
AcDbArc
 50
359.9999999999968
 51
74.53399004658037
  0
LINE
  5
98
330
64
100
AcDbEntity
  8
USP-GEO
100
AcDbLine
 10
1.0
 20
1.771451368956022
 30
0.0
 11
1.0
 21
1.415495526217085
 31
0.0
  0
LINE
  5
99
330
64
100
AcDbEntity
  8
USP-GEO
100
AcDbLine
 10
1.047799999999995
 20
1.415495526217085
 30
0.0
 11
1.047799999999995
 21
1.771451368956022
 31
0.0
  0
LINE
  5
9A
330
64
100
AcDbEntity
  8
USP-GEO
100
AcDbLine
 10
1.0
 20
1.415495526217085
 30
0.0
 11
1.0
 21
1.238718830920447
 31
0.0
  0
LINE
  5
9B
330
64
100
AcDbEntity
  8
USP-GEO
100
AcDbLine
 10
1.047799999999995
 20
1.238718830920447
 30
0.0
 11
1.047799999999995
 21
1.415495526217085
 31
0.0
  0
LINE
  5
9C
330
64
100
AcDbEntity
  8
USP-GEO
100
AcDbLine
 10
1.047799999999995
 20
1.238718830920447
 30
0.0
 11
1.0
 21
1.238718830920447
 31
0.0
  0
LINE
  5
9D
330
64
100
AcDbEntity
  8
USP-GEO
100
AcDbLine
 10
1.047799999999995
 20
1.415495526217085
 30
0.0
 11
1.0
 21
1.415495526217085
 31
0.0
  0
LINE
  5
9E
330
64
100
AcDbEntity
  8
USP-GEO
100
AcDbLine
 10
1.0
 20
2.012398573869361
 30
0.0
 11
1.0
 21
1.771451368956022
 31
0.0
  0
LINE
  5
9F
330
64
100
AcDbEntity
  8
USP-GEO
100
AcDbLine
 10
1.047799999999995
 20
1.771451368956022
 30
0.0
 11
1.047799999999995
 21
2.012398573869361
 31
0.0
  0
LINE
  5
A0
330
64
100
AcDbEntity
  8
USP-GEO
100
AcDbLine
 10
1.047799999999995
 20
1.771451368956022
 30
0.0
 11
1.0
 21
1.771451368956022
 31
0.0
  0
LINE
  5
A1
330
64
100
AcDbEntity
  8
USP-GEO
100
AcDbLine
 10
1.047800000000009
 20
2.012398573869361
 30
0.0
 11
1.0
 21
2.012398573869361
 31
0.0
  0
ELLIPSE
  5
A2
330
64
100
AcDbEntity
  8
USP-GEO
100
AcDbEllipse
 10
0.9267692704310235
 20
2.313582580011058
 30
0.0
 11
-0.0000000000000003
 21
-0.0625000000000019
 31
0.0
210
0.0
220
0.0
230
1.0
 40
0.8660254037844484
 41
0.0000000000000058
 42
3.141592653589841
  0
ELLIPSE
  5
A3
330
64
100
AcDbEntity
  8
USP-GEO
100
AcDbEllipse
 10
0.951650910040712
 20
2.313582580011058
 30
0.0
 11
0.0000000000000003
 21
0.0625000000000009
 31
0.0
210
0.0
220
0.0
230
-1.0
 40
0.8660254037844438
 41
-2.909519733795129
 42
-1.570796326795014
  0
ELLIPSE
  5
A4
330
64
100
AcDbEntity
  8
USP-GEO
100
AcDbEllipse
 10
0.951650910040712
 20
2.313582580011058
 30
0.0
 11
0.0000000000000003
 21
0.0625000000000009
 31
0.0
210
0.0
220
0.0
230
-1.0
 40
0.8660254037844438
 41
-1.570796326795014
 42
-0.2315271484516368
  0
ELLIPSE
  5
A5
330
64
100
AcDbEntity
  8
USP-GEO
100
AcDbEllipse
 10
0.9267692704310377
 20
4.063582580011029
 30
0.0
 11
-0.0000000000000003
 21
-0.0625000000000019
 31
0.0
210
0.0
220
0.0
230
1.0
 40
0.8660254037844484
 41
3.141592653589667
 42
4.712388980384623
  0
ELLIPSE
  5
A6
330
64
100
AcDbEntity
  8
USP-GEO
100
AcDbEllipse
 10
0.9267692704310377
 20
4.063582580011029
 30
0.0
 11
-0.0000000000000003
 21
-0.0625000000000019
 31
0.0
210
0.0
220
0.0
230
1.0
 40
0.8660254037844484
 41
-1.570796326795005
 42
-0.0000000000001255
  0
LINE
  5
A7
330
64
100
AcDbEntity
  8
USP-GEO
100
AcDbLine
 10
0.0
 20
2.855713791066165
 30
0.0
 11
0.0
 21
3.521451368956036
 31
0.0
  0
ARC
  5
A8
330
64
100
AcDbEntity
  8
USP-GEO
100
AcDbCircle
 10
-0.2500000000000142
 20
2.85571379106615
 30
0.0
 40
0.2500000000000004
210
0.0
220
0.0
230
-1.0
100
AcDbArc
 50
285.466009953423
 51
0.0000000000032569
  0
ARC
  5
A9
330
64
100
AcDbEntity
  8
USP-GEO
100
AcDbCircle
 10
-0.25
 20
3.521451368956022
 30
0.0
 40
0.25
210
0.0
220
0.0
230
-1.0
100
AcDbArc
 50
0.0000000000032569
 51
74.53399004658372
  0
LINE
  5
AA
330
64
100
AcDbEntity
  8
USP-GEO
100
AcDbLine
 10
0.6250000000000071
 20
3.734342135623847
 30
0.0
 11
0.5249999999999986
 21
3.91194213562386
 31
0.0
  0
LINE
  5
AB
330
64
100
AcDbEntity
  8
USP-GEO
100
AcDbLine
 10
0.7249999999999944
 20
3.91194213562386
 30
0.0
 11
0.6250000000000071
 21
3.734342135623876
 31
0.0
  0
LINE
  5
AC
330
64
100
AcDbEntity
  8
USP-GEO
100
AcDbLine
 10
0.5360000000000014
 20
4.087789700126165
 30
0.0
 11
0.7139999999999987
 21
4.087789700126165
 31
0.0
  0
LINE
  5
AD
330
64
100
AcDbEntity
  8
USP-GEO
100
AcDbLine
 10
0.625
 20
4.04637199262126
 30
0.0
 11
0.7139999999999845
 21
4.08778970012618
 31
0.0
  0
LINE
  5
AE
330
64
100
AcDbEntity
  8
USP-GEO
100
AcDbLine
 10
0.5359999999999943
 20
4.087789700126165
 30
0.0
 11
0.6249999999999929
 21
4.046371992621246
 31
0.0
  0
LINE
  5
AF
330
64
100
AcDbEntity
  8
USP-GEO
100
AcDbLine
 10
1.000000000000014
 20
3.521451368955979
 30
0.0
 11
1.000000000000014
 21
2.855713791066108
 31
0.0
  0
LINE
  5
B0
330
64
100
AcDbEntity
  8
USP-GEO
100
AcDbLine
 10
1.047799999999995
 20
2.855713791066108
 30
0.0
 11
1.047799999999995
 21
3.521451368955993
 31
0.0
  0
LINE
  5
B1
330
64
100
AcDbEntity
  8
USP-GEO
100
AcDbLine
 10
0.9600000000000079
 20
3.829582574922426
 30
0.0
 11
0.9600000000000008
 21
2.547813592641162
 31
0.0
  0
LINE
  5
B2
330
64
100
AcDbEntity
  8
USP-GEO
100
AcDbLine
 10
1.000000000000014
 20
2.855713791066108
 30
0.0
 11
1.000000000000014
 21
2.614766586152754
 31
0.0
  0
LINE
  5
B3
330
64
100
AcDbEntity
  8
USP-GEO
100
AcDbLine
 10
1.047799999999995
 20
2.61476658615274
 30
0.0
 11
1.047799999999995
 21
2.855713791066108
 31
0.0
  0
LINE
  5
B4
330
64
100
AcDbEntity
  8
USP-GEO
100
AcDbLine
 10
1.047799999999995
 20
2.61476658615274
 30
0.0
 11
1.0
 21
2.61476658615274
 31
0.0
  0
LINE
  5
B5
330
64
100
AcDbEntity
  8
USP-GEO
100
AcDbLine
 10
1.047799999999995
 20
2.855713791066108
 30
0.0
 11
1.000000000000014
 21
2.855713791066108
 31
0.0
  0
LINE
  5
B6
330
64
100
AcDbEntity
  8
USP-GEO
100
AcDbLine
 10
1.0
 20
3.762398573869319
 30
0.0
 11
1.0
 21
3.521451368955979
 31
0.0
  0
LINE
  5
B7
330
64
100
AcDbEntity
  8
USP-GEO
100
AcDbLine
 10
1.047799999999995
 20
3.762398573869319
 30
0.0
 11
1.047799999999995
 21
3.521451368955993
 31
0.0
  0
LINE
  5
B8
330
64
100
AcDbEntity
  8
USP-GEO
100
AcDbLine
 10
1.047800000000009
 20
3.521451368955993
 30
0.0
 11
1.000000000000014
 21
3.521451368955993
 31
0.0
  0
LINE
  5
B9
330
64
100
AcDbEntity
  8
USP-GEO
100
AcDbLine
 10
1.047800000000009
 20
3.762398573869333
 30
0.0
 11
1.0
 21
3.762398573869333
 31
0.0
  0
ELLIPSE
  5
BA
330
64
100
AcDbEntity
  8
USP-GEO
100
AcDbEllipse
 10
0.9267692704310377
 20
4.063582580011029
 30
0.0
 11
-0.0000000000000003
 21
-0.0625000000000019
 31
0.0
210
0.0
220
0.0
230
1.0
 40
0.8660254037844484
 41
-0.0000000000001255
 42
3.141592653589667
  0
ELLIPSE
  5
BB
330
64
100
AcDbEntity
  8
USP-GEO
100
AcDbEllipse
 10
0.9516509100407262
 20
4.063582580011029
 30
0.0
 11
0.0000000000000003
 21
0.0625000000000009
 31
0.0
210
0.0
220
0.0
230
-1.0
 40
0.8660254037844438
 41
-2.909519733931635
 42
-1.570796326794787
  0
ELLIPSE
  5
BC
330
64
100
AcDbEntity
  8
USP-GEO
100
AcDbEllipse
 10
0.9516509100407262
 20
4.063582580011029
 30
0.0
 11
0.0000000000000003
 21
0.0625000000000009
 31
0.0
210
0.0
220
0.0
230
-1.0
 40
0.8660254037844438
 41
-1.570796326794787
 42
-0.231527148318663
  0
LINE
  5
BD
330
64
100
AcDbEntity
  8
USP-GEO
100
AcDbLine
 10
2.753699999999994
 20
0.4075421356238423
 30
0.0
 11
3.584876695296629
 21
1.238718830920475
 31
0.0
  0
LINE
  5
BE
330
64
100
AcDbEntity
  8
USP-GEO
100
AcDbLine
 10
2.698099999999982
 20
0.4075421356238423
 30
0.0
 11
2.698099999999982
 21
2.079663416932589
 31
0.0
  0
LINE
  5
BF
330
64
100
AcDbEntity
  8
USP-GEO
100
AcDbLine
 10
2.65809999999999
 20
1.238718830920447
 30
0.0
 11
2.65809999999999
 21
0.1750792206135827
 31
0.0
  0
LINE
  5
C0
330
64
100
AcDbEntity
  8
USP-GEO
100
AcDbLine
 10
2.61029999999998
 20
0.1750792206135827
 30
0.0
 11
2.61029999999998
 21
1.238718830920433
 31
0.0
  0
LINE
  5
C1
330
64
100
AcDbEntity
  8
USP-GEO
100
AcDbLine
 10
2.520299999999991
 20
0.0477999999999952
 30
0.0
 11
2.562499999999673
 21
0.0477999999999952
 31
0.0
  0
LINE
  5
C2
330
64
100
AcDbEntity
  8
USP-GEO
100
AcDbLine
 10
2.520299999999991
 20
0.0
 30
0.0
 11
2.562499999999673
 21
0.0
 31
0.0
  0
LINE
  5
C3
330
64
100
AcDbEntity
  8
USP-GEO
100
AcDbLine
 10
2.520299999999991
 20
0.0477999999999952
 30
0.0
 11
2.520299999999991
 21
0.0
 31
0.0
  0
LINE
  5
C4
330
64
100
AcDbEntity
  8
USP-GEO
100
AcDbLine
 10
2.610299999999995
 20
0.0956000000000188
 30
0.0
 11
2.65809999999999
 21
0.0956000000000188
 31
0.0
  0
LINE
  5
C5
330
64
100
AcDbEntity
  8
USP-GEO
100
AcDbLine
 10
2.61029999999998
 20
0.1750792206135827
 30
0.0
 11
2.65809999999999
 21
0.1750792206135827
 31
0.0
  0
ARC
  5
C6
330
64
100
AcDbEntity
  8
USP-GEO
100
AcDbCircle
 10
-2.578099999999977
 20
0.0800000000000125
 30
0.0
 40
0.08
210
0.0
220
0.0
230
-1.0
100
AcDbArc
 50
180.0000000000049
 51
270.0
  0
LINE
  5
C7
330
64
100
AcDbEntity
  8
USP-GEO
100
AcDbLine
 10
2.562499999999687
 20
0.0477999999999952
 30
0.0
 11
2.562499999999687
 21
0.0
 31
0.0
  0
LINE
  5
C8
330
64
100
AcDbEntity
  8
USP-GEO
100
AcDbLine
 10
2.562499999999687
 20
0.0477999999999952
 30
0.0
 11
2.570299999999988
 21
0.0477999999999952
 31
0.0
  0
ARC
  5
C9
330
64
100
AcDbEntity
  8
USP-GEO
100
AcDbCircle
 10
-2.570299999999988
 20
0.0878000000000015
 30
0.0
 40
0.04
210
0.0
220
0.0
230
-1.0
100
AcDbArc
 50
180.0
 51
270.0
  0
LINE
  5
CA
330
64
100
AcDbEntity
  8
USP-GEO
100
AcDbLine
 10
2.610299999999995
 20
0.0956000000000188
 30
0.0
 11
2.610299999999995
 21
0.1750792206135827
 31
0.0
  0
LINE
  5
CB
330
64
100
AcDbEntity
  8
USP-GEO
100
AcDbLine
 10
2.61029999999998
 20
0.0878000000000015
 30
0.0
 11
2.61029999999998
 21
0.0956000000000188
 31
0.0
  0
LINE
  5
CC
330
64
100
AcDbEntity
  8
USP-GEO
100
AcDbLine
 10
2.562499999999687
 20
0.0
 30
0.0
 11
2.578099999999977
 21
0.0
 31
0.0
  0
LINE
  5
CD
330
64
100
AcDbEntity
  8
USP-GEO
100
AcDbLine
 10
2.65809999999999
 20
0.0956000000000188
 30
0.0
 11
2.65809999999999
 21
0.0799999999999983
 31
0.0
  0
LINE
  5
CE
330
64
100
AcDbEntity
  8
USP-GEO
100
AcDbLine
 10
2.65809999999999
 20
0.1750792206135827
 30
0.0
 11
2.65809999999999
 21
0.0956000000000046
 31
0.0
  0
LINE
  5
CF
330
64
100
AcDbEntity
  8
USP-GEO
100
AcDbLine
 10
2.658099999999976
 20
0.2014396103068918
 30
0.0
 11
2.657889517506916
 21
0.2014396103068918
 31
0.0
  0
LINE
  5
D0
330
64
100
AcDbEntity
  8
USP-GEO
100
AcDbLine
 10
2.657902349331209
 20
0.4075421356238281
 30
0.0
 11
2.65809999999999
 21
0.4075421356238281
 31
0.0
  0
LINE
  5
D1
330
64
100
AcDbEntity
  8
USP-GEO
100
AcDbLine
 10
2.698099999999982
 20
0.4075421356238281
 30
0.0
 11
2.65809999999999
 21
0.4075421356238281
 31
0.0
  0
LINE
  5
D2
330
64
100
AcDbEntity
  8
USP-GEO
100
AcDbLine
 10
2.698099999999982
 20
0.4075421356238423
 30
0.0
 11
2.753699999999994
 21
0.4075421356238423
 31
0.0
  0
ARC
  5
D3
330
64
100
AcDbEntity
  8
USP-GEO
100
AcDbCircle
 10
-3.558099999999996
 20
2.3135825800111
 30
0.0
 40
0.312500000000006
210
0.0
220
0.0
230
-1.0
100
AcDbArc
 50
285.4660099534218
 51
74.5339900465774
  0
LINE
  5
D4
330
64
100
AcDbEntity
  8
USP-GEO
100
AcDbLine
 10
2.658100000000004
 20
2.61476658615274
 30
0.0
 11
2.658100000000004
 21
2.012398573869347
 31
0.0
  0
LINE
  5
D5
330
64
100
AcDbEntity
  8
USP-GEO
100
AcDbLine
 10
2.610299999999995
 20
2.012398573869347
 30
0.0
 11
2.610299999999995
 21
2.61476658615274
 31
0.0
  0
ARC
  5
D6
330
64
100
AcDbEntity
  8
USP-GEO
100
AcDbCircle
 10
2.610299999999995
 20
2.313582580011058
 30
0.0
 40
0.25
100
AcDbArc
 50
281.022823107407
 51
78.97717689259306
  0
ELLIPSE
  5
D7
330
64
100
AcDbEntity
  8
USP-GEO
100
AcDbEllipse
 10
2.731330729568981
 20
2.313582580011058
 30
0.0
 11
-0.0000000000000003
 21
-0.0625000000000019
 31
0.0
210
0.0
220
0.0
230
-1.0
 40
0.866025403784446
 41
3.141592653589787
 42
4.712388980384727
  0
ELLIPSE
  5
D8
330
64
100
AcDbEntity
  8
USP-GEO
100
AcDbEllipse
 10
2.731330729568981
 20
2.313582580011058
 30
0.0
 11
-0.0000000000000003
 21
-0.0625000000000019
 31
0.0
210
0.0
220
0.0
230
-1.0
 40
0.866025403784446
 41
-1.5707963267949
 42
-0.0000000000000058
  0
LINE
  5
D9
330
64
100
AcDbEntity
  8
USP-GEO
100
AcDbLine
 10
2.65809999999999
 20
1.771451368956007
 30
0.0
 11
2.65809999999999
 21
1.415495526217085
 31
0.0
  0
LINE
  5
DA
330
64
100
AcDbEntity
  8
USP-GEO
100
AcDbLine
 10
2.610299999999995
 20
1.415495526217085
 30
0.0
 11
2.610299999999995
 21
1.771451368956007
 31
0.0
  0
LINE
  5
DB
330
64
100
AcDbEntity
  8
USP-GEO
100
AcDbLine
 10
2.658100000000004
 20
1.415495526217085
 30
0.0
 11
2.658100000000004
 21
1.238718830920447
 31
0.0
  0
LINE
  5
DC
330
64
100
AcDbEntity
  8
USP-GEO
100
AcDbLine
 10
2.610299999999995
 20
1.238718830920447
 30
0.0
 11
2.610299999999995
 21
1.415495526217085
 31
0.0
  0
LINE
  5
DD
330
64
100
AcDbEntity
  8
USP-GEO
100
AcDbLine
 10
2.610299999999995
 20
1.238718830920447
 30
0.0
 11
2.658100000000004
 21
1.238718830920447
 31
0.0
  0
LINE
  5
DE
330
64
100
AcDbEntity
  8
USP-GEO
100
AcDbLine
 10
2.610299999999995
 20
1.415495526217085
 30
0.0
 11
2.65809999999999
 21
1.415495526217085
 31
0.0
  0
LINE
  5
DF
330
64
100
AcDbEntity
  8
USP-GEO
100
AcDbLine
 10
2.658100000000004
 20
2.012398573869361
 30
0.0
 11
2.658100000000004
 21
1.771451368956007
 31
0.0
  0
LINE
  5
E0
330
64
100
AcDbEntity
  8
USP-GEO
100
AcDbLine
 10
2.610299999999995
 20
1.771451368956007
 30
0.0
 11
2.610299999999995
 21
2.012398573869347
 31
0.0
  0
LINE
  5
E1
330
64
100
AcDbEntity
  8
USP-GEO
100
AcDbLine
 10
2.610299999999995
 20
1.771451368956007
 30
0.0
 11
2.65809999999999
 21
1.771451368956007
 31
0.0
  0
LINE
  5
E2
330
64
100
AcDbEntity
  8
USP-GEO
100
AcDbLine
 10
2.610299999999995
 20
2.012398573869361
 30
0.0
 11
2.658100000000004
 21
2.012398573869361
 31
0.0
  0
ELLIPSE
  5
E3
330
64
100
AcDbEntity
  8
USP-GEO
100
AcDbEllipse
 10
2.731330729568981
 20
2.313582580011058
 30
0.0
 11
-0.0000000000000003
 21
-0.0625000000000019
 31
0.0
210
0.0
220
0.0
230
-1.0
 40
0.866025403784446
 41
-0.0000000000000058
 42
3.141592653589787
  0
ELLIPSE
  5
E4
330
64
100
AcDbEntity
  8
USP-GEO
100
AcDbEllipse
 10
2.706449089959278
 20
2.313582580011058
 30
0.0
 11
0.0000000000000003
 21
0.0625000000000009
 31
0.0
210
0.0
220
0.0
230
1.0
 40
0.8660254037844413
 41
-2.909658392375516
 42
-1.570796326794892
  0
ELLIPSE
  5
E5
330
64
100
AcDbEntity
  8
USP-GEO
100
AcDbEllipse
 10
2.706449089959278
 20
2.313582580011058
 30
0.0
 11
0.0000000000000003
 21
0.0625000000000009
 31
0.0
210
0.0
220
0.0
230
1.0
 40
0.8660254037844413
 41
-1.570796326794892
 42
-0.2313882517715398
  0
LINE
  5
E6
330
64
100
AcDbEntity
  8
USP-GEO
100
AcDbLine
 10
3.658099999999976
 20
1.415495526217114
 30
0.0
 11
3.658099999999976
 21
1.77145136895605
 31
0.0
  0
CIRCLE
  5
E7
330
64
100
AcDbEntity
  8
USP-GEO
100
AcDbCircle
 10
3.34559999999999
 20
1.561942135623837
 30
0.0
 40
0.086
  0
ARC
  5
E8
330
64
100
AcDbEntity
  8
USP-GEO
100
AcDbCircle
 10
3.40809999999999
 20
1.415495526217114
 30
0.0
 40
0.2500000000000003
100
AcDbArc
 50
314.9999999999997
 51
0.0
  0
ARC
  5
E9
330
64
100
AcDbEntity
  8
USP-GEO
100
AcDbCircle
 10
3.40809999999999
 20
1.771451368956064
 30
0.0
 40
0.2499999999999996
100
AcDbArc
 50
359.9999999999984
 51
74.53399004658037
  0
ELLIPSE
  5
EA
330
64
100
AcDbEntity
  8
USP-GEO
100
AcDbEllipse
 10
2.731330729568995
 20
4.063582580011029
 30
0.0
 11
-0.0000000000000003
 21
-0.0625000000000019
 31
0.0
210
0.0
220
0.0
230
-1.0
 40
0.866025403784446
 41
3.141592653589787
 42
4.712388980384614
  0
ELLIPSE
  5
EB
330
64
100
AcDbEntity
  8
USP-GEO
100
AcDbEllipse
 10
2.731330729568995
 20
4.063582580011029
 30
0.0
 11
-0.0000000000000003
 21
-0.0625000000000019
 31
0.0
210
0.0
220
0.0
230
-1.0
 40
0.866025403784446
 41
-1.570796326795014
 42
-0.0000000000000058
  0
LINE
  5
EC
330
64
100
AcDbEntity
  8
USP-GEO
100
AcDbLine
 10
2.658100000000018
 20
3.521451368955979
 30
0.0
 11
2.658100000000018
 21
2.855713791066108
 31
0.0
  0
LINE
  5
ED
330
64
100
AcDbEntity
  8
USP-GEO
100
AcDbLine
 10
2.610300000000009
 20
2.855713791066108
 30
0.0
 11
2.610300000000009
 21
3.521451368955979
 31
0.0
  0
LINE
  5
EE
330
64
100
AcDbEntity
  8
USP-GEO
100
AcDbLine
 10
2.698099999999996
 20
2.547732750628057
 30
0.0
 11
2.698099999999996
 21
3.829663416933016
 31
0.0
  0
LINE
  5
EF
330
64
100
AcDbEntity
  8
USP-GEO
100
AcDbLine
 10
2.658100000000018
 20
2.855713791066108
 30
0.0
 11
2.658100000000018
 21
2.61476658615274
 31
0.0
  0
LINE
  5
F0
330
64
100
AcDbEntity
  8
USP-GEO
100
AcDbLine
 10
2.610299999999995
 20
2.61476658615274
 30
0.0
 11
2.610299999999995
 21
2.855713791066108
 31
0.0
  0
LINE
  5
F1
330
64
100
AcDbEntity
  8
USP-GEO
100
AcDbLine
 10
2.610299999999995
 20
2.61476658615274
 30
0.0
 11
2.658100000000004
 21
2.61476658615274
 31
0.0
  0
LINE
  5
F2
330
64
100
AcDbEntity
  8
USP-GEO
100
AcDbLine
 10
2.610300000000009
 20
2.855713791066108
 30
0.0
 11
2.65809999999999
 21
2.855713791066108
 31
0.0
  0
LINE
  5
F3
330
64
100
AcDbEntity
  8
USP-GEO
100
AcDbLine
 10
2.658100000000004
 20
3.762398573869305
 30
0.0
 11
2.658100000000004
 21
3.521451368955979
 31
0.0
  0
LINE
  5
F4
330
64
100
AcDbEntity
  8
USP-GEO
100
AcDbLine
 10
2.610299999999995
 20
3.762398573869319
 30
0.0
 11
2.610299999999995
 21
3.521451368955979
 31
0.0
  0
LINE
  5
F5
330
64
100
AcDbEntity
  8
USP-GEO
100
AcDbLine
 10
2.610300000000009
 20
3.521451368955979
 30
0.0
 11
2.658100000000018
 21
3.521451368955979
 31
0.0
  0
LINE
  5
F6
330
64
100
AcDbEntity
  8
USP-GEO
100
AcDbLine
 10
2.610299999999995
 20
3.762398573869319
 30
0.0
 11
2.658100000000018
 21
3.762398573869319
 31
0.0
  0
ELLIPSE
  5
F7
330
64
100
AcDbEntity
  8
USP-GEO
100
AcDbEllipse
 10
2.731330729568995
 20
4.063582580011029
 30
0.0
 11
-0.0000000000000003
 21
-0.0625000000000019
 31
0.0
210
0.0
220
0.0
230
-1.0
 40
0.866025403784446
 41
-0.0000000000000058
 42
3.141592653589787
  0
ELLIPSE
  5
F8
330
64
100
AcDbEntity
  8
USP-GEO
100
AcDbEllipse
 10
2.706449089959292
 20
4.063582580011029
 30
0.0
 11
0.0000000000000003
 21
0.0625000000000009
 31
0.0
210
0.0
220
0.0
230
1.0
 40
0.8660254037844413
 41
-2.909658392308907
 42
-1.570796326795005
  0
ELLIPSE
  5
F9
330
64
100
AcDbEntity
  8
USP-GEO
100
AcDbEllipse
 10
2.706449089959292
 20
4.063582580011029
 30
0.0
 11
0.0000000000000003
 21
0.0625000000000009
 31
0.0
210
0.0
220
0.0
230
1.0
 40
0.8660254037844413
 41
-1.570796326795005
 42
-0.2313882520517883
  0
LINE
  5
FA
330
64
100
AcDbEntity
  8
USP-GEO
100
AcDbLine
 10
3.658100000000019
 20
2.855713791066136
 30
0.0
 11
3.658100000000019
 21
3.521451368956007
 31
0.0
  0
ARC
  5
FB
330
64
100
AcDbEntity
  8
USP-GEO
100
AcDbCircle
 10
3.408100000000004
 20
2.855713791066136
 30
0.0
 40
0.2500000000000004
100
AcDbArc
 50
285.4660099534163
 51
0.0
  0
LINE
  5
FC
330
64
100
AcDbEntity
  8
USP-GEO
100
AcDbLine
 10
3.033100000000018
 20
3.734342135623847
 30
0.0
 11
2.933100000000024
 21
3.911942135623846
 31
0.0
  0
LINE
  5
FD
330
64
100
AcDbEntity
  8
USP-GEO
100
AcDbLine
 10
3.133100000000013
 20
3.911942135623846
 30
0.0
 11
3.033100000000004
 21
3.734342135623847
 31
0.0
  0
LINE
  5
FE
330
64
100
AcDbEntity
  8
USP-GEO
100
AcDbLine
 10
2.94410000000002
 20
4.087789700126165
 30
0.0
 11
3.122100000000017
 21
4.087789700126165
 31
0.0
  0
LINE
  5
FF
330
64
100
AcDbEntity
  8
USP-GEO
100
AcDbLine
 10
2.944100000000034
 20
4.087789700126165
 30
0.0
 11
3.033100000000032
 21
4.046371992621232
 31
0.0
  0
LINE
  5
100
330
64
100
AcDbEntity
  8
USP-GEO
100
AcDbLine
 10
3.033100000000004
 20
4.046371992621246
 30
0.0
 11
3.122099999999988
 21
4.08778970012618
 31
0.0
  0
ARC
  5
101
330
64
100
AcDbEntity
  8
USP-GEO
100
AcDbCircle
 10
3.408100000000004
 20
3.521451368956007
 30
0.0
 40
0.25
100
AcDbArc
 50
359.9999999999984
 51
74.53399004658037
  0
LINE
  5
102
330
64
100
AcDbEntity
  8
USP-GEO
100
AcDbLine
 10
0.0
 20
4.861942135623849
 30
0.0
 11
0.9600000000000079
 21
4.861942135623849
 31
0.0
  0
LINE
  5
103
330
64
100
AcDbEntity
  8
USP-GEO
100
AcDbLine
 10
0.0
 20
4.605713791066193
 30
0.0
 11
0.0
 21
4.861942135623849
 31
0.0
  0
ARC
  5
104
330
64
100
AcDbEntity
  8
USP-GEO
100
AcDbCircle
 10
-0.2500000000000284
 20
4.605713791066165
 30
0.0
 40
0.2500000000000218
210
0.0
220
0.0
230
-1.0
100
AcDbArc
 50
285.4660099534267
 51
0.0000000000065138
  0
CIRCLE
  5
105
330
64
100
AcDbEntity
  8
USP-GEO
100
AcDbCircle
 10
-0.3125
 20
4.551082580011112
 30
0.0
 40
0.086
210
0.0
220
0.0
230
-1.0
  0
LINE
  5
106
330
64
100
AcDbEntity
  8
USP-GEO
100
AcDbLine
 10
0.5360000000000014
 20
4.271030428412302
 30
0.0
 11
0.7139999999999987
 21
4.271030428412302
 31
0.0
  0
LINE
  5
107
330
64
100
AcDbEntity
  8
USP-GEO
100
AcDbLine
 10
0.7139999999999987
 20
4.607650107022053
 30
0.0
 11
0.5360000000000014
 21
4.607650107022053
 31
0.0
  0
LINE
  5
108
330
64
100
AcDbEntity
  8
USP-GEO
100
AcDbLine
 10
0.5360000000000014
 20
4.271030428412302
 30
0.0
 11
0.5360000000000014
 21
4.607650107022053
 31
0.0
  0
LINE
  5
109
330
64
100
AcDbEntity
  8
USP-GEO
100
AcDbLine
 10
0.5250000000000057
 20
4.611942135623849
 30
0.0
 11
0.5360000000000156
 21
4.611942135623849
 31
0.0
  0
LINE
  5
10A
330
64
100
AcDbEntity
  8
USP-GEO
100
AcDbLine
 10
0.5360000000000156
 20
4.607650107022067
 30
0.0
 11
0.5360000000000156
 21
4.611942135623849
 31
0.0
  0
LINE
  5
10B
330
64
100
AcDbEntity
  8
USP-GEO
100
AcDbLine
 10
0.7139999999999987
 20
4.271030428412302
 30
0.0
 11
0.7139999999999987
 21
4.607650107022053
 31
0.0
  0
LINE
  5
10C
330
64
100
AcDbEntity
  8
USP-GEO
100
AcDbLine
 10
0.7139999999999987
 20
4.611942135623849
 30
0.0
 11
0.7250000000000086
 21
4.611942135623849
 31
0.0
  0
LINE
  5
10D
330
64
100
AcDbEntity
  8
USP-GEO
100
AcDbLine
 10
0.7139999999999987
 20
4.611942135623849
 30
0.0
 11
0.7139999999999987
 21
4.607650107022053
 31
0.0
  0
LINE
  5
10E
330
64
100
AcDbEntity
  8
USP-GEO
100
AcDbLine
 10
1.000000000000014
 20
4.861942135623806
 30
0.0
 11
1.000000000000014
 21
4.60571379106615
 31
0.0
  0
LINE
  5
10F
330
64
100
AcDbEntity
  8
USP-GEO
100
AcDbLine
 10
0.960000000000015
 20
4.861942135623849
 30
0.0
 11
0.9600000000000079
 21
4.297813592640011
 31
0.0
  0
LINE
  5
110
330
64
100
AcDbEntity
  8
USP-GEO
100
AcDbLine
 10
1.047800000000009
 20
4.861942135623806
 30
0.0
 11
1.047800000000009
 21
4.605713791066165
 31
0.0
  0
LINE
  5
111
330
64
100
AcDbEntity
  8
USP-GEO
100
AcDbLine
 10
1.000000000000014
 20
4.60571379106615
 30
0.0
 11
1.000000000000014
 21
4.36476658615274
 31
0.0
  0
LINE
  5
112
330
64
100
AcDbEntity
  8
USP-GEO
100
AcDbLine
 10
1.047800000000023
 20
4.605713791066165
 30
0.0
 11
1.047800000000023
 21
4.364766586152754
 31
0.0
  0
LINE
  5
113
330
64
100
AcDbEntity
  8
USP-GEO
100
AcDbLine
 10
1.047800000000009
 20
4.36476658615274
 30
0.0
 11
1.000000000000014
 21
4.36476658615274
 31
0.0
  0
LINE
  5
114
330
64
100
AcDbEntity
  8
USP-GEO
100
AcDbLine
 10
1.047721972319862
 20
4.39594213562384
 30
0.0
 11
1.047800000000009
 21
4.39594213562384
 31
0.0
  0
LINE
  5
115
330
64
100
AcDbEntity
  8
USP-GEO
100
AcDbLine
 10
1.047800000000023
 20
4.605713791066165
 30
0.0
 11
1.000000000000014
 21
4.605713791066165
 31
0.0
  0
LINE
  5
116
330
64
100
AcDbEntity
  8
USP-GEO
100
AcDbLine
 10
1.047800000000009
 20
4.861942135623806
 30
0.0
 11
1.000000000000014
 21
4.861942135623806
 31
0.0
  0
LINE
  5
117
330
64
100
AcDbEntity
  8
USP-GEO
100
AcDbLine
 10
0.9600000000000079
 20
4.861942135623849
 30
0.0
 11
0.9999940098590442
 21
4.861942135623849
 31
0.0
  0
LINE
  5
118
330
64
100
AcDbEntity
  8
USP-GEO
100
AcDbLine
 10
1.047800000000009
 20
4.702942135623843
 30
0.0
 11
1.047736610273737
 21
4.702942135623843
 31
0.0
  0
LINE
  5
119
330
64
100
AcDbEntity
  8
USP-GEO
100
AcDbLine
 10
3.658100000000019
 20
4.861942135623849
 30
0.0
 11
2.698099999999996
 21
4.861942135623849
 31
0.0
  0
LINE
  5
11A
330
64
100
AcDbEntity
  8
USP-GEO
100
AcDbLine
 10
2.658100000000004
 20
4.861942135623806
 30
0.0
 11
2.658100000000004
 21
4.605713791066136
 31
0.0
  0
LINE
  5
11B
330
64
100
AcDbEntity
  8
USP-GEO
100
AcDbLine
 10
2.698099999999996
 20
4.297732750627488
 30
0.0
 11
2.698099999999996
 21
4.861942135623849
 31
0.0
  0
LINE
  5
11C
330
64
100
AcDbEntity
  8
USP-GEO
100
AcDbLine
 10
2.610300000000009
 20
4.861942135623806
 30
0.0
 11
2.610300000000009
 21
4.605713791066136
 31
0.0
  0
LINE
  5
11D
330
64
100
AcDbEntity
  8
USP-GEO
100
AcDbLine
 10
2.658100000000018
 20
4.605713791066136
 30
0.0
 11
2.658100000000018
 21
4.36476658615274
 31
0.0
  0
LINE
  5
11E
330
64
100
AcDbEntity
  8
USP-GEO
100
AcDbLine
 10
2.610300000000009
 20
4.605713791066136
 30
0.0
 11
2.610300000000009
 21
4.36476658615274
 31
0.0
  0
LINE
  5
11F
330
64
100
AcDbEntity
  8
USP-GEO
100
AcDbLine
 10
2.610300000000009
 20
4.36476658615274
 30
0.0
 11
2.658100000000018
 21
4.36476658615274
 31
0.0
  0
LINE
  5
120
330
64
100
AcDbEntity
  8
USP-GEO
100
AcDbLine
 10
2.658021972319858
 20
4.39594213562384
 30
0.0
 11
2.658100000000004
 21
4.39594213562384
 31
0.0
  0
LINE
  5
121
330
64
100
AcDbEntity
  8
USP-GEO
100
AcDbLine
 10
2.610300000000009
 20
4.605713791066136
 30
0.0
 11
2.658100000000004
 21
4.605713791066136
 31
0.0
  0
LINE
  5
122
330
64
100
AcDbEntity
  8
USP-GEO
100
AcDbLine
 10
2.610300000000009
 20
4.861942135623806
 30
0.0
 11
2.658100000000004
 21
4.861942135623806
 31
0.0
  0
LINE
  5
123
330
64
100
AcDbEntity
  8
USP-GEO
100
AcDbLine
 10
2.658100000000004
 20
4.702942135623828
 30
0.0
 11
2.658036610273697
 21
4.702942135623828
 31
0.0
  0
LINE
  5
124
330
64
100
AcDbEntity
  8
USP-GEO
100
AcDbLine
 10
2.658100000000004
 20
4.861942135623849
 30
0.0
 11
2.698099999999996
 21
4.861942135623849
 31
0.0
  0
LINE
  5
125
330
64
100
AcDbEntity
  8
USP-GEO
100
AcDbLine
 10
2.94410000000002
 20
4.271030428412302
 30
0.0
 11
3.122100000000017
 21
4.271030428412302
 31
0.0
  0
LINE
  5
126
330
64
100
AcDbEntity
  8
USP-GEO
100
AcDbLine
 10
3.122100000000017
 20
4.607650107022038
 30
0.0
 11
2.94410000000002
 21
4.607650107022038
 31
0.0
  0
LINE
  5
127
330
64
100
AcDbEntity
  8
USP-GEO
100
AcDbLine
 10
2.94410000000002
 20
4.271030428412302
 30
0.0
 11
2.94410000000002
 21
4.607650107022038
 31
0.0
  0
LINE
  5
128
330
64
100
AcDbEntity
  8
USP-GEO
100
AcDbLine
 10
2.933100000000024
 20
4.611942135623849
 30
0.0
 11
2.944100000000034
 21
4.611942135623849
 31
0.0
  0
LINE
  5
129
330
64
100
AcDbEntity
  8
USP-GEO
100
AcDbLine
 10
2.94410000000002
 20
4.607650107022038
 30
0.0
 11
2.94410000000002
 21
4.611942135623849
 31
0.0
  0
LINE
  5
12A
330
64
100
AcDbEntity
  8
USP-GEO
100
AcDbLine
 10
3.122100000000017
 20
4.271030428412288
 30
0.0
 11
3.122100000000017
 21
4.607650107022038
 31
0.0
  0
LINE
  5
12B
330
64
100
AcDbEntity
  8
USP-GEO
100
AcDbLine
 10
3.122100000000017
 20
4.611942135623849
 30
0.0
 11
3.133100000000013
 21
4.611942135623849
 31
0.0
  0
LINE
  5
12C
330
64
100
AcDbEntity
  8
USP-GEO
100
AcDbLine
 10
3.122100000000017
 20
4.611942135623849
 30
0.0
 11
3.122100000000017
 21
4.607650107022038
 31
0.0
  0
LINE
  5
12D
330
64
100
AcDbEntity
  8
USP-GEO
100
AcDbLine
 10
3.658100000000019
 20
4.605713791066179
 30
0.0
 11
3.658100000000019
 21
4.861942135623834
 31
0.0
  0
CIRCLE
  5
12E
330
64
100
AcDbEntity
  8
USP-GEO
100
AcDbCircle
 10
3.345600000000018
 20
4.551082580011097
 30
0.0
 40
0.086
  0
ARC
  5
12F
330
64
100
AcDbEntity
  8
USP-GEO
100
AcDbCircle
 10
3.40809999999999
 20
4.60571379106615
 30
0.0
 40
0.2500000000000218
100
AcDbArc
 50
285.4660099534248
 51
0.0000000000065138
  0
ENDBLK
  5
131
330
64
100
AcDbEntity
  8
0
100
AcDbBlockEnd
  0
BLOCK
  5
19A
330
133
100
AcDbEntity
  8
0
100
AcDbBlockBegin
  2
JUS26_S
 70
     0
 10
0.0
 20
0.0
 30
0.0
  3
JUS26_S
  1

  0
ARC
  5
134
330
133
100
AcDbEntity
  8
USP-GEO
100
AcDbCircle
 10
0.8978000000002026
 20
4.063582580010944
 30
0.0
 40
0.3125000000000225
100
AcDbArc
 50
285.4660099534178
 51
74.53399004658037
  0
CIRCLE
  5
135
330
133
100
AcDbEntity
  8
USP-GEO
100
AcDbCircle
 10
-0.8978000000002026
 20
4.06358258001093
 30
0.0
 40
0.2453877747566099
210
0.0
220
0.0
230
-1.0
  0
ARC
  5
136
330
133
100
AcDbEntity
  8
USP-GEO
100
AcDbCircle
 10
0.1463073173745926
 20
4.208530428412203
 30
0.0
 40
0.0749999999999996
100
AcDbArc
 50
285.0000000000055
 51
30.00000000000488
  0
ARC
  5
137
330
133
100
AcDbEntity
  8
USP-GEO
100
AcDbCircle
 10
-0.1463073173745926
 20
4.208530428412203
 30
0.0
 40
0.1249999999999957
210
0.0
220
0.0
230
-1.0
100
AcDbArc
 50
150.000000000002
 51
254.9999999999911
  0
LINE
  5
138
330
133
100
AcDbEntity
  8
USP-GEO
100
AcDbLine
 10
0.0478000000001799
 20
3.762398573869262
 30
0.0
 11
0.0478000000002084
 21
4.364766586152697
 31
0.0
  0
LINE
  5
139
330
133
100
AcDbEntity
  8
USP-GEO
100
AcDbLine
 10
0.0878000000002146
 20
4.460033015231132
 30
0.0
 11
0.0878000000002004
 21
4.115250440123318
 31
0.0
  0
LINE
  5
13A
330
133
100
AcDbEntity
  8
USP-GEO
100
AcDbLine
 10
0.0000000000002132
 20
4.364766586152697
 30
0.0
 11
0.0000000000001847
 21
3.762398573869276
 31
0.0
  0
TEXT
  5
13B
330
133
100
AcDbEntity
  8
USP-TXT
100
AcDbText
 10
-0.9378449407545218
 20
-1.500000000000056
 30
0.0
 40
0.25
  1
JUS26 - SIDE VIEW
 72
     1
 11
1.145488392578812
 21
-1.500000000000056
 31
0.0
100
AcDbText
  0
LINE
  5
13C
330
133
100
AcDbEntity
  8
USP-GEO
100
AcDbLine
 10
1.909707340654648
 20
-0.0000000000000995
 30
0.0
 11
0.3812694445029905
 21
-0.0000000000000142
 31
0.0
  0
LINE
  5
13D
330
133
100
AcDbEntity
  8
USP-GEO
100
AcDbLine
 10
0.8710233047034137
 20
1.238718830920348
 30
0.0
 11
1.934662915010136
 21
0.1750792206134974
 31
0.0
  0
LINE
  5
13E
330
133
100
AcDbEntity
  8
USP-HID
100
AcDbLine
 10
0.3812694445029336
 20
0.0477999999999952
 30
0.0
 11
1.909707340654719
 21
0.0477999999999099
 31
0.0
  0
LINE
  5
141
330
133
100
AcDbEntity
  8
USP-GEO
100
AcDbLine
 10
0.0878000000001862
 20
4.063485871765493
 30
0.0
 11
0.0878000000000015
 21
0.4075421356237286
 31
0.0
  0
LINE
  5
142
330
133
100
AcDbEntity
  8
USP-GEO
100
AcDbLine
 10
0.0478000000000094
 20
0.407542135623757
 30
0.0
 11
0.047800000000052
 21
1.238718830920376
 31
0.0
  0
LINE
  5
143
330
133
100
AcDbEntity
  8
USP-GEO
100
AcDbLine
 10
0.0000000000000426
 20
1.238718830920376
 30
0.0
 11
0.0
 21
0.4075421356237428
 31
0.0
  0
LINE
  5
144
330
133
100
AcDbEntity
  8
USP-GEO
100
AcDbLine
 10
0.3812694445029905
 20
0.0477999999999952
 30
0.0
 11
0.3122217334179282
 21
0.0478000000000094
 31
0.0
  0
ARC
  5
145
330
133
100
AcDbEntity
  8
USP-GEO
100
AcDbCircle
 10
-0.297799999999981
 20
0.061942135623724
 30
0.0
 40
0.0899999999999998
210
0.0
220
0.0
230
-1.0
100
AcDbArc
 50
134.9999999999936
 51
158.0389457464287
  0
LINE
  5
146
330
133
100
AcDbEntity
  8
USP-GEO
100
AcDbLine
 10
0.3122217334179282
 20
-0.0000000000000142
 30
0.0
 11
0.3812694445029905
 21
-0.0000000000000142
 31
0.0
  0
ARC
  5
147
330
133
100
AcDbEntity
  8
USP-GEO
100
AcDbCircle
 10
-0.2483025253169302
 20
0.1114396103067889
 30
0.0
 40
0.0900000000000012
210
0.0
220
0.0
230
-1.0
100
AcDbArc
 50
45.00000000000634
 51
135.0000000000028
  0
LINE
  5
148
330
133
100
AcDbEntity
  8
USP-GEO
100
AcDbLine
 10
0.1846629150101506
 20
0.1750792206135685
 30
0.0
 11
0.1433999999999997
 21
0.2163421356237336
 31
0.0
  0
LINE
  5
149
330
133
100
AcDbEntity
  8
USP-GEO
100
AcDbLine
 10
0.312221733417914
 20
0.0478000000000094
 30
0.0
 11
0.2359645370361818
 21
0.0478000000000094
 31
0.0
  0
LINE
  5
14A
330
133
100
AcDbEntity
  8
USP-GEO
100
AcDbLine
 10
0.3122217334179282
 20
0.0
 30
0.0
 11
0.2359645370361818
 21
0.0
 31
0.0
  0
LINE
  5
14B
330
133
100
AcDbEntity
  8
USP-GEO
100
AcDbLine
 10
0.2359645370361818
 20
0.0477999999999952
 30
0.0
 11
0.2359645370361818
 21
0.0000000000000142
 31
0.0
  0
LINE
  5
14C
330
133
100
AcDbEntity
  8
USP-GEO
100
AcDbLine
 10
0.3122217334179282
 20
0.0477999999999952
 30
0.0
 11
0.3122217334179282
 21
-0.0000000000000142
 31
0.0
  0
LINE
  5
14D
330
133
100
AcDbEntity
  8
USP-GEO
100
AcDbLine
 10
0.3614396103067747
 20
0.1255817459305177
 30
0.0
 11
0.311942135623724
 21
0.1750792206135685
 31
0.0
  0
LINE
  5
14E
330
133
100
AcDbEntity
  8
USP-GEO
100
AcDbLine
 10
0.143400000000014
 20
0.4075421356237286
 30
0.0
 11
0.0878000000000015
 21
0.4075421356237286
 31
0.0
  0
LINE
  5
14F
330
133
100
AcDbEntity
  8
USP-GEO
100
AcDbLine
 10
0.0
 20
0.407542135623757
 30
0.0
 11
0.0478000000000094
 21
0.407542135623757
 31
0.0
  0
LINE
  5
150
330
133
100
AcDbEntity
  8
USP-GEO
100
AcDbLine
 10
0.0477999999999952
 20
0.4075421356237428
 30
0.0
 11
0.0878000000000015
 21
0.4075421356237428
 31
0.0
  0
LINE
  5
151
330
133
100
AcDbEntity
  8
USP-GEO
100
AcDbLine
 10
0.1433999999999997
 20
0.2163421356237336
 30
0.0
 11
0.143400000000014
 21
0.4075421356237286
 31
0.0
  0
LINE
  5
152
330
133
100
AcDbEntity
  8
USP-GEO
100
AcDbLine
 10
0.3812694445029478
 20
0.0799999999999983
 30
0.0
 11
0.3812694445029336
 21
0.095599999999962
 31
0.0
  0
LINE
  5
153
330
133
100
AcDbEntity
  8
USP-GEO
100
AcDbLine
 10
0.3812694445029905
 20
0.0
 30
0.0
 11
0.3812694445029905
 21
0.0799999999999983
 31
0.0
  0
LINE
  5
154
330
133
100
AcDbEntity
  8
USP-GEO
100
AcDbLine
 10
0.0478000000000805
 20
2.012398573869319
 30
0.0
 11
0.0478000000001089
 21
2.614766586152697
 31
0.0
  0
LINE
  5
155
330
133
100
AcDbEntity
  8
USP-GEO
100
AcDbLine
 10
0.0000000000001279
 20
2.614766586152697
 30
0.0
 11
0.0000000000000995
 21
2.012398573869319
 31
0.0
  0
ARC
  5
156
330
133
100
AcDbEntity
  8
USP-GEO
100
AcDbCircle
 10
0.8978000000001173
 20
2.313582580010958
 30
0.0
 40
0.3125000000000054
100
AcDbArc
 50
285.4660099534171
 51
74.53399004658372
  0
CIRCLE
  5
157
330
133
100
AcDbEntity
  8
USP-GEO
100
AcDbCircle
 10
-0.8978000000001173
 20
2.313582580010958
 30
0.0
 40
0.2453877747566099
210
0.0
220
0.0
230
-1.0
  0
LINE
  5
158
330
133
100
AcDbEntity
  8
USP-GEO
100
AcDbLine
 10
0.047800000000052
 20
1.415495526217014
 30
0.0
 11
0.0478000000000662
 21
1.771451368955965
 31
0.0
  0
LINE
  5
159
330
133
100
AcDbEntity
  8
USP-GEO
100
AcDbLine
 10
0.0000000000000711
 20
1.771451368955965
 30
0.0
 11
0.0000000000000568
 21
1.415495526217014
 31
0.0
  0
LINE
  5
15A
330
133
100
AcDbEntity
  8
USP-GEO
100
AcDbLine
 10
0.047800000000052
 20
1.238718830920376
 30
0.0
 11
0.047800000000052
 21
1.415495526217014
 31
0.0
  0
LINE
  5
15B
330
133
100
AcDbEntity
  8
USP-GEO
100
AcDbLine
 10
0.0000000000000568
 20
1.415495526217014
 30
0.0
 11
0.0000000000000568
 21
1.238718830920376
 31
0.0
  0
LINE
  5
15C
330
133
100
AcDbEntity
  8
USP-GEO
100
AcDbLine
 10
0.0000000000000426
 20
1.238718830920376
 30
0.0
 11
0.047800000000052
 21
1.238718830920376
 31
0.0
  0
LINE
  5
15D
330
133
100
AcDbEntity
  8
USP-GEO
100
AcDbLine
 10
0.0000000000000426
 20
1.415495526217014
 30
0.0
 11
0.047800000000052
 21
1.415495526217014
 31
0.0
  0
LINE
  5
15E
330
133
100
AcDbEntity
  8
USP-GEO
100
AcDbLine
 10
0.0478000000000805
 20
1.771451368955965
 30
0.0
 11
0.0478000000000805
 21
2.012398573869305
 31
0.0
  0
LINE
  5
15F
330
133
100
AcDbEntity
  8
USP-GEO
100
AcDbLine
 10
0.0000000000000711
 20
2.012398573869305
 30
0.0
 11
0.0000000000000711
 21
1.771451368955965
 31
0.0
  0
LINE
  5
160
330
133
100
AcDbEntity
  8
USP-GEO
100
AcDbLine
 10
0.0000000000000711
 20
1.771451368955965
 30
0.0
 11
0.0478000000000662
 21
1.771451368955965
 31
0.0
  0
LINE
  5
161
330
133
100
AcDbEntity
  8
USP-GEO
100
AcDbLine
 10
0.0000000000000995
 20
2.012398573869305
 30
0.0
 11
0.0478000000000805
 21
2.012398573869305
 31
0.0
  0
LINE
  5
162
330
133
100
AcDbEntity
  8
USP-GEO
100
AcDbLine
 10
0.7978000000000805
 20
1.771451368955908
 30
0.0
 11
0.7978000000000663
 21
1.415495526216986
 31
0.0
  0
ARC
  5
163
330
133
100
AcDbEntity
  8
USP-GEO
100
AcDbCircle
 10
-1.047800000000066
 20
1.415495526216972
 30
0.0
 40
0.2500000000000016
210
0.0
220
0.0
230
-1.0
100
AcDbArc
 50
315.0000000000081
 51
0.0000000000032696
  0
ARC
  5
164
330
133
100
AcDbEntity
  8
USP-GEO
100
AcDbCircle
 10
-1.04780000000008
 20
1.771451368955908
 30
0.0
 40
0.2500000000000028
210
0.0
220
0.0
230
-1.0
100
AcDbArc
 50
0.0000000000000127
 51
74.53399004658037
  0
ELLIPSE
  5
165
330
133
100
AcDbEntity
  8
USP-GEO
100
AcDbEllipse
 10
1.107431372890729
 20
2.313582580010958
 30
0.0
 11
-0.0000000000000034
 21
-0.0625000000000019
 31
0.0
210
0.0
220
0.0
230
1.0
 40
0.4999999999999872
 41
-3.141592653589685
 42
-1.570796326794869
  0
ELLIPSE
  5
166
330
133
100
AcDbEntity
  8
USP-GEO
100
AcDbEllipse
 10
1.107431372890729
 20
2.313582580010958
 30
0.0
 11
-0.0000000000000034
 21
-0.0625000000000019
 31
0.0
210
0.0
220
0.0
230
1.0
 40
0.4999999999999872
 41
-1.570796326794869
 42
0.0000000000001074
  0
ELLIPSE
  5
167
330
133
100
AcDbEntity
  8
USP-GEO
100
AcDbEllipse
 10
1.064335108911578
 20
2.313582580010972
 30
0.0
 11
0.0000000000000034
 21
0.0625000000000009
 31
0.0
210
0.0
220
0.0
230
-1.0
 40
0.499999999999991
 41
0.760924480846153
 42
2.374683149517009
  0
ELLIPSE
  5
168
330
133
100
AcDbEntity
  8
USP-GEO
100
AcDbEllipse
 10
0.9805920286019045
 20
2.313582580010958
 30
0.0
 11
0.1250000000000005
 21
-0.0000000000000067
 31
0.0
210
0.0
220
0.0
230
-1.0
 40
0.4999999999999982
 41
-0.3260451088259218
 42
0.326045108826045
  0
ELLIPSE
  5
169
330
133
100
AcDbEntity
  8
USP-GEO
100
AcDbEllipse
 10
1.107431372890729
 20
2.313582580010958
 30
0.0
 11
-0.0000000000000034
 21
-0.0625000000000019
 31
0.0
210
0.0
220
0.0
230
1.0
 40
0.4999999999999872
 41
0.0000000000001074
 42
3.141592653589943
  0
ELLIPSE
  5
16A
330
133
100
AcDbEntity
  8
USP-GEO
100
AcDbEllipse
 10
1.064335108911123
 20
2.313582580010958
 30
0.0
 11
0.0000000000000034
 21
0.0625000000000009
 31
0.0
210
0.0
220
0.0
230
-1.0
 40
0.4999999999999952
 41
0.7596583017774097
 42
2.381632593521544
  0
ARC
  5
16B
330
133
100
AcDbEntity
  8
USP-GEO
100
AcDbCircle
 10
-0.8978000000001173
 20
2.313582580010958
 30
0.0
 40
0.2022
210
0.0
220
0.0
230
-1.0
100
AcDbArc
 50
174.3181581563288
 51
185.6818418436736
  0
LINE
  5
16C
330
133
100
AcDbEntity
  8
USP-GEO
100
AcDbLine
 10
0.0478000000001373
 20
2.855713791066037
 30
0.0
 11
0.0478000000001657
 21
3.521451368955908
 31
0.0
  0
LINE
  5
16D
330
133
100
AcDbEntity
  8
USP-GEO
100
AcDbLine
 10
0.0000000000001563
 20
3.521451368955922
 30
0.0
 11
0.0000000000001279
 21
2.855713791066051
 31
0.0
  0
LINE
  5
16E
330
133
100
AcDbEntity
  8
USP-GEO
100
AcDbLine
 10
0.0478000000001231
 20
2.614766586152697
 30
0.0
 11
0.0478000000001231
 21
2.855713791066037
 31
0.0
  0
LINE
  5
16F
330
133
100
AcDbEntity
  8
USP-GEO
100
AcDbLine
 10
0.0000000000001279
 20
2.855713791066051
 30
0.0
 11
0.0000000000001279
 21
2.614766586152697
 31
0.0
  0
LINE
  5
170
330
133
100
AcDbEntity
  8
USP-GEO
100
AcDbLine
 10
0.0000000000001279
 20
2.614766586152697
 30
0.0
 11
0.0478000000001231
 21
2.614766586152697
 31
0.0
  0
LINE
  5
171
330
133
100
AcDbEntity
  8
USP-GEO
100
AcDbLine
 10
0.0000000000001279
 20
2.855713791066051
 30
0.0
 11
0.0478000000001373
 21
2.855713791066051
 31
0.0
  0
LINE
  5
172
330
133
100
AcDbEntity
  8
USP-GEO
100
AcDbLine
 10
0.0478000000001657
 20
3.521451368955908
 30
0.0
 11
0.0478000000001657
 21
3.762398573869276
 31
0.0
  0
LINE
  5
173
330
133
100
AcDbEntity
  8
USP-GEO
100
AcDbLine
 10
0.0000000000001705
 20
3.762398573869276
 30
0.0
 11
0.0000000000001705
 21
3.521451368955922
 31
0.0
  0
LINE
  5
174
330
133
100
AcDbEntity
  8
USP-GEO
100
AcDbLine
 10
0.0000000000001563
 20
3.521451368955922
 30
0.0
 11
0.0478000000001657
 21
3.521451368955922
 31
0.0
  0
LINE
  5
175
330
133
100
AcDbEntity
  8
USP-GEO
100
AcDbLine
 10
0.0000000000001847
 20
3.734342135623762
 30
0.0
 11
0.0000640360250515
 21
3.734342135623762
 31
0.0
  0
LINE
  5
176
330
133
100
AcDbEntity
  8
USP-GEO
100
AcDbLine
 10
0.165718745757303
 20
4.136085991440523
 30
0.0
 11
0.047910338970695
 21
4.104519323980454
 31
0.0
  0
LINE
  5
177
330
133
100
AcDbEntity
  8
USP-GEO
100
AcDbLine
 10
0.0478253881864248
 20
4.052732752465928
 30
0.0
 11
0.1786596980124386
 21
4.087789700126094
 31
0.0
  0
LINE
  5
178
330
133
100
AcDbEntity
  8
USP-GEO
100
AcDbLine
 10
0.0000000000001847
 20
3.762398573869276
 30
0.0
 11
0.0478000000001799
 21
3.762398573869276
 31
0.0
  0
LINE
  5
179
330
133
100
AcDbEntity
  8
USP-GEO
100
AcDbLine
 10
0.1786596980124528
 20
4.087789700126066
 30
0.0
 11
0.1657187457573315
 21
4.136085991440538
 31
0.0
  0
LINE
  5
17A
330
133
100
AcDbEntity
  8
USP-GEO
100
AcDbLine
 10
0.7978000000001657
 20
3.521451368955879
 30
0.0
 11
0.7978000000001231
 21
2.855713791066008
 31
0.0
  0
ARC
  5
17B
330
133
100
AcDbEntity
  8
USP-GEO
100
AcDbCircle
 10
-1.047800000000137
 20
2.855713791066008
 30
0.0
 40
0.2500000000000005
210
0.0
220
0.0
230
-1.0
100
AcDbArc
 50
285.4660099534264
 51
0.0000000000016412
  0
ARC
  5
17C
330
133
100
AcDbEntity
  8
USP-GEO
100
AcDbCircle
 10
-1.047800000000179
 20
3.521451368955851
 30
0.0
 40
0.2499999999999999
210
0.0
220
0.0
230
-1.0
100
AcDbArc
 50
0.0000000000065265
 51
74.53399004658708
  0
ELLIPSE
  5
17D
330
133
100
AcDbEntity
  8
USP-GEO
100
AcDbEllipse
 10
1.107431372890815
 20
4.06358258001093
 30
0.0
 11
-0.0000000000000034
 21
-0.0625000000000019
 31
0.0
210
0.0
220
0.0
230
1.0
 40
0.4999999999999872
 41
-3.141592653589685
 42
-1.570796326794983
  0
ELLIPSE
  5
17E
330
133
100
AcDbEntity
  8
USP-GEO
100
AcDbEllipse
 10
1.107431372890815
 20
4.06358258001093
 30
0.0
 11
-0.0000000000000034
 21
-0.0625000000000019
 31
0.0
210
0.0
220
0.0
230
1.0
 40
0.4999999999999872
 41
-1.570796326794983
 42
0.0000000000001074
  0
ELLIPSE
  5
17F
330
133
100
AcDbEntity
  8
USP-GEO
100
AcDbEllipse
 10
1.064335108911677
 20
4.06358258001093
 30
0.0
 11
0.0000000000000034
 21
0.0625000000000009
 31
0.0
210
0.0
220
0.0
230
-1.0
 40
0.499999999999991
 41
0.7609244807776263
 42
2.374683149597884
  0
ELLIPSE
  5
180
330
133
100
AcDbEntity
  8
USP-GEO
100
AcDbEllipse
 10
0.980592028602004
 20
4.063582580010944
 30
0.0
 11
0.1250000000000005
 21
-0.0000000000000067
 31
0.0
210
0.0
220
0.0
230
-1.0
 40
0.4999999999999982
 41
-0.3260451088258095
 42
0.3260451088259399
  0
ELLIPSE
  5
181
330
133
100
AcDbEntity
  8
USP-GEO
100
AcDbEllipse
 10
1.107431372890815
 20
4.06358258001093
 30
0.0
 11
-0.0000000000000034
 21
-0.0625000000000019
 31
0.0
210
0.0
220
0.0
230
1.0
 40
0.4999999999999872
 41
0.0000000000001074
 42
3.141592653589943
  0
ELLIPSE
  5
182
330
133
100
AcDbEntity
  8
USP-GEO
100
AcDbEllipse
 10
1.064335108911208
 20
4.06358258001093
 30
0.0
 11
0.0000000000000034
 21
0.0625000000000009
 31
0.0
210
0.0
220
0.0
230
-1.0
 40
0.4999999999999952
 41
0.7596583017347746
 42
2.381632593446914
  0
ARC
  5
183
330
133
100
AcDbEntity
  8
USP-GEO
100
AcDbCircle
 10
-0.8978000000002026
 20
4.06358258001093
 30
0.0
 40
0.2022
210
0.0
220
0.0
230
-1.0
100
AcDbArc
 50
174.3181581563288
 51
185.6818418436695
  0
LINE
  5
184
330
133
100
AcDbEntity
  8
USP-GEO
100
AcDbLine
 10
1.909707340654719
 20
0.0955999999999193
 30
0.0
 11
1.909707340654705
 21
0.079999999999913
 31
0.0
  0
ARC
  5
185
330
133
100
AcDbEntity
  8
USP-GEO
100
AcDbCircle
 10
-1.99830252531693
 20
0.1114396103067037
 30
0.0
 40
0.0900000000000005
210
0.0
220
0.0
230
-1.0
100
AcDbArc
 50
349.8633948477029
 51
45.00000000000001
  0
LINE
  5
186
330
133
100
AcDbEntity
  8
USP-GEO
100
AcDbLine
 10
1.909707340654648
 20
0.079999999999913
 30
0.0
 11
1.909707340654648
 21
-0.0000000000000853
 31
0.0
  0
LINE
  5
187
330
133
100
AcDbEntity
  8
USP-GEO
100
AcDbLine
 10
1.985964537036167
 20
0.0477999999999099
 30
0.0
 11
1.985964537036167
 21
-0.0000000000000995
 31
0.0
  0
LINE
  5
188
330
133
100
AcDbEntity
  8
USP-GEO
100
AcDbLine
 10
1.985964537036167
 20
0.0477999999999099
 30
0.0
 11
1.909707340654648
 21
0.0477999999999099
 31
0.0
  0
LINE
  5
189
330
133
100
AcDbEntity
  8
USP-GEO
100
AcDbLine
 10
1.985964537036181
 20
-0.0000000000000995
 30
0.0
 11
1.909707340654634
 21
-0.0000000000000995
 31
0.0
  0
CIRCLE
  5
18A
330
133
100
AcDbEntity
  8
USP-GEO
100
AcDbCircle
 10
0.2978000000002225
 20
4.549442135623735
 30
0.0
 40
0.1535
  0
LINE
  5
18B
330
133
100
AcDbEntity
  8
USP-GEO
100
AcDbLine
 10
0.087800000000243
 20
4.861942135623749
 30
0.0
 11
0.7978000000002368
 21
4.861942135623706
 31
0.0
  0
LINE
  5
18C
330
133
100
AcDbEntity
  8
USP-GEO
100
AcDbLine
 10
0.0478000000002226
 20
4.605713791066094
 30
0.0
 11
0.0478000000002368
 21
4.861942135623749
 31
0.0
  0
LINE
  5
18D
330
133
100
AcDbEntity
  8
USP-GEO
100
AcDbLine
 10
0.0878000000002288
 20
4.861942135623749
 30
0.0
 11
0.0878000000002146
 21
4.560033015231127
 31
0.0
  0
LINE
  5
18E
330
133
100
AcDbEntity
  8
USP-GEO
100
AcDbLine
 10
0.0000000000002274
 20
4.861942135623749
 30
0.0
 11
0.0000000000002132
 21
4.605713791066094
 31
0.0
  0
LINE
  5
18F
330
133
100
AcDbEntity
  8
USP-GEO
100
AcDbLine
 10
0.0478662384746826
 20
4.529035378618786
 30
0.0
 11
0.2112592226584269
 21
4.246030428412211
 31
0.0
  0
LINE
  5
190
330
133
100
AcDbEntity
  8
USP-GEO
100
AcDbLine
 10
0.2545604928476592
 20
4.271030428412203
 30
0.0
 11
0.0602130307878071
 21
4.607650107021953
 31
0.0
  0
LINE
  5
191
330
133
100
AcDbEntity
  8
USP-GEO
100
AcDbLine
 10
0.0478000000002226
 20
4.364766586152697
 30
0.0
 11
0.0478000000002226
 21
4.605713791066094
 31
0.0
  0
LINE
  5
192
330
133
100
AcDbEntity
  8
USP-GEO
100
AcDbLine
 10
0.0000000000002274
 20
4.605713791066094
 30
0.0
 11
0.0000000000002274
 21
4.364766586152697
 31
0.0
  0
LINE
  5
193
330
133
100
AcDbEntity
  8
USP-GEO
100
AcDbLine
 10
0.0000000000002132
 20
4.364766586152697
 30
0.0
 11
0.0478000000002084
 21
4.364766586152697
 31
0.0
  0
LINE
  5
194
330
133
100
AcDbEntity
  8
USP-GEO
100
AcDbLine
 10
0.0000000000002132
 20
4.605713791066094
 30
0.0
 11
0.0478000000002226
 21
4.605713791066094
 31
0.0
  0
LINE
  5
195
330
133
100
AcDbEntity
  8
USP-GEO
100
AcDbLine
 10
0.0478679537867919
 20
4.607650107021939
 30
0.0
 11
0.0602130307878071
 21
4.607650107021939
 31
0.0
  0
LINE
  5
196
330
133
100
AcDbEntity
  8
USP-GEO
100
AcDbLine
 10
0.0000000000002274
 20
4.861942135623749
 30
0.0
 11
0.0478000000002368
 21
4.861942135623749
 31
0.0
  0
LINE
  5
197
330
133
100
AcDbEntity
  8
USP-GEO
100
AcDbLine
 10
0.087800000000243
 20
4.861942135623749
 30
0.0
 11
0.0478109510016509
 21
4.861942135623749
 31
0.0
  0
ARC
  5
198
330
133
100
AcDbEntity
  8
USP-GEO
100
AcDbCircle
 10
-1.047800000000236
 20
4.605713791066008
 30
0.0
 40
0.2500000000000209
210
0.0
220
0.0
230
-1.0
100
AcDbArc
 50
285.4660099534248
 51
0.0000000000097834
  0
LINE
  5
199
330
133
100
AcDbEntity
  8
USP-GEO
100
AcDbLine
 10
0.7978000000002368
 20
4.861942135623721
 30
0.0
 11
0.7978000000002226
 21
4.605713791066051
 31
0.0
  0
ENDBLK
  5
19B
330
133
100
AcDbEntity
  8
0
100
AcDbBlockEnd
  0
BLOCK
  5
1BFC
330
1BF7
100
AcDbEntity
  8
0
100
AcDbBlockBegin
  2
_Closed
 70
     0
 10
0.0
 20
0.0
 30
0.0
  3
_Closed
  1

  0
LINE
  5
1BF8
330
1BF7
100
AcDbEntity
  8
0
  6
ByBlock
 62
     0
370
    -2
100
AcDbLine
 10
-1.0
 20
0.1666666666666666
 30
0.0
 11
0.0
 21
0.0
 31
0.0
  0
LINE
  5
1BF9
330
1BF7
100
AcDbEntity
  8
0
  6
ByBlock
 62
     0
370
    -2
100
AcDbLine
 10
0.0
 20
0.0
 30
0.0
 11
-1.0
 21
-0.1666666666666666
 31
0.0
  0
LINE
  5
1BFA
330
1BF7
100
AcDbEntity
  8
0
  6
ByBlock
 62
     0
370
    -2
100
AcDbLine
 10
-1.0
 20
0.1666666666666666
 30
0.0
 11
-1.0
 21
-0.1666666666666666
 31
0.0
  0
LINE
  5
1BFB
330
1BF7
100
AcDbEntity
  8
0
  6
ByBlock
 62
     0
370
    -2
100
AcDbLine
 10
0.0
 20
0.0
 30
0.0
 11
-1.0
 21
0.0
 31
0.0
  0
ENDBLK
  5
1BFD
330
1BF7
100
AcDbEntity
  8
0
100
AcDbBlockEnd
  0
BLOCK
  5
1C01
330
1BFE
100
AcDbEntity
  8
0
100
AcDbBlockBegin
  2
_Dot
 70
     0
 10
0.0
 20
0.0
 30
0.0
  3
_Dot
  1

  0
LWPOLYLINE
  5
1BFF
330
1BFE
100
AcDbEntity
  8
0
  6
ByBlock
 62
     0
100
AcDbPolyline
 90
        2
 70
     1
 43
0.5
 10
-0.25
 20
0.0
 42
1.0
 10
0.25
 20
0.0
 42
1.0
  0
LINE
  5
1C00
330
1BFE
100
AcDbEntity
  8
0
  6
ByBlock
 62
     0
370
    -2
100
AcDbLine
 10
-0.5
 20
0.0
 30
0.0
 11
-1.0
 21
0.0
 31
0.0
  0
ENDBLK
  5
1C02
330
1BFE
100
AcDbEntity
  8
0
100
AcDbBlockEnd
  0
BLOCK
  5
2836
330
2833
100
AcDbEntity
  8
0
100
AcDbBlockBegin
  2
A$C722B59BA
 70
     0
 10
0.0
 20
0.0
 30
0.0
  3
A$C722B59BA
  1

  0
LWPOLYLINE
  5
2834
330
2833
100
AcDbEntity
  8
0
100
AcDbPolyline
 90
        4
 70
     1
 43
0.0
 10
-0.0000013444860087
 20
445.5000007144404
 10
314.999998655514
 20
445.5000007144404
 10
314.999998655514
 20
0.0000007144403753
 10
-0.0000013444860087
 20
0.0000007144403753
  0
ENDBLK
  5
2837
330
2833
100
AcDbEntity
  8
0
100
AcDbBlockEnd
  0
BLOCK
  5
2A3F
330
2A3E
100
AcDbEntity
  8
0
100
AcDbBlockBegin
  2
SW_NOTE_0
 70
     0
 10
0.0
 20
0.0
 30
0.0
  3
SW_NOTE_0
  1

  0
MTEXT
  5
2A40
330
2A3E
100
AcDbEntity
  8
TOLERANCES
 62
     0
100
AcDbMText
 10
0.0
 20
0.0939945226917057
 30
0.0
 40
0.0729166666666667
 41
0.0
 46
0.0
 71
     1
 72
     1
  1
HOLE DEC:
  7
SLDTEXTSTYLE0
 73
     1
 44
1.0
  0
MTEXT
  5
2A41
330
2A3E
100
AcDbEntity
  8
TOLERANCES
 62
     0
100
AcDbMText
 10
0.561728384199105
 20
0.0939945226917057
 30
0.0
 40
0.0729166666666667
 41
0.0
 46
0.0
 71
     1
 72
     1
  1
%%p
  7
SLDTEXTSTYLE0
 73
     1
 44
1.0
  0
MTEXT
  5
2A42
330
2A3E
100
AcDbEntity
  8
TOLERANCES
 62
     0
100
AcDbMText
 10
0.0
 20
-0.1004499194028399
 30
0.0
 40
0.0729166666666667
 41
0.0
 46
0.0
 71
     1
 72
     1
  1
HOLE FRAC:
  7
SLDTEXTSTYLE0
 73
     1
 44
1.0
  0
MTEXT
  5
2A43
330
2A3E
100
AcDbEntity
  8
TOLERANCES
 62
     0
100
AcDbMText
 10
0.6265432287858227
 20
-0.1004499194028399
 30
0.0
 40
0.0729166666666667
 41
0.0
 46
0.0
 71
     1
 72
     1
  1
%%p
  7
SLDTEXTSTYLE0
 73
     1
 44
1.0
  0
MTEXT
  5
2A44
330
2A3E
100
AcDbEntity
  8
TOLERANCES
 62
     0
100
AcDbMText
 10
0.0
 20
-0.2948943614973856
 30
0.0
 40
0.0729166666666667
 41
0.0
 46
0.0
 71
     1
 72
     1
  1
BEND ANGLE:
  7
SLDTEXTSTYLE0
 73
     1
 44
1.0
  0
MTEXT
  5
2A45
330
2A3E
100
AcDbEntity
  8
TOLERANCES
 62
     0
100
AcDbMText
 10
0.7021604619157597
 20
-0.2948943614973856
 30
0.0
 40
0.0729166666666667
 41
0.0
 46
0.0
 71
     1
 72
     1
  1
%%p
  7
SLDTEXTSTYLE0
 73
     1
 44
1.0
  0
ENDBLK
  5
2A46
330
2A3E
100
AcDbEntity
  8
0
100
AcDbBlockEnd
  0
BLOCK
  5
2A48
330
2A47
100
AcDbEntity
  8
0
100
AcDbBlockBegin
  2
SW_NOTE_1
 70
     0
 10
0.0
 20
0.0
 30
0.0
  3
SW_NOTE_1
  1

  0
MTEXT
  5
2A49
330
2A47
100
AcDbEntity
  8
TOLERANCES
 62
     0
100
AcDbMText
 10
0.0
 20
0.0939945226917057
 30
0.0
 40
0.0729166666666667
 41
0.0
 46
0.0
 71
     1
 72
     1
  1
HEIGHT:
  7
SLDTEXTSTYLE0
 73
     1
 44
1.0
  0
MTEXT
  5
2A4A
330
2A47
100
AcDbEntity
  8
TOLERANCES
 62
     0
100
AcDbMText
 10
0.4266975374203029
 20
0.0939945226917057
 30
0.0
 40
0.0729166666666667
 41
0.0
 46
0.0
 71
     1
 72
     1
  1
%%p
  7
SLDTEXTSTYLE0
 73
     1
 44
1.0
  0
MTEXT
  5
2A4B
330
2A47
100
AcDbEntity
  8
TOLERANCES
 62
     0
100
AcDbMText
 10
0.0
 20
-0.1004499194028399
 30
0.0
 40
0.0729166666666667
 41
0.0
 46
0.0
 71
     1
 72
     1
  1
WIDTH:
  7
SLDTEXTSTYLE0
 73
     1
 44
1.0
  0
MTEXT
  5
2A4C
330
2A47
100
AcDbEntity
  8
TOLERANCES
 62
     0
100
AcDbMText
 10
0.3780864223133861
 20
-0.1004499194028399
 30
0.0
 40
0.0729166666666667
 41
0.0
 46
0.0
 71
     1
 72
     1
  1
%%p
  7
SLDTEXTSTYLE0
 73
     1
 44
1.0
  0
MTEXT
  5
2A4D
330
2A47
100
AcDbEntity
  8
TOLERANCES
 62
     0
100
AcDbMText
 10
0.0
 20
-0.2948943614973856
 30
0.0
 40
0.0729166666666667
 41
0.0
 46
0.0
 71
     1
 72
     1
  1
DEPTH:
  7
SLDTEXTSTYLE0
 73
     1
 44
1.0
  0
MTEXT
  5
2A4E
330
2A47
100
AcDbEntity
  8
TOLERANCES
 62
     0
100
AcDbMText
 10
0.3888888841890913
 20
-0.2948943614973856
 30
0.0
 40
0.0729166666666667
 41
0.0
 46
0.0
 71
     1
 72
     1
  1
%%p
  7
SLDTEXTSTYLE0
 73
     1
 44
1.0
  0
ENDBLK
  5
2A4F
330
2A47
100
AcDbEntity
  8
0
100
AcDbBlockEnd
  0
BLOCK
  5
2A51
330
2A50
100
AcDbEntity
  8
0
100
AcDbBlockBegin
  2
_D
 70
     0
 10
0.0
 20
0.0
 30
0.0
  3
_D
  1

  0
ARC
  5
2A52
330
2A50
100
AcDbEntity
  8
OBJ
 62
     7
440
 16777216
100
AcDbCircle
 10
3.084372072903507
 20
5.54507990070484
 30
0.0
 40
0.5636540129440839
100
AcDbArc
 50
90.00000000000055
 51
135.1864139431877
  0
ARC
  5
2A53
330
2A50
100
AcDbEntity
  8
OBJ
 62
     7
440
 16777216
100
AcDbCircle
 10
3.084372072903507
 20
5.54507990070484
 30
0.0
 40
0.5636540129440842
100
AcDbArc
 50
152.8142761102694
 51
180.0000000000012
  0
INSERT
  5
2A54
330
2A50
100
AcDbEntity
  8
OBJ
 62
     7
440
 16777216
100
AcDbBlockReference
  2
_Closed
 10
3.084372072903502
 20
6.108733913648924
 30
0.4687182578756787
 41
0.156
 42
0.156
 50
7.735126912555936
  0
INSERT
  5
2A55
330
2A50
100
AcDbEntity
  8
OBJ
 62
     7
440
 16777216
100
AcDbBlockReference
  2
_Closed
 10
2.520718059959423
 20
5.545079900704836
 30
0.4687182578756787
 41
0.156
 42
0.156
 50
262.2648730874459
  0
LINE
  5
2A56
330
2A50
100
AcDbEntity
  8
OBJ
 62
     7
440
 16777216
100
AcDbLine
 10
3.084372072903502
 20
6.110790578823545
 30
0.0
 11
3.084372072903502
 21
5.983733913648924
 31
0.0
  0
LINE
  5
2A57
330
2A50
100
AcDbEntity
  8
OBJ
 62
     7
440
 16777216
100
AcDbLine
 10
3.0806220729035
 20
5.54507990070484
 30
0.0
 11
2.395718059959423
 21
5.545079900704835
 31
0.0
  0
MTEXT
  5
2A58
330
2A50
100
AcDbEntity
  8
OBJ
 62
     7
440
 16777216
100
AcDbMText
 10
2.528212927049927
 20
5.923450164262062
 30
0.0
 40
0.09375
 41
0.0
 46
0.0
 71
     1
 72
     1
  1
85
  7
SLDTEXTSTYLE1
 73
     1
 44
1.0
  0
MTEXT
  5
2A59
330
2A50
100
AcDbEntity
  8
OBJ
 62
     7
440
 16777216
100
AcDbMText
 10
2.667101814260317
 20
5.923450164262062
 30
0.0
 40
0.09375
 41
0.0
 46
0.0
 71
     1
 72
     1
  1
%%d
  7
SLDTEXTSTYLE1
 73
     1
 44
1.0
  0
ENDBLK
  5
2A5A
330
2A50
100
AcDbEntity
  8
0
100
AcDbBlockEnd
  0
BLOCK
  5
2A5C
330
2A5B
100
AcDbEntity
  8
0
100
AcDbBlockBegin
  2
_D_1
 70
     0
 10
0.0
 20
0.0
 30
0.0
  3
_D_1
  1

  0
INSERT
  5
2A5D
330
2A5B
100
AcDbEntity
  8
OBJ
 62
     7
440
 16777216
100
AcDbBlockReference
  2
_Closed
 10
4.760822860141234
 20
7.065079900704842
 30
0.4687182578756787
 41
0.156
 42
0.156
 50
90.00000000000058
  0
INSERT
  5
2A5E
330
2A5B
100
AcDbEntity
  8
OBJ
 62
     7
440
 16777216
100
AcDbBlockReference
  2
_Closed
 10
4.76082286014124
 20
5.565079900704846
 30
0.4687182578756787
 41
0.156
 42
0.156
 50
270.0000000000006
  0
LINE
  5
2A5F
330
2A5B
100
AcDbEntity
  8
OBJ
 62
     7
440
 16777216
100
AcDbLine
 10
4.417122072903522
 20
7.065079900704841
 30
0.0
 11
4.885822860141234
 21
7.065079900704842
 31
0.0
  0
LINE
  5
2A60
330
2A5B
100
AcDbEntity
  8
OBJ
 62
     7
440
 16777216
100
AcDbLine
 10
3.9093720729035
 20
5.565079900704843
 30
0.0
 11
4.885822860141239
 21
5.565079900704846
 31
0.0
  0
LINE
  5
2A61
330
2A5B
100
AcDbEntity
  8
OBJ
 62
     7
440
 16777216
100
AcDbLine
 10
4.760822860141234
 20
7.065079900704842
 30
0.0
 11
4.760822860141236
 21
6.432373561306444
 31
0.0
  0
LINE
  5
2A62
330
2A5B
100
AcDbEntity
  8
OBJ
 62
     7
440
 16777216
100
AcDbLine
 10
4.76082286014124
 20
5.565079900704846
 30
0.0
 11
4.760822860141236
 21
6.292628995750499
 31
0.0
  0
MTEXT
  5
2A63
330
2A5B
100
AcDbEntity
  8
OBJ
 62
     7
440
 16777216
100
AcDbMText
 10
4.696512550121709
 20
6.413479098645757
 30
0.0
 40
0.09375
 41
0.0
 46
0.0
 71
     1
 72
     1
  1
3"
  7
SLDTEXTSTYLE1
 73
     1
 44
1.0
  0
ENDBLK
  5
2A64
330
2A5B
100
AcDbEntity
  8
0
100
AcDbBlockEnd
  0
BLOCK
  5
2A66
330
2A65
100
AcDbEntity
  8
0
100
AcDbBlockBegin
  2
_D_2
 70
     0
 10
0.0
 20
0.0
 30
0.0
  3
_D_2
  1

  0
INSERT
  5
2A67
330
2A65
100
AcDbEntity
  8
OBJ
 62
     7
440
 16777216
100
AcDbBlockReference
  2
_Closed
 10
2.743893557057278
 20
6.246075666197599
 30
0.4687182578756787
 41
0.156
 42
0.156
 50
45.02541394857092
  0
LINE
  5
2A68
330
2A65
100
AcDbEntity
  8
OBJ
 62
     7
440
 16777216
100
AcDbLine
 10
2.743893557057278
 20
6.246075666197599
 30
0.0
 11
2.228146285214149
 21
5.729870664588907
 31
0.0
  0
LINE
  5
2A69
330
2A65
100
AcDbEntity
  8
OBJ
 62
     7
440
 16777216
100
AcDbLine
 10
2.228146285214149
 20
5.729870664588907
 30
0.0
 11
1.978146285214149
 21
5.729870664588907
 31
0.0
  0
MTEXT
  5
2A6A
330
2A65
100
AcDbEntity
  8
OBJ
 62
     7
440
 16777216
100
AcDbMText
 10
1.352635592740498
 20
5.780848484706194
 30
0.0
 40
0.09375
 41
0.0
 46
0.0
 71
     1
 72
     1
  1
%%c
  7
SLDTEXTSTYLE1
 73
     1
 44
1.0
  0
MTEXT
  5
2A6B
330
2A65
100
AcDbEntity
  8
OBJ
 62
     7
440
 16777216
100
AcDbMText
 10
1.485288643029425
 20
5.780848484706194
 30
0.0
 40
0.09375
 41
0.0
 46
0.0
 71
     1
 72
     1
  1
.164
  7
SLDTEXTSTYLE1
 73
     1
 44
1.0
  0
MTEXT
  5
2A6C
330
2A65
100
AcDbEntity
  8
OBJ
 62
     7
440
 16777216
100
AcDbMText
 10
1.763364053254534
 20
5.780848484706194
 30
0.0
 40
0.09375
 41
0.0
 46
0.0
 71
     1
 72
     1
  1
(4)
  7
SLDTEXTSTYLE1
 73
     1
 44
1.0
  0
ENDBLK
  5
2A6D
330
2A65
100
AcDbEntity
  8
0
100
AcDbBlockEnd
  0
BLOCK
  5
2A6F
330
2A6E
100
AcDbEntity
  8
0
100
AcDbBlockBegin
  2
_D_3
 70
     0
 10
0.0
 20
0.0
 30
0.0
  3
_D_3
  1

  0
INSERT
  5
2A70
330
2A6E
100
AcDbEntity
  8
OBJ
440
 16777216
100
AcDbBlockReference
  2
_Closed
 10
3.104372072903515
 20
5.185103026192298
 30
0.4687182578756787
 41
0.156
 42
0.156
 50
0.0000000000023154
  0
INSERT
  5
2A71
330
2A6E
100
AcDbEntity
  8
OBJ
440
 16777216
100
AcDbBlockReference
  2
_Closed
 10
3.885622072903522
 20
5.185103026192325
 30
0.4687182578756787
 41
0.156
 42
0.156
 50
180.0000000000023
  0
LINE
  5
2A72
330
2A6E
100
AcDbEntity
  8
OBJ
440
 16777216
100
AcDbLine
 10
3.104372072903503
 20
5.550435239764178
 30
0.0
 11
3.10437207290352
 21
5.060103026192298
 31
0.0
  0
LINE
  5
2A73
330
2A6E
100
AcDbEntity
  8
OBJ
440
 16777216
100
AcDbLine
 10
3.88562207290351
 20
5.550435239764203
 30
0.0
 11
3.885622072903526
 21
5.060103026192324
 31
0.0
  0
LINE
  5
2A74
330
2A6E
100
AcDbEntity
  8
OBJ
440
 16777216
100
AcDbLine
 10
3.104372072903515
 20
5.185103026192298
 30
0.0
 11
2.854372072903515
 21
5.185103026192289
 31
0.0
  0
LINE
  5
2A75
330
2A6E
100
AcDbEntity
  8
OBJ
440
 16777216
100
AcDbLine
 10
3.885622072903522
 20
5.185103026192325
 30
0.0
 11
4.135622072903522
 21
5.185103026192334
 31
0.0
  0
MTEXT
  5
2A76
330
2A6E
100
AcDbEntity
  8
OBJ
440
 16777216
100
AcDbMText
 10
3.317622132725331
 20
5.2360808463096
 30
0.0
 40
0.09375
 41
0.0
 46
0.0
 71
     1
 72
     1
  1
1 9/16"
  7
SLDTEXTSTYLE1
 73
     1
 44
1.0
  0
ENDBLK
  5
2A77
330
2A6E
100
AcDbEntity
  8
0
100
AcDbBlockEnd
  0
BLOCK
  5
2A79
330
2A78
100
AcDbEntity
  8
0
100
AcDbBlockBegin
  2
_D_4
 70
     0
 10
0.0
 20
0.0
 30
0.0
  3
_D_4
  1

  0
INSERT
  5
2A7A
330
2A78
100
AcDbEntity
  8
OBJ
 62
     7
440
 16777216
100
AcDbBlockReference
  2
_Closed
 10
3.104372072903506
 20
8.313616356394879
 30
-2.070506250000001
 41
0.156
 42
0.156
 50
0.0000000000009414
  0
INSERT
  5
2A7B
330
2A78
100
AcDbEntity
  8
OBJ
 62
     7
440
 16777216
100
AcDbBlockReference
  2
_Closed
 10
3.885622072903513
 20
8.313616356394886
 30
-2.070506250000001
 41
0.156
 42
0.156
 50
180.0000000000009
  0
LINE
  5
2A7C
330
2A78
100
AcDbEntity
  8
OBJ
 62
     7
440
 16777216
100
AcDbLine
 10
3.104372072903502
 20
8.777511462102356
 30
0.0
 11
3.104372072903508
 21
8.188616356394879
 31
0.0
  0
LINE
  5
2A7D
330
2A78
100
AcDbEntity
  8
OBJ
 62
     7
440
 16777216
100
AcDbLine
 10
3.885622072903509
 20
8.777511462102351
 30
0.0
 11
3.885622072903514
 21
8.188616356394886
 31
0.0
  0
LINE
  5
2A7E
330
2A78
100
AcDbEntity
  8
OBJ
 62
     7
440
 16777216
100
AcDbLine
 10
3.104372072903506
 20
8.313616356394879
 30
0.0
 11
2.854372072903507
 21
8.313616356394877
 31
0.0
  0
LINE
  5
2A7F
330
2A78
100
AcDbEntity
  8
OBJ
 62
     7
440
 16777216
100
AcDbLine
 10
3.885622072903513
 20
8.313616356394886
 30
0.0
 11
4.135622072903513
 21
8.31361635639489
 31
0.0
  0
MTEXT
  5
2A80
330
2A78
100
AcDbEntity
  8
OBJ
 62
     7
440
 16777216
100
AcDbMText
 10
3.32160518299137
 20
8.364594176512188
 30
0.0
 40
0.09375
 41
0.0
 46
0.0
 71
     1
 72
     1
  1
1 9/16"
  7
SLDTEXTSTYLE1
 73
     1
 44
1.0
  0
ENDBLK
  5
2A81
330
2A78
100
AcDbEntity
  8
0
100
AcDbBlockEnd
  0
BLOCK
  5
2A83
330
2A82
100
AcDbEntity
  8
0
100
AcDbBlockBegin
  2
_D_5
 70
     0
 10
0.0
 20
0.0
 30
0.0
  3
_D_5
  1

  0
ARC
  5
2A84
330
2A82
100
AcDbEntity
  8
OBJ
 62
     7
440
 16777216
100
AcDbCircle
 10
3.0843720729035
 20
9.705656123043073
 30
0.0
 40
1.104730103056163
100
AcDbArc
 50
180.0000000000085
 51
218.2766971788566
  0
ARC
  5
2A85
330
2A82
100
AcDbEntity
  8
OBJ
 62
     7
440
 16777216
100
AcDbCircle
 10
3.0843720729035
 20
9.705656123043073
 30
0.0
 40
1.104730103056162
100
AcDbArc
 50
228.2413097978119
 51
270.0000000000009
  0
INSERT
  5
2A86
330
2A82
100
AcDbEntity
  8
OBJ
 62
     7
440
 16777216
100
AcDbBlockReference
  2
_Closed
 10
1.979641969847337
 20
9.705656123042924
 30
-2.070506250000001
 41
0.156
 42
0.156
 50
94.01882413258197
  0
INSERT
  5
2A87
330
2A82
100
AcDbEntity
  8
OBJ
 62
     7
440
 16777216
100
AcDbBlockReference
  2
_Closed
 10
3.084372072903502
 20
8.600926019986911
 30
-2.070506250000001
 41
0.156
 42
0.156
 50
355.9811758674267
  0
LINE
  5
2A88
330
2A82
100
AcDbEntity
  8
OBJ
 62
     7
440
 16777216
100
AcDbLine
 10
2.572872072903479
 20
9.705656123043004
 30
0.0
 11
1.854641969847337
 21
9.705656123042908
 31
0.0
  0
LINE
  5
2A89
330
2A82
100
AcDbEntity
  8
OBJ
 62
     7
440
 16777216
100
AcDbLine
 10
3.084372072903502
 20
8.777511462102358
 30
0.0
 11
3.084372072903502
 21
8.475926019986911
 31
0.0
  0
MTEXT
  5
2A8A
330
2A82
100
AcDbEntity
  8
OBJ
 62
     7
440
 16777216
100
AcDbMText
 10
2.182740991704297
 20
9.002425767935795
 30
0.0
 40
0.09375
 41
0.0
 46
0.0
 71
     1
 72
     1
  1
90°
  7
SLDTEXTSTYLE1
 73
     1
 44
1.0
  0
ENDBLK
  5
2A8B
330
2A82
100
AcDbEntity
  8
0
100
AcDbBlockEnd
  0
BLOCK
  5
2A8D
330
2A8C
100
AcDbEntity
  8
0
100
AcDbBlockBegin
  2
_D_6
 70
     0
 10
0.0
 20
0.0
 30
0.0
  3
_D_6
  1

  0
INSERT
  5
2A8E
330
2A8C
100
AcDbEntity
  8
OBJ
 62
     7
440
 16777216
100
AcDbBlockReference
  2
_Closed
 10
4.58523660768021
 20
9.542156123043023
 30
-2.070506250000001
 41
0.156
 42
0.156
 50
90.0000000000004
  0
INSERT
  5
2A8F
330
2A8C
100
AcDbEntity
  8
OBJ
 62
     7
440
 16777216
100
AcDbBlockReference
  2
_Closed
 10
4.58523660768021
 20
8.792156123043021
 30
-2.070506250000001
 41
0.156
 42
0.156
 50
270.0000000000004
  0
LINE
  5
2A90
330
2A8C
100
AcDbEntity
  8
OBJ
 62
     7
440
 16777216
100
AcDbLine
 10
3.852409188475344
 20
9.542156123043023
 30
0.0
 11
4.71023660768021
 21
9.542156123043023
 31
0.0
  0
LINE
  5
2A91
330
2A8C
100
AcDbEntity
  8
OBJ
 62
     7
440
 16777216
100
AcDbLine
 10
3.852409188475364
 20
8.792156123043021
 30
0.0
 11
4.71023660768021
 21
8.792156123043021
 31
0.0
  0
LINE
  5
2A92
330
2A8C
100
AcDbEntity
  8
OBJ
 62
     7
440
 16777216
100
AcDbLine
 10
4.58523660768021
 20
9.542156123043023
 30
0.0
 11
4.58523660768021
 21
9.269821977585891
 31
0.0
  0
LINE
  5
2A93
330
2A8C
100
AcDbEntity
  8
OBJ
 62
     7
440
 16777216
100
AcDbLine
 10
4.58523660768021
 20
8.792156123043021
 30
0.0
 11
4.58523660768021
 21
9.130077412029947
 31
0.0
  0
MTEXT
  5
2A94
330
2A8C
100
AcDbEntity
  8
OBJ
 62
     7
440
 16777216
100
AcDbMText
 10
4.416778357758791
 20
9.250927514925223
 30
0.0
 40
0.09375
 41
0.0
 46
0.0
 71
     1
 72
     1
  1
1 1/2"
  7
SLDTEXTSTYLE1
 73
     1
 44
1.0
  0
ENDBLK
  5
2A95
330
2A8C
100
AcDbEntity
  8
0
100
AcDbBlockEnd
  0
BLOCK
  5
2A97
330
2A96
100
AcDbEntity
  8
0
100
AcDbBlockBegin
  2
_D_7
 70
     0
 10
0.0
 20
0.0
 30
0.0
  3
_D_7
  1

  0
INSERT
  5
2A98
330
2A96
100
AcDbEntity
  8
OBJ
 62
     7
440
 16777216
100
AcDbBlockReference
  2
_Closed
 10
6.335973504667688
 20
6.94063106074178
 30
0.0019685039370062
 41
0.156
 42
0.156
 50
306.065140838893
  0
LINE
  5
2A99
330
2A96
100
AcDbEntity
  8
OBJ
 62
     7
440
 16777216
100
AcDbLine
 10
6.335973504667688
 20
6.94063106074178
 30
0.0
 11
5.831150600241301
 21
7.633801534172411
 31
0.0
  0
LINE
  5
2A9A
330
2A96
100
AcDbEntity
  8
OBJ
 62
     7
440
 16777216
100
AcDbLine
 10
5.831150600241301
 20
7.633801534172411
 30
0.0
 11
5.581150600241301
 21
7.633801534172411
 31
0.0
  0
MTEXT
  5
2A9B
330
2A96
100
AcDbEntity
  8
OBJ
 62
     7
440
 16777216
100
AcDbMText
 10
4.473555918929383
 20
7.614907071511731
 30
0.0
 40
0.09375
 41
0.0
 46
0.0
 71
     1
 72
     1
  1
EACH SIDE
  7
SLDTEXTSTYLE1
 73
     1
 44
1.0
  0
MTEXT
  5
2A9C
330
2A96
100
AcDbEntity
  8
OBJ
 62
     7
440
 16777216
100
AcDbMText
 10
4.124593604613278
 20
7.754651637067674
 30
0.0
 40
0.09375
 41
0.0
 46
0.0
 71
     1
 72
     1
  1
PRODUCTION HOLE (1)
  7
SLDTEXTSTYLE1
 73
     1
 44
1.0
  0
ENDBLK
  5
2A9D
330
2A96
100
AcDbEntity
  8
0
100
AcDbBlockEnd
  0
BLOCK
  5
2A9F
330
2A9E
100
AcDbEntity
  8
0
100
AcDbBlockBegin
  2
_D_8
 70
     0
 10
0.0
 20
0.0
 30
0.0
  3
_D_8
  1

  0
INSERT
  5
2AA0
330
2A9E
100
AcDbEntity
  8
OBJ
 62
     7
440
 16777216
100
AcDbBlockReference
  2
_Closed
 10
6.202953161131722
 20
6.612673721998657
 30
0.0019685039370062
 41
0.156
 42
0.156
 50
312.8676862509617
  0
LINE
  5
2AA1
330
2A9E
100
AcDbEntity
  8
OBJ
 62
     7
440
 16777216
100
AcDbLine
 10
6.202953161131722
 20
6.612673721998657
 30
0.0
 11
5.545499342511658
 21
7.32097896629154
 31
0.0
  0
LINE
  5
2AA2
330
2A9E
100
AcDbEntity
  8
OBJ
 62
     7
440
 16777216
100
AcDbLine
 10
5.545499342511658
 20
7.32097896629154
 30
0.0
 11
5.295499342511658
 21
7.32097896629154
 31
0.0
  0
MTEXT
  5
2AA3
330
2A9E
100
AcDbEntity
  8
OBJ
 62
     7
440
 16777216
100
AcDbMText
 10
3.954718953301912
 20
7.371956786408829
 30
0.0
 40
0.09375
 41
0.0
 46
0.0
 71
     1
 72
     1
  1
%%c
  7
SLDTEXTSTYLE1
 73
     1
 44
1.0
  0
MTEXT
  5
2AA4
330
2A9E
100
AcDbEntity
  8
OBJ
 62
     7
440
 16777216
100
AcDbMText
 10
4.087372003590838
 20
7.371956786408829
 30
0.0
 40
0.09375
 41
0.0
 46
0.0
 71
     1
 72
     1
  1
.164
  7
SLDTEXTSTYLE1
 73
     1
 44
1.0
  0
MTEXT
  5
2AA5
330
2A9E
100
AcDbEntity
  8
OBJ
 62
     7
440
 16777216
100
AcDbMText
 10
4.365447413815947
 20
7.371956786408829
 30
0.0
 40
0.09375
 41
0.0
 46
0.0
 71
     1
 72
     1
  1
(1) EACH SIDE
  7
SLDTEXTSTYLE1
 73
     1
 44
1.0
  0
ENDBLK
  5
2AA6
330
2A9E
100
AcDbEntity
  8
0
100
AcDbBlockEnd
  0
BLOCK
  5
2AA8
330
2AA7
100
AcDbEntity
  8
0
100
AcDbBlockBegin
  2
_D_9
 70
     0
 10
0.0
 20
0.0
 30
0.0
  3
_D_9
  1

  0
INSERT
  5
2AA9
330
2AA7
100
AcDbEntity
  8
OBJ
 62
     7
440
 16777216
100
AcDbBlockReference
  2
_Closed
 10
6.550392468266323
 20
5.297014992716
 30
0.0019685039370062
 41
0.156
 42
0.156
 50
359.9999999999992
  0
INSERT
  5
2AAA
330
2AA7
100
AcDbEntity
  8
OBJ
 62
     7
440
 16777216
100
AcDbBlockReference
  2
_Closed
 10
5.616892468266318
 20
5.29701499271602
 30
0.0019685039370062
 41
0.156
 42
0.156
 50
179.9999999999992
  0
LINE
  5
2AAB
330
2AA7
100
AcDbEntity
  8
OBJ
 62
     7
440
 16777216
100
AcDbLine
 10
6.550392468266331
 20
5.704829900704853
 30
0.0
 11
6.55039246826632
 21
5.172014992716
 31
0.0
  0
LINE
  5
2AAC
330
2AA7
100
AcDbEntity
  8
OBJ
 62
     7
440
 16777216
100
AcDbLine
 10
5.616892468266322
 20
5.495079900704842
 30
0.0
 11
5.616892468266316
 21
5.17201499271602
 31
0.0
  0
LINE
  5
2AAD
330
2AA7
100
AcDbEntity
  8
OBJ
 62
     7
440
 16777216
100
AcDbLine
 10
6.550392468266323
 20
5.297014992716
 30
0.0
 11
6.318399866711081
 21
5.297014992716005
 31
0.0
  0
LINE
  5
2AAE
330
2AA7
100
AcDbEntity
  8
OBJ
 62
     7
440
 16777216
100
AcDbLine
 10
5.616892468266318
 20
5.29701499271602
 30
0.0
 11
5.856483366868241
 21
5.297014992716015
 31
0.0
  0
MTEXT
  5
2AAF
330
2AA7
100
AcDbEntity
  8
OBJ
 62
     7
440
 16777216
100
AcDbMText
 10
5.918983366868242
 20
5.347992812833301
 30
0.0
 40
0.09375
 41
0.0
 46
0.0
 71
     1
 72
     1
  1
1 7/8"
  7
SLDTEXTSTYLE1
 73
     1
 44
1.0
  0
ENDBLK
  5
2AB0
330
2AA7
100
AcDbEntity
  8
0
100
AcDbBlockEnd
  0
BLOCK
  5
2AB2
330
2AB1
100
AcDbEntity
  8
0
100
AcDbBlockBegin
  2
SW_NOTE_2
 70
     0
 10
0.0
 20
0.0
 30
0.0
  3
SW_NOTE_2
  1

  0
MTEXT
  5
2AB3
330
2AB1
100
AcDbEntity
  8
OBJ
 62
     0
100
AcDbMText
 10
-0.45463339333997
 20
0.0712024509151703
 30
0.0
 40
0.09375
 41
0.0
 46
0.0
 71
     2
 72
     1
  1
AFFIX LABEL
  7
SLDTEXTSTYLE1
 73
     1
 44
1.0
  0
MTEXT
  5
2AB4
330
2AB1
100
AcDbEntity
  8
OBJ
 62
     0
100
AcDbMText
 10
-0.4324979470078682
 20
-0.0537975475741806
 30
0.0
 40
0.09375
 41
0.0
 46
0.0
 71
     2
 72
     1
  1
OVER STAMP
  7
SLDTEXTSTYLE1
 73
     1
 44
1.0
  0
ENDBLK
  5
2AB5
330
2AB1
100
AcDbEntity
  8
0
100
AcDbBlockEnd
  0
BLOCK
  5
2AB7
330
2AB6
100
AcDbEntity
  8
0
100
AcDbBlockBegin
  2
SW_NOTE_3
 70
     0
 10
0.0
 20
0.0
 30
0.0
  3
SW_NOTE_3
  1

  0
MTEXT
  5
2AB8
330
2AB6
100
AcDbEntity
  8
OBJ
 62
     0
100
AcDbMText
 10
0.2915039062499996
 20
0.1208501006036214
 30
0.0
 40
0.09375
 41
0.0
 46
0.0
 71
     2
 72
     1
  1
DETAIL A
  7
SLDTEXTSTYLE1
 73
     1
 44
1.0
  0
MTEXT
  5
2AB9
330
2AB6
100
AcDbEntity
  8
OBJ
 62
     0
100
AcDbMText
 10
0.3088107598930834
 20
-0.0041498978857293
 30
0.0
 40
0.09375
 41
0.0
 46
0.0
 71
     2
 72
     1
  1
SCALE 1 : 1
  7
SLDTEXTSTYLE1
 73
     1
 44
1.0
  0
MTEXT
  5
2ABA
330
2AB6
100
AcDbEntity
  8
OBJ
 62
     0
100
AcDbMText
 10
0.283192258768194
 20
-0.1291498940834399
 30
0.0
 40
0.09375
 41
0.0
 46
0.0
 71
     2
 72
     1
  1
ROTATED 180
  7
SLDTEXTSTYLE1
 73
     1
 44
1.0
  0
MTEXT
  5
2ABB
330
2AB6
100
AcDbEntity
  8
OBJ
 62
     0
100
AcDbMText
 10
0.7393012170012542
 20
-0.1291498940834399
 30
0.0
 40
0.09375
 41
0.0
 46
0.0
 71
     2
 72
     1
  1
%%d
  7
SLDTEXTSTYLE1
 73
     1
 44
1.0
  0
ENDBLK
  5
2ABC
330
2AB6
100
AcDbEntity
  8
0
100
AcDbBlockEnd
  0
BLOCK
  5
361F
330
361E
100
AcDbEntity
  8
0
100
AcDbBlockBegin
  2
SW_NOTE_0_1
 70
     0
 10
0.0
 20
0.0
 30
0.0
  3
SW_NOTE_0_1
  1

  0
MTEXT
  5
3620
330
361E
100
AcDbEntity
  8
0
  6
Continuous
 62
     0
370
     0
100
AcDbMText
 10
0.0
 20
0.0761260476243285
 30
0.0
 40
0.0590551181102362
 41
0.0
 46
0.0
 71
     1
 72
     1
  1
DEBURR AND
  7
SLDTEXTSTYLE0
 73
     1
 44
1.0
  0
MTEXT
  5
3621
330
361E
100
AcDbEntity
  8
0
  6
Continuous
 62
     0
370
     0
100
AcDbMText
 10
0.0
 20
-0.0222991470260904
 30
0.0
 40
0.0590551181102362
 41
0.0
 46
0.0
 71
     1
 72
     1
  1
BREAK SHARP
  7
SLDTEXTSTYLE0
 73
     1
 44
1.0
  0
MTEXT
  5
3622
330
361E
100
AcDbEntity
  8
0
  6
Continuous
 62
     0
370
     0
100
AcDbMText
 10
0.0
 20
-0.1207243416765095
 30
0.0
 40
0.0590551181102362
 41
0.0
 46
0.0
 71
     1
 72
     1
  1
EDGES
  7
SLDTEXTSTYLE0
 73
     1
 44
1.0
  0
ENDBLK
  5
3623
330
361E
100
AcDbEntity
  8
0
100
AcDbBlockEnd
  0
BLOCK
  5
3625
330
3624
100
AcDbEntity
  8
0
100
AcDbBlockBegin
  2
_None
 70
     0
 10
0.0
 20
0.0
 30
0.0
  3
_None
  1

  0
ENDBLK
  5
3626
330
3624
100
AcDbEntity
  8
0
100
AcDbBlockEnd
  0
BLOCK
  5
3628
330
3627
100
AcDbEntity
  8
0
100
AcDbBlockBegin
  2
SW_CENTERMARKSYMBOL_0
 70
     0
 10
0.0
 20
0.0
 30
0.0
  3
SW_CENTERMARKSYMBOL_0
  1

  0
LINE
  5
3629
330
3627
100
AcDbEntity
  8
0
  6
Continuous
 62
     0
370
    18
100
AcDbLine
 10
0.0
 20
0.0
 30
0.0
 11
0.0
 21
0.0984251968503938
 31
0.0
  0
LINE
  5
362A
330
3627
100
AcDbEntity
  8
0
  6
Continuous
 62
     0
370
    18
100
AcDbLine
 10
0.0
 20
0.0
 30
0.0
 11
-0.0984251968503938
 21
0.0
 31
0.0
  0
LINE
  5
362B
330
3627
100
AcDbEntity
  8
0
  6
Continuous
 62
     0
370
    18
100
AcDbLine
 10
0.0
 20
0.0
 30
0.0
 11
0.0
 21
-0.0984251968503938
 31
0.0
  0
LINE
  5
362C
330
3627
100
AcDbEntity
  8
0
  6
Continuous
 62
     0
370
    18
100
AcDbLine
 10
0.0
 20
0.0
 30
0.0
 11
0.0984251968503938
 21
0.0
 31
0.0
  0
LINE
  5
362D
330
3627
100
AcDbEntity
  8
0
  6
Continuous
 62
     0
370
    18
100
AcDbLine
 10
0.0
 20
-0.0984251968503938
 30
0.0
 11
0.0
 21
-0.1804251968503936
 31
0.0
  0
LINE
  5
362E
330
3627
100
AcDbEntity
  8
0
  6
Continuous
 62
     0
370
    18
100
AcDbLine
 10
0.0984251968503938
 20
0.0
 30
0.0
 11
0.1804251968503936
 21
0.0
 31
0.0
  0
LINE
  5
362F
330
3627
100
AcDbEntity
  8
0
  6
Continuous
 62
     0
370
    18
100
AcDbLine
 10
-0.0000000000000055
 20
0.0
 30
0.0
 11
-0.0000000000000055
 21
0.0984251968503938
 31
0.0
  0
LINE
  5
3630
330
3627
100
AcDbEntity
  8
0
  6
Continuous
 62
     0
370
    18
100
AcDbLine
 10
-0.0000000000000055
 20
0.0
 30
0.0
 11
-0.0984251968503993
 21
0.0
 31
0.0
  0
LINE
  5
3631
330
3627
100
AcDbEntity
  8
0
  6
Continuous
 62
     0
370
    18
100
AcDbLine
 10
-0.0000000000000055
 20
0.0
 30
0.0
 11
-0.0000000000000055
 21
-0.0984251968503938
 31
0.0
  0
LINE
  5
3632
330
3627
100
AcDbEntity
  8
0
  6
Continuous
 62
     0
370
    18
100
AcDbLine
 10
-0.0000000000000055
 20
0.0
 30
0.0
 11
0.0984251968503883
 21
0.0
 31
0.0
  0
LINE
  5
3633
330
3627
100
AcDbEntity
  8
0
  6
Continuous
 62
     0
370
    18
100
AcDbLine
 10
-0.0000000000000055
 20
0.0984251968503938
 30
0.0
 11
-0.0000000000000055
 21
0.1804251968503936
 31
0.0
  0
LINE
  5
3634
330
3627
100
AcDbEntity
  8
0
  6
Continuous
 62
     0
370
    18
100
AcDbLine
 10
-0.0984251968503993
 20
0.0
 30
0.0
 11
-0.1804251968503991
 21
0.0
 31
0.0
  0
ENDBLK
  5
3635
330
3627
100
AcDbEntity
  8
0
100
AcDbBlockEnd
  0
BLOCK
  5
3637
330
3636
100
AcDbEntity
  8
0
100
AcDbBlockBegin
  2
SW_CENTERMARKSYMBOL_1
 70
     0
 10
0.0
 20
0.0
 30
0.0
  3
SW_CENTERMARKSYMBOL_1
  1

  0
LINE
  5
3638
330
3636
100
AcDbEntity
  8
0
  6
Continuous
 62
     0
370
    18
100
AcDbLine
 10
0.0
 20
0.0
 30
0.0
 11
0.0
 21
0.0984251968503938
 31
0.0
  0
LINE
  5
3639
330
3636
100
AcDbEntity
  8
0
  6
Continuous
 62
     0
370
    18
100
AcDbLine
 10
0.0
 20
0.0
 30
0.0
 11
-0.0984251968503935
 21
0.0
 31
0.0
  0
LINE
  5
363A
330
3636
100
AcDbEntity
  8
0
  6
Continuous
 62
     0
370
    18
100
AcDbLine
 10
0.0
 20
0.0
 30
0.0
 11
0.0
 21
-0.0984251968503933
 31
0.0
  0
LINE
  5
363B
330
3636
100
AcDbEntity
  8
0
  6
Continuous
 62
     0
370
    18
100
AcDbLine
 10
0.0
 20
0.0
 30
0.0
 11
0.0984251968503938
 21
0.0
 31
0.0
  0
LINE
  5
363C
330
3636
100
AcDbEntity
  8
0
  6
Continuous
 62
     0
370
    18
100
AcDbLine
 10
0.0
 20
-0.0984251968503933
 30
0.0
 11
0.0
 21
-0.1804251968503931
 31
0.0
  0
LINE
  5
363D
330
3636
100
AcDbEntity
  8
0
  6
Continuous
 62
     0
370
    18
100
AcDbLine
 10
0.0984251968503938
 20
0.0
 30
0.0
 11
0.1804251968503933
 21
0.0
 31
0.0
  0
LINE
  5
363E
330
3636
100
AcDbEntity
  8
0
  6
Continuous
 62
     0
370
    18
100
AcDbLine
 10
-0.0000000000000052
 20
0.0
 30
0.0
 11
-0.0000000000000052
 21
0.0984251968503938
 31
0.0
  0
LINE
  5
363F
330
3636
100
AcDbEntity
  8
0
  6
Continuous
 62
     0
370
    18
100
AcDbLine
 10
-0.0000000000000052
 20
0.0
 30
0.0
 11
-0.098425196850399
 21
0.0
 31
0.0
  0
LINE
  5
3640
330
3636
100
AcDbEntity
  8
0
  6
Continuous
 62
     0
370
    18
100
AcDbLine
 10
-0.0000000000000052
 20
0.0
 30
0.0
 11
-0.0000000000000052
 21
-0.0984251968503933
 31
0.0
  0
LINE
  5
3641
330
3636
100
AcDbEntity
  8
0
  6
Continuous
 62
     0
370
    18
100
AcDbLine
 10
-0.0000000000000052
 20
0.0
 30
0.0
 11
0.0984251968503883
 21
0.0
 31
0.0
  0
LINE
  5
3642
330
3636
100
AcDbEntity
  8
0
  6
Continuous
 62
     0
370
    18
100
AcDbLine
 10
-0.0000000000000052
 20
0.0984251968503938
 30
0.0
 11
-0.0000000000000052
 21
0.1804251968503936
 31
0.0
  0
LINE
  5
3643
330
3636
100
AcDbEntity
  8
0
  6
Continuous
 62
     0
370
    18
100
AcDbLine
 10
-0.098425196850399
 20
0.0
 30
0.0
 11
-0.1804251968503988
 21
0.0
 31
0.0
  0
ENDBLK
  5
3644
330
3636
100
AcDbEntity
  8
0
100
AcDbBlockEnd
  0
BLOCK
  5
3646
330
3645
100
AcDbEntity
  8
0
100
AcDbBlockBegin
  2
SW_CENTERMARKSYMBOL_2
 70
     0
 10
0.0
 20
0.0
 30
0.0
  3
SW_CENTERMARKSYMBOL_2
  1

  0
LINE
  5
3647
330
3645
100
AcDbEntity
  8
0
  6
Continuous
 62
     0
370
    18
100
AcDbLine
 10
0.0
 20
0.0
 30
0.0
 11
0.0
 21
0.0984251968503938
 31
0.0
  0
LINE
  5
3648
330
3645
100
AcDbEntity
  8
0
  6
Continuous
 62
     0
370
    18
100
AcDbLine
 10
0.0
 20
0.0
 30
0.0
 11
-0.0984251968503938
 21
0.0
 31
0.0
  0
LINE
  5
3649
330
3645
100
AcDbEntity
  8
0
  6
Continuous
 62
     0
370
    18
100
AcDbLine
 10
0.0
 20
0.0
 30
0.0
 11
0.0
 21
-0.0984251968503938
 31
0.0
  0
LINE
  5
364A
330
3645
100
AcDbEntity
  8
0
  6
Continuous
 62
     0
370
    18
100
AcDbLine
 10
0.0
 20
0.0
 30
0.0
 11
0.0984251968503938
 21
0.0
 31
0.0
  0
LINE
  5
364B
330
3645
100
AcDbEntity
  8
0
  6
Continuous
 62
     0
370
    18
100
AcDbLine
 10
0.0
 20
0.0984251968503938
 30
0.0
 11
0.0
 21
0.1804251968503936
 31
0.0
  0
LINE
  5
364C
330
3645
100
AcDbEntity
  8
0
  6
Continuous
 62
     0
370
    18
100
AcDbLine
 10
-0.0984251968503938
 20
0.0
 30
0.0
 11
-0.1804251968503936
 21
0.0
 31
0.0
  0
LINE
  5
364D
330
3645
100
AcDbEntity
  8
0
  6
Continuous
 62
     0
370
    18
100
AcDbLine
 10
0.0
 20
-0.0984251968503938
 30
0.0
 11
0.0
 21
-0.1804251968503936
 31
0.0
  0
LINE
  5
364E
330
3645
100
AcDbEntity
  8
0
  6
Continuous
 62
     0
370
    18
100
AcDbLine
 10
0.0984251968503938
 20
0.0
 30
0.0
 11
0.1804251968503936
 21
0.0
 31
0.0
  0
ENDBLK
  5
364F
330
3645
100
AcDbEntity
  8
0
100
AcDbBlockEnd
  0
BLOCK
  5
3651
330
3650
100
AcDbEntity
  8
0
100
AcDbBlockBegin
  2
SW_CENTERMARKSYMBOL_3
 70
     0
 10
0.0
 20
0.0
 30
0.0
  3
SW_CENTERMARKSYMBOL_3
  1

  0
LINE
  5
3652
330
3650
100
AcDbEntity
  8
0
  6
Continuous
 62
     0
370
    18
100
AcDbLine
 10
0.0
 20
0.0
 30
0.0
 11
0.0
 21
0.0984251968503938
 31
0.0
  0
LINE
  5
3653
330
3650
100
AcDbEntity
  8
0
  6
Continuous
 62
     0
370
    18
100
AcDbLine
 10
0.0
 20
0.0
 30
0.0
 11
-0.0984251968503938
 21
0.0
 31
0.0
  0
LINE
  5
3654
330
3650
100
AcDbEntity
  8
0
  6
Continuous
 62
     0
370
    18
100
AcDbLine
 10
0.0
 20
0.0
 30
0.0
 11
0.0
 21
-0.0984251968503938
 31
0.0
  0
LINE
  5
3655
330
3650
100
AcDbEntity
  8
0
  6
Continuous
 62
     0
370
    18
100
AcDbLine
 10
0.0
 20
0.0
 30
0.0
 11
0.0984251968503938
 21
0.0
 31
0.0
  0
LINE
  5
3656
330
3650
100
AcDbEntity
  8
0
  6
Continuous
 62
     0
370
    18
100
AcDbLine
 10
0.0
 20
0.0984251968503938
 30
0.0
 11
0.0
 21
0.1804251968503936
 31
0.0
  0
LINE
  5
3657
330
3650
100
AcDbEntity
  8
0
  6
Continuous
 62
     0
370
    18
100
AcDbLine
 10
-0.0984251968503938
 20
0.0
 30
0.0
 11
-0.1804251968503933
 21
0.0
 31
0.0
  0
LINE
  5
3658
330
3650
100
AcDbEntity
  8
0
  6
Continuous
 62
     0
370
    18
100
AcDbLine
 10
0.0
 20
-0.0984251968503938
 30
0.0
 11
0.0
 21
-0.1804251968503925
 31
0.0
  0
LINE
  5
3659
330
3650
100
AcDbEntity
  8
0
  6
Continuous
 62
     0
370
    18
100
AcDbLine
 10
0.0984251968503938
 20
0.0
 30
0.0
 11
0.1804251968503931
 21
0.0
 31
0.0
  0
ENDBLK
  5
365A
330
3650
100
AcDbEntity
  8
0
100
AcDbBlockEnd
  0
BLOCK
  5
3CCD
330
3CCC
100
AcDbEntity
  8
0
100
AcDbBlockBegin
  2
SW_CENTERMARKSYMBOL_4
 70
     0
 10
0.0
 20
0.0
 30
0.0
  3
SW_CENTERMARKSYMBOL_4
  1

  0
LINE
  5
3CCE
330
3CCC
100
AcDbEntity
  8
0
  6
Continuous
 62
     0
370
    18
100
AcDbLine
 10
0.0
 20
0.0
 30
0.0
 11
0.0
 21
0.0492125984251969
 31
0.0
  0
LINE
  5
3CCF
330
3CCC
100
AcDbEntity
  8
0
  6
Continuous
 62
     0
370
    18
100
AcDbLine
 10
0.0
 20
0.0
 30
0.0
 11
-0.0492125984251969
 21
0.0
 31
0.0
  0
LINE
  5
3CD0
330
3CCC
100
AcDbEntity
  8
0
  6
Continuous
 62
     0
370
    18
100
AcDbLine
 10
0.0
 20
0.0
 30
0.0
 11
0.0
 21
-0.0492125984251969
 31
0.0
  0
LINE
  5
3CD1
330
3CCC
100
AcDbEntity
  8
0
  6
Continuous
 62
     0
370
    18
100
AcDbLine
 10
0.0
 20
0.0
 30
0.0
 11
0.0492125984251969
 21
0.0
 31
0.0
  0
LINE
  5
3CD2
330
3CCC
100
AcDbEntity
  8
0
  6
Continuous
 62
     0
370
    18
100
AcDbLine
 10
0.0
 20
0.0984251968503938
 30
0.0
 11
0.0
 21
0.1273375984251973
 31
0.0
  0
LINE
  5
3CD3
330
3CCC
100
AcDbEntity
  8
0
  6
Continuous
 62
     0
370
    18
100
AcDbLine
 10
-0.0984251968503938
 20
0.0
 30
0.0
 11
-0.1273375984251968
 21
0.0
 31
0.0
  0
LINE
  5
3CD4
330
3CCC
100
AcDbEntity
  8
0
  6
Continuous
 62
     0
370
    18
100
AcDbLine
 10
0.0
 20
-0.0984251968503938
 30
0.0
 11
0.0
 21
-0.1273375984251962
 31
0.0
  0
LINE
  5
3CD5
330
3CCC
100
AcDbEntity
  8
0
  6
Continuous
 62
     0
370
    18
100
AcDbLine
 10
0.0984251968503938
 20
0.0
 30
0.0
 11
0.1273375984251968
 21
0.0
 31
0.0
  0
ENDBLK
  5
3CD6
330
3CCC
100
AcDbEntity
  8
0
100
AcDbBlockEnd
  0
BLOCK
  5
3CD8
330
3CD7
100
AcDbEntity
  8
0
100
AcDbBlockBegin
  2
SW_CENTERMARKSYMBOL_5
 70
     0
 10
0.0
 20
0.0
 30
0.0
  3
SW_CENTERMARKSYMBOL_5
  1

  0
LINE
  5
3CD9
330
3CD7
100
AcDbEntity
  8
0
  6
Continuous
 62
     0
370
    18
100
AcDbLine
 10
0.0
 20
0.0
 30
0.0
 11
0.0
 21
0.0492125984251969
 31
0.0
  0
LINE
  5
3CDA
330
3CD7
100
AcDbEntity
  8
0
  6
Continuous
 62
     0
370
    18
100
AcDbLine
 10
0.0
 20
0.0
 30
0.0
 11
-0.0492125984251969
 21
0.0
 31
0.0
  0
LINE
  5
3CDB
330
3CD7
100
AcDbEntity
  8
0
  6
Continuous
 62
     0
370
    18
100
AcDbLine
 10
0.0
 20
0.0
 30
0.0
 11
0.0
 21
-0.0492125984251969
 31
0.0
  0
LINE
  5
3CDC
330
3CD7
100
AcDbEntity
  8
0
  6
Continuous
 62
     0
370
    18
100
AcDbLine
 10
0.0
 20
0.0
 30
0.0
 11
0.0492125984251969
 21
0.0
 31
0.0
  0
LINE
  5
3CDD
330
3CD7
100
AcDbEntity
  8
0
  6
Continuous
 62
     0
370
    18
100
AcDbLine
 10
0.0
 20
0.0984251968503938
 30
0.0
 11
0.0
 21
0.1273375984251973
 31
0.0
  0
LINE
  5
3CDE
330
3CD7
100
AcDbEntity
  8
0
  6
Continuous
 62
     0
370
    18
100
AcDbLine
 10
-0.0984251968503938
 20
0.0
 30
0.0
 11
-0.1273375984251968
 21
0.0
 31
0.0
  0
LINE
  5
3CDF
330
3CD7
100
AcDbEntity
  8
0
  6
Continuous
 62
     0
370
    18
100
AcDbLine
 10
0.0
 20
-0.0984251968503938
 30
0.0
 11
0.0
 21
-0.1273375984251962
 31
0.0
  0
LINE
  5
3CE0
330
3CD7
100
AcDbEntity
  8
0
  6
Continuous
 62
     0
370
    18
100
AcDbLine
 10
0.0984251968503938
 20
0.0
 30
0.0
 11
0.1273375984251968
 21
0.0
 31
0.0
  0
ENDBLK
  5
3CE1
330
3CD7
100
AcDbEntity
  8
0
100
AcDbBlockEnd
  0
BLOCK
  5
3CE3
330
3CE2
100
AcDbEntity
  8
0
100
AcDbBlockBegin
  2
SW_CENTERMARKSYMBOL_6
 70
     0
 10
0.0
 20
0.0
 30
0.0
  3
SW_CENTERMARKSYMBOL_6
  1

  0
LINE
  5
3CE4
330
3CE2
100
AcDbEntity
  8
0
  6
Continuous
 62
     0
370
    18
100
AcDbLine
 10
0.0
 20
0.0
 30
0.0
 11
0.0
 21
0.0492125984251969
 31
0.0
  0
LINE
  5
3CE5
330
3CE2
100
AcDbEntity
  8
0
  6
Continuous
 62
     0
370
    18
100
AcDbLine
 10
0.0
 20
0.0
 30
0.0
 11
-0.0492125984251969
 21
0.0
 31
0.0
  0
LINE
  5
3CE6
330
3CE2
100
AcDbEntity
  8
0
  6
Continuous
 62
     0
370
    18
100
AcDbLine
 10
0.0
 20
0.0
 30
0.0
 11
0.0
 21
-0.0492125984251969
 31
0.0
  0
LINE
  5
3CE7
330
3CE2
100
AcDbEntity
  8
0
  6
Continuous
 62
     0
370
    18
100
AcDbLine
 10
0.0
 20
0.0
 30
0.0
 11
0.0492125984251969
 21
0.0
 31
0.0
  0
LINE
  5
3CE8
330
3CE2
100
AcDbEntity
  8
0
  6
Continuous
 62
     0
370
    18
100
AcDbLine
 10
0.0
 20
0.0492125984251969
 30
0.0
 11
0.0
 21
0.0942125984251966
 31
0.0
  0
LINE
  5
3CE9
330
3CE2
100
AcDbEntity
  8
0
  6
Continuous
 62
     0
370
    18
100
AcDbLine
 10
-0.0492125984251969
 20
0.0
 30
0.0
 11
-0.0942125984251971
 21
0.0
 31
0.0
  0
LINE
  5
3CEA
330
3CE2
100
AcDbEntity
  8
0
  6
Continuous
 62
     0
370
    18
100
AcDbLine
 10
0.0
 20
-0.0492125984251969
 30
0.0
 11
0.0
 21
-0.0942125984251966
 31
0.0
  0
LINE
  5
3CEB
330
3CE2
100
AcDbEntity
  8
0
  6
Continuous
 62
     0
370
    18
100
AcDbLine
 10
0.0492125984251969
 20
0.0
 30
0.0
 11
0.0942125984251971
 21
0.0
 31
0.0
  0
ENDBLK
  5
3CEC
330
3CE2
100
AcDbEntity
  8
0
100
AcDbBlockEnd
  0
BLOCK
  5
3CEE
330
3CED
100
AcDbEntity
  8
0
100
AcDbBlockBegin
  2
SW_CENTERMARKSYMBOL_7
 70
     0
 10
0.0
 20
0.0
 30
0.0
  3
SW_CENTERMARKSYMBOL_7
  1

  0
LINE
  5
3CEF
330
3CED
100
AcDbEntity
  8
0
  6
Continuous
 62
     0
370
    18
100
AcDbLine
 10
0.0
 20
0.0
 30
0.0
 11
0.0
 21
0.0492125984251969
 31
0.0
  0
LINE
  5
3CF0
330
3CED
100
AcDbEntity
  8
0
  6
Continuous
 62
     0
370
    18
100
AcDbLine
 10
0.0
 20
0.0
 30
0.0
 11
-0.0492125984251969
 21
0.0
 31
0.0
  0
LINE
  5
3CF1
330
3CED
100
AcDbEntity
  8
0
  6
Continuous
 62
     0
370
    18
100
AcDbLine
 10
0.0
 20
0.0
 30
0.0
 11
0.0
 21
-0.0492125984251969
 31
0.0
  0
LINE
  5
3CF2
330
3CED
100
AcDbEntity
  8
0
  6
Continuous
 62
     0
370
    18
100
AcDbLine
 10
0.0
 20
0.0
 30
0.0
 11
0.0492125984251969
 21
0.0
 31
0.0
  0
LINE
  5
3CF3
330
3CED
100
AcDbEntity
  8
0
  6
Continuous
 62
     0
370
    18
100
AcDbLine
 10
0.0
 20
0.0492125984251969
 30
0.0
 11
0.0
 21
0.0942125984251966
 31
0.0
  0
LINE
  5
3CF4
330
3CED
100
AcDbEntity
  8
0
  6
Continuous
 62
     0
370
    18
100
AcDbLine
 10
-0.0492125984251969
 20
0.0
 30
0.0
 11
-0.0942125984251971
 21
0.0
 31
0.0
  0
LINE
  5
3CF5
330
3CED
100
AcDbEntity
  8
0
  6
Continuous
 62
     0
370
    18
100
AcDbLine
 10
0.0
 20
-0.0492125984251969
 30
0.0
 11
0.0
 21
-0.0942125984251966
 31
0.0
  0
LINE
  5
3CF6
330
3CED
100
AcDbEntity
  8
0
  6
Continuous
 62
     0
370
    18
100
AcDbLine
 10
0.0492125984251969
 20
0.0
 30
0.0
 11
0.094212598425196
 21
0.0
 31
0.0
  0
ENDBLK
  5
3CF7
330
3CED
100
AcDbEntity
  8
0
100
AcDbBlockEnd
  0
ENDSEC
  0
SECTION
  2
ENTITIES
  0
MTEXT
  5
2F7E
330
2
100
AcDbEntity
  8
OBJ
100
AcDbMText
 10
583.8824465833895
 20
-490.1573544525608
 30
0.0
 40
3.657599954792186
 41
0.0
 46
0.0
 71
     2
 72
     1
  1
A
  7
SLDTEXTSTYLE0
 73
     1
 44
1.0
  0
MTEXT
  5
4943
330
2
100
AcDbEntity
  8
OBJ
 62
     7
100
AcDbMText
 10
2376.168302845088
 20
91.02807335288918
 30
0.0
 40
8.504999999999997
 41
0.0
 46
8.504999999999997
 71
     1
 72
     1
  1
PHD5A - TOP VIEW
  7
SLDTEXTSTYLE0
 73
     1
 44
1.0
  0
MTEXT
  5
4944
330
2
100
AcDbEntity
  8
OBJ
 62
     7
100
AcDbMText
 10
2371.841114194502
 20
-284.9331760448315
 30
0.0
 40
8.504999999999997
 41
0.0
 46
0.0
 71
     1
 72
     1
  1
PHD5A - FRONT VIEW
  7
SLDTEXTSTYLE0
 73
     1
 44
1.0
  0
MTEXT
  5
4945
330
2
100
AcDbEntity
  8
OBJ
 62
     7
100
AcDbMText
 10
2559.313174530787
 20
-284.9331760448315
 30
0.0
 40
8.504999999999997
 41
0.0
 46
0.0
 71
     1
 72
     1
  1
PHD5A - SIDE VIEW
  7
SLDTEXTSTYLE0
 73
     1
 44
1.0
  0
LWPOLYLINE
  5
4E21
330
2
100
AcDbEntity
  8
0
100
AcDbPolyline
 90
       15
 70
     0
 43
0.0
 10
2426.395227902184
 20
-270.3693799453181
 10
2426.395227902184
 20
-270.4752132786515
 10
2426.501061235519
 20
-270.4752132786515
 10
2426.818561235495
 20
-270.4752132786515
 10
2427.347727902169
 20
-270.4752132786515
 10
2427.982727902179
 20
-270.4752132786515
 10
2428.723561235523
 20
-270.4752132786515
 10
2429.570227902173
 20
-270.4752132786515
 10
2430.311061235517
 20
-270.4752132786515
 10
2431.157727902167
 20
-270.4752132786515
 10
2431.792727902176
 20
-270.4752132786515
 10
2432.321894568822
 20
-270.4752132786515
 10
2432.639394568855
 20
-270.4752132786515
 10
2432.74522790219
 20
-270.4752132786515
 10
2432.74522790219
 20
-270.3693799453181
  0
LWPOLYLINE
  5
4E23
330
2
100
AcDbEntity
  8
0
100
AcDbPolyline
 90
       15
 70
     0
 43
0.0
 10
2404.805227902188
 20
-270.3693799453181
 10
2404.805227902188
 20
-270.4752132786515
 10
2404.911061235523
 20
-270.4752132786515
 10
2405.228561235498
 20
-270.4752132786515
 10
2405.651894568838
 20
-270.4752132786515
 10
2406.392727902182
 20
-270.4752132786515
 10
2407.133561235497
 20
-270.4752132786515
 10
2407.980227902176
 20
-270.4752132786515
 10
2408.72106123552
 20
-270.4752132786515
 10
2409.56772790217
 20
-270.4752132786515
 10
2410.20272790218
 20
-270.4752132786515
 10
2410.62606123549
 20
-270.4752132786515
 10
2410.943561235495
 20
-270.4752132786515
 10
2411.049394568859
 20
-270.4752132786515
 10
2411.155227902194
 20
-270.3693799453181
  0
LWPOLYLINE
  5
4E25
330
2
100
AcDbEntity
  8
0
100
AcDbPolyline
 90
       17
 70
     0
 43
0.0
 10
2410.731894568825
 20
-268.4643799453181
 10
2410.520227902155
 20
-268.0410466119848
 10
2410.20272790218
 20
-267.6177132786516
 10
2409.885227902175
 20
-267.3002132786514
 10
2409.56772790217
 20
-266.9827132786514
 10
2409.250227902195
 20
-266.6652132786514
 10
2408.826894568855
 20
-266.3477132786515
 10
2408.403561235486
 20
-266.2418799453182
 10
2407.980227902176
 20
-266.0302132786514
 10
2407.451061235502
 20
-266.2418799453182
 10
2407.027727902191
 20
-266.3477132786515
 10
2406.604394568852
 20
-266.6652132786514
 10
2406.286894568847
 20
-266.9827132786514
 10
2405.969394568813
 20
-267.3002132786514
 10
2405.651894568838
 20
-267.6177132786516
 10
2405.334394568833
 20
-268.0410466119848
 10
2405.122727902163
 20
-268.4643799453181
  0
LWPOLYLINE
  5
4E27
330
2
100
AcDbEntity
  8
0
100
AcDbPolyline
 90
       17
 70
     0
 43
0.0
 10
2432.321894568822
 20
-268.4643799453181
 10
2432.110227902152
 20
-268.0410466119848
 10
2431.792727902176
 20
-267.6177132786516
 10
2431.581061235506
 20
-267.3002132786514
 10
2431.157727902167
 20
-266.9827132786514
 10
2430.840227902191
 20
-266.6652132786514
 10
2430.416894568852
 20
-266.3477132786515
 10
2429.993561235483
 20
-266.2418799453182
 10
2429.570227902173
 20
-266.0302132786514
 10
2429.041061235498
 20
-266.2418799453182
 10
2428.617727902188
 20
-266.3477132786515
 10
2428.300227902183
 20
-266.6652132786514
 10
2427.876894568843
 20
-266.9827132786514
 10
2427.55939456881
 20
-267.3002132786514
 10
2427.241894568834
 20
-267.6177132786516
 10
2426.92439456883
 20
-268.0410466119848
 10
2426.71272790216
 20
-268.4643799453181
  0
LWPOLYLINE
  5
4E29
330
2
100
AcDbEntity
  8
0
100
AcDbPolyline
 90
        6
 70
     0
 43
0.0
 10
2384.485227902152
 20
-230.6818799453182
 10
2384.167727902176
 20
-230.2585466119849
 10
2383.850227902172
 20
-229.8352132786515
 10
2383.426894568832
 20
-229.5177132786516
 10
2383.003561235522
 20
-229.2002132786515
 10
2382.580227902182
 20
-228.8827132786515
  0
LWPOLYLINE
  5
4E2A
330
2
100
AcDbEntity
  8
0
100
AcDbPolyline
 90
        4
 70
     0
 43
0.0
 10
2382.580227902182
 20
-235.6560466119849
 10
2383.003561235522
 20
-235.3385466119848
 10
2383.426894568832
 20
-235.0210466119849
 10
2383.850227902172
 20
-234.7035466119849
  0
LWPOLYLINE
  5
4E2B
330
2
100
AcDbEntity
  8
0
100
AcDbPolyline
 90
        4
 70
     0
 43
0.0
 10
2453.700227902148
 20
-234.7035466119849
 10
2454.017727902182
 20
-235.0210466119849
 10
2454.441061235522
 20
-235.3385466119848
 10
2454.970227902167
 20
-235.6560466119849
  0
LWPOLYLINE
  5
4E2C
330
2
100
AcDbEntity
  8
0
100
AcDbPolyline
 90
        6
 70
     0
 43
0.0
 10
2454.970227902167
 20
-228.8827132786515
 10
2454.441061235522
 20
-229.2002132786515
 10
2454.017727902182
 20
-229.5177132786516
 10
2453.594394568813
 20
-229.8352132786515
 10
2453.276894568838
 20
-230.2585466119849
 10
2452.959394568833
 20
-230.6818799453182
  0
LWPOLYLINE
  5
4E34
330
2
100
AcDbEntity
  8
0
100
AcDbPolyline
 90
        4
 70
     1
 43
0.0
 10
2382.580227902182
 20
-135.4318799453184
 10
2380.675227902183
 20
-135.4318799453184
 10
2380.675227902183
 20
-230.2585466119849
 10
2382.580227902182
 20
-230.2585466119849
  0
LWPOLYLINE
  5
4E3A
330
2
100
AcDbEntity
  8
0
100
AcDbPolyline
 90
       52
 70
     0
 43
0.0
 10
2434.65022790216
 20
-268.4643799453181
 42
0.414771457868023
 10
2453.700227902148
 20
-249.4143799453182
 10
2453.806061235483
 20
-249.4143799453182
 10
2454.229394568852
 20
-249.4143799453182
 10
2454.546894568856
 20
-249.4143799453182
 10
2454.758561235497
 20
-249.4143799453182
 10
2454.864394568832
 20
-249.4143799453182
 10
2454.970227902167
 20
-249.4143799453182
 10
2454.864394568832
 20
-249.4143799453182
 10
2454.758561235497
 20
-249.4143799453182
 10
2454.546894568856
 20
-249.4143799453182
 10
2454.229394568852
 20
-249.4143799453182
 10
2453.806061235483
 20
-249.4143799453182
 10
2453.700227902148
 20
-249.4143799453182
 10
2453.700227902148
 20
-239.8893799453182
 10
2453.700227902148
 20
-238.4077132786515
 10
2453.700227902148
 20
-237.0318799453182
 10
2453.700227902148
 20
-235.6560466119849
 10
2453.700227902148
 20
-234.4918799453182
 10
2453.700227902148
 20
-233.3277132786515
 10
2453.700227902148
 20
-232.3752132786516
 10
2453.700227902148
 20
-231.6343799453183
 10
2453.700227902148
 20
-231.1052132786516
 10
2453.700227902148
 20
-230.7877132786515
 10
2453.700227902148
 20
-230.6818799453182
 10
2383.850227902172
 20
-230.6818799453182
 10
2383.850227902172
 20
-230.7877132786515
 10
2383.850227902172
 20
-231.1052132786516
 10
2383.850227902172
 20
-231.6343799453183
 10
2383.850227902172
 20
-232.3752132786516
 10
2383.850227902172
 20
-233.3277132786515
 10
2383.850227902172
 20
-234.4918799453182
 10
2383.850227902172
 20
-235.6560466119849
 10
2383.850227902172
 20
-237.0318799453182
 10
2383.850227902172
 20
-238.4077132786515
 10
2383.850227902172
 20
-239.8893799453182
 10
2383.850227902172
 20
-249.4143799453182
 10
2383.638561235501
 20
-249.4143799453182
 10
2383.321061235497
 20
-249.4143799453182
 10
2383.003561235522
 20
-249.4143799453182
 10
2382.686061235517
 20
-249.4143799453182
 10
2382.580227902182
 20
-249.4143799453182
 42
0.4147714578680113
 10
2401.630227902199
 20
-268.4643799453181
 10
2435.920227902178
 20
-268.4643799453181
 42
0.4147714578679986
 10
2454.970227902167
 20
-249.4143799453182
 10
2454.970227902167
 20
-230.2585466119849
 10
2456.875227902195
 20
-230.2585466119849
 10
2456.875227902195
 20
-249.4143799453182
 42
-0.4159152405921091
 10
2435.920227902178
 20
-270.3693799453181
 10
2401.630227902199
 20
-270.3693799453182
 42
-0.4159152405920933
 10
2380.675227902183
 20
-249.4143799453182
 10
2380.675227902183
 20
-230.2585466119849
  0
LWPOLYLINE
  5
4E3B
330
2
100
AcDbEntity
  8
0
100
AcDbPolyline
 90
        8
 70
     0
 43
0.0
 10
2402.90022790216
 20
-268.4643799453181
 42
-0.419773668525926
 10
2383.850227902172
 20
-249.4143799453182
 10
2383.638561235501
 20
-249.4143799453182
 10
2383.321061235497
 20
-249.4143799453182
 10
2383.003561235522
 20
-249.4143799453182
 10
2382.686061235517
 20
-249.4143799453182
 10
2382.580227902182
 20
-249.4143799453182
 10
2382.580227902182
 20
-230.2585466119849
  0
LWPOLYLINE
  5
4E41
330
2
100
AcDbEntity
  8
0
100
AcDbPolyline
 90
        4
 70
     0
 43
0.0
 10
2454.970227902167
 20
-230.2585466119849
 10
2454.970227902167
 20
-135.4318799453184
 10
2456.875227902195
 20
-135.4318799453184
 10
2456.875227902195
 20
-230.2585466119849
  0
LWPOLYLINE
  5
4E48
330
2
100
AcDbEntity
  8
0
100
AcDbPolyline
 90
        4
 70
     0
 43
0.0
 10
2456.875227902195
 20
-135.4318799453184
 10
2456.875227902195
 20
-5.256879945318814
 10
2454.970227902167
 20
-5.256879945318814
 10
2454.970227902167
 20
-135.4318799453184
  0
LWPOLYLINE
  5
4E4B
330
2
100
AcDbEntity
  8
0
100
AcDbPolyline
 90
        4
 70
     0
 43
0.0
 10
2454.970227902167
 20
-5.256879945318814
 10
2454.970227902167
 20
26.49312005468107
 10
2456.875227902195
 20
26.49312005468107
 10
2456.875227902195
 20
-5.256879945318814
  0
LWPOLYLINE
  5
4E4E
330
2
100
AcDbEntity
  8
0
100
AcDbPolyline
 90
        4
 70
     0
 43
0.0
 10
2382.580227902182
 20
-135.4318799453184
 10
2382.580227902182
 20
-5.256879945318814
 10
2380.675227902183
 20
-5.256879945318814
 10
2380.675227902183
 20
-135.4318799453184
  0
LWPOLYLINE
  5
4E51
330
2
100
AcDbEntity
  8
0
100
AcDbPolyline
 90
        4
 70
     0
 43
0.0
 10
2380.675227902183
 20
-5.256879945318814
 10
2380.675227902183
 20
26.49312005468107
 10
2382.580227902182
 20
26.49312005468107
 10
2382.580227902182
 20
-5.256879945318814
  0
LWPOLYLINE
  5
4E54
330
2
100
AcDbEntity
  8
0
100
AcDbPolyline
 90
       12
 70
     0
 43
0.0
 10
2391.787727902171
 20
-230.6818799453182
 10
2391.787727902171
 20
-225.1785466119849
 10
2415.917727902176
 20
-135.4318799453184
 10
2415.917727902176
 20
26.49312005468107
 10
2385.12022790219
 20
26.49312005468107
 10
2384.591061235486
 20
26.49312005468107
 10
2384.061894568841
 20
26.49312005468107
 10
2383.638561235501
 20
26.49312005468107
 10
2383.321061235497
 20
26.49312005468107
 10
2383.003561235522
 20
26.49312005468107
 10
2382.686061235517
 20
26.49312005468107
 10
2382.580227902182
 20
26.49312005468107
  0
LWPOLYLINE
  5
4E57
330
2
100
AcDbEntity
  8
0
100
AcDbPolyline
 90
       13
 70
     0
 43
0.0
 10
2454.970227902167
 20
26.49312005468107
 10
2454.864394568832
 20
26.49312005468107
 10
2454.758561235497
 20
26.49312005468107
 10
2454.546894568856
 20
26.49312005468107
 10
2454.229394568852
 20
26.49312005468107
 10
2453.806061235483
 20
26.49312005468107
 10
2453.382727902173
 20
26.49312005468107
 10
2452.853561235498
 20
26.49312005468107
 10
2452.430227902188
 20
26.49312005468107
 10
2421.632727902173
 20
26.49312005468107
 10
2421.632727902173
 20
-135.4318799453184
 10
2445.656894568843
 20
-225.1785466119849
 10
2445.656894568843
 20
-230.6818799453182
  0
CIRCLE
  5
4E5C
330
2
100
AcDbEntity
  8
0
100
AcDbCircle
 10
2393.610676354344
 20
-127.4932829994938
 30
0.0
 40
3.574551716131343
  0
CIRCLE
  5
4E5D
330
2
100
AcDbEntity
  8
0
100
AcDbCircle
 10
2393.610676354344
 20
-70.34328299949414
 30
0.0
 40
3.574551716131039
  0
CIRCLE
  5
4E5E
330
2
100
AcDbEntity
  8
0
100
AcDbCircle
 10
2406.310676354356
 20
-98.91828299949191
 30
0.0
 40
3.574551716130024
  0
CIRCLE
  5
4E5F
330
2
100
AcDbEntity
  8
0
100
AcDbCircle
 10
2406.310676354356
 20
-41.76828299949398
 30
0.0
 40
3.5745517161318
  0
CIRCLE
  5
4E60
330
2
100
AcDbEntity
  8
0
100
AcDbCircle
 10
2400.489843021024
 20
-156.0682829994935
 30
0.0
 40
3.574551716130413
  0
CIRCLE
  5
4E61
330
2
100
AcDbEntity
  8
0
100
AcDbCircle
 10
2406.310676354356
 20
15.38171700050725
 30
0.0
 40
3.574551716129398
  0
CIRCLE
  5
4E62
330
2
100
AcDbEntity
  8
0
100
AcDbCircle
 10
2393.610676354344
 20
-13.1932829994945
 30
0.0
 40
3.574551716130717
  0
CIRCLE
  5
4E63
330
2
100
AcDbEntity
  8
0
100
AcDbCircle
 10
2443.775676354352
 20
15.38171700050725
 30
0.0
 40
3.574551716130057
  0
CIRCLE
  5
4E64
330
2
100
AcDbEntity
  8
0
100
AcDbCircle
 10
2443.775676354352
 20
-41.76828299949227
 30
0.0
 40
3.574551716130363
  0
CIRCLE
  5
4E65
330
2
100
AcDbEntity
  8
0
100
AcDbCircle
 10
2431.075676354341
 20
-13.19328299949291
 30
0.0
 40
3.574551716129279
  0
CIRCLE
  5
4E69
330
2
100
AcDbEntity
  8
0
100
AcDbCircle
 10
2431.075676354341
 20
-127.4932829994922
 30
0.0
 40
3.574551716129956
  0
CIRCLE
  5
4E6A
330
2
100
AcDbEntity
  8
0
100
AcDbCircle
 10
2431.075676354341
 20
-70.34328299949414
 30
0.0
 40
3.574551716131716
  0
CIRCLE
  5
4E6B
330
2
100
AcDbEntity
  8
0
100
AcDbCircle
 10
2443.775676354352
 20
-156.0682829994951
 30
0.0
 40
3.574551716132189
  0
CIRCLE
  5
4E6C
330
2
100
AcDbEntity
  8
0
100
AcDbCircle
 10
2443.775676354352
 20
-98.91828299949043
 30
0.0
 40
3.574551716128604
  0
LWPOLYLINE
  5
4E6E
330
2
100
AcDbEntity
  8
0
100
AcDbPolyline
 90
        2
 70
     0
 43
0.0
 10
2401.630227902199
 20
-268.4643799453181
 10
2401.630227902199
 20
-268.4643799453181
  0
LWPOLYLINE
  5
4E70
330
2
100
AcDbEntity
  8
0
100
AcDbPolyline
 90
        2
 70
     0
 43
0.0
 10
2435.920227902178
 20
-268.4643799453181
 10
2435.920227902178
 20
-268.4643799453181
  0
LWPOLYLINE
  5
4E72
330
2
100
AcDbEntity
  8
0
100
AcDbPolyline
 90
        2
 70
     0
 43
0.0
 10
2453.716208735504
 20
-239.8434482786515
 10
2383.866208735498
 20
-239.8434482786515
  0
LWPOLYLINE
  5
4E73
330
2
100
AcDbEntity
  8
0
100
AcDbPolyline
 90
        2
 70
     0
 43
0.0
 10
2401.638588735508
 20
-268.4341340227525
 10
2401.638588735508
 20
-270.3693799453182
  0
LWPOLYLINE
  5
4E74
330
2
100
AcDbEntity
  8
0
100
AcDbPolyline
 90
        2
 70
     0
 43
0.0
 10
2435.943828735494
 20
-268.42160046855
 10
2435.943828735494
 20
-270.3694351343705
  0
LWPOLYLINE
  5
4E75
330
2
100
AcDbEntity
  8
0
100
AcDbPolyline
 90
        2
 70
     0
 43
0.0
 10
2382.580227902182
 20
-249.4143799453016
 10
2380.675227902183
 20
-249.4143799453016
  0
LWPOLYLINE
  5
4E76
330
2
100
AcDbEntity
  8
0
100
AcDbPolyline
 90
        2
 70
     0
 43
0.0
 10
2454.970227902167
 20
-249.4143799453182
 10
2456.875227902195
 20
-249.4143799453182
  0
LWPOLYLINE
  5
4E77
330
2
100
AcDbEntity
  8
0
100
AcDbPolyline
 90
        2
 70
     0
 43
0.0
 10
2385.128588735498
 20
-230.5978482786515
 10
2385.128588735498
 20
26.49312005468107
  0
LWPOLYLINE
  5
4E78
330
2
100
AcDbEntity
  8
0
100
AcDbPolyline
 90
        2
 70
     0
 43
0.0
 10
2452.453828735503
 20
26.49312005468107
 10
2452.453828735503
 20
-230.5976366119849
  0
LWPOLYLINE
  5
4E79
330
2
100
AcDbEntity
  8
0
100
AcDbPolyline
 90
        4
 70
     0
 43
0.0
 10
2383.850227902172
 20
145.5247926342275
 10
2383.426894568832
 20
145.8422926342275
 10
2383.003561235522
 20
146.1597926342275
 10
2382.580227902182
 20
146.4772926342275
  0
LWPOLYLINE
  5
4E7A
330
2
100
AcDbEntity
  8
0
100
AcDbPolyline
 90
        4
 70
     0
 43
0.0
 10
2382.580227902182
 20
139.7039593008942
 10
2383.003561235522
 20
139.9156259675609
 10
2383.426894568832
 20
140.3389593008942
 10
2383.850227902172
 20
140.6564593008943
  0
LWPOLYLINE
  5
4E7B
330
2
100
AcDbEntity
  8
0
100
AcDbPolyline
 90
        4
 70
     0
 43
0.0
 10
2453.700227902148
 20
140.6564593008943
 10
2454.017727902182
 20
140.3389593008942
 10
2454.441061235522
 20
139.9156259675609
 10
2454.970227902167
 20
139.7039593008942
  0
LWPOLYLINE
  5
4E7C
330
2
100
AcDbEntity
  8
0
100
AcDbPolyline
 90
        4
 70
     0
 43
0.0
 10
2454.970227902167
 20
146.4772926342275
 10
2454.441061235522
 20
146.1597926342275
 10
2454.017727902182
 20
145.8422926342275
 10
2453.700227902148
 20
145.5247926342275
  0
LWPOLYLINE
  5
4E7D
330
2
100
AcDbEntity
  8
0
100
AcDbPolyline
 90
       24
 70
     0
 43
0.0
 10
2383.850227902172
 20
144.8897926342275
 10
2383.850227902172
 20
152.1922926342275
 10
2383.850227902172
 20
153.6739593008942
 10
2383.850227902172
 20
155.0497926342275
 10
2383.850227902172
 20
156.4256259675609
 10
2383.850227902172
 20
157.6956259675607
 10
2383.850227902172
 20
158.7539593008941
 10
2383.850227902172
 20
159.7064593008942
 10
2383.850227902172
 20
160.4472926342274
 10
2383.850227902172
 20
160.9764593008941
 10
2383.850227902172
 20
161.3997926342275
 10
2383.850227902172
 20
161.5056259675608
 10
2453.700227902148
 20
161.5056259675608
 10
2453.700227902148
 20
161.3997926342275
 10
2453.700227902148
 20
160.9764593008941
 10
2453.700227902148
 20
160.4472926342274
 10
2453.700227902148
 20
159.7064593008942
 10
2453.700227902148
 20
158.7539593008941
 10
2453.700227902148
 20
157.6956259675607
 10
2453.700227902148
 20
156.4256259675609
 10
2453.700227902148
 20
155.0497926342275
 10
2453.700227902148
 20
153.6739593008942
 10
2453.700227902148
 20
152.1922926342275
 10
2453.700227902148
 20
144.8897926342275
  0
LWPOLYLINE
  5
4E7E
330
2
100
AcDbEntity
  8
0
100
AcDbPolyline
 90
       24
 70
     0
 43
0.0
 10
2453.700227902148
 20
141.2914593008942
 10
2453.700227902148
 20
123.0881259675609
 10
2453.700227902148
 20
121.6064593008943
 10
2453.700227902148
 20
120.230625967561
 10
2453.700227902148
 20
118.8547926342277
 10
2453.700227902148
 20
117.690625967561
 10
2453.700227902148
 20
116.5264593008942
 10
2453.700227902148
 20
115.5739593008943
 10
2453.700227902148
 20
114.8331259675609
 10
2453.700227902148
 20
114.3039593008943
 10
2453.700227902148
 20
113.9864593008942
 10
2453.700227902148
 20
113.8806259675609
 10
2383.850227902172
 20
113.8806259675609
 10
2383.850227902172
 20
113.9864593008942
 10
2383.850227902172
 20
114.3039593008943
 10
2383.850227902172
 20
114.8331259675609
 10
2383.850227902172
 20
115.5739593008943
 10
2383.850227902172
 20
116.5264593008942
 10
2383.850227902172
 20
117.690625967561
 10
2383.850227902172
 20
118.8547926342277
 10
2383.850227902172
 20
120.230625967561
 10
2383.850227902172
 20
121.6064593008943
 10
2383.850227902172
 20
123.0881259675609
 10
2383.850227902172
 20
141.2914593008942
  0
CIRCLE
  5
4E81
330
2
100
AcDbEntity
  8
0
100
AcDbCircle
 10
2418.730482003645
 20
137.6302949492009
 30
0.0
 40
8.723305510084529
  0
LWPOLYLINE
  5
4E88
330
2
100
AcDbEntity
  8
0
100
AcDbPolyline
 90
       22
 70
     1
 43
0.0
 10
2415.917727902176
 20
171.3481259675608
 10
2415.917727902176
 20
173.2531259675607
 10
2385.12022790219
 20
173.2531259675607
 10
2384.167727902176
 20
173.1472926342275
 10
2383.426894568832
 20
172.8297926342273
 10
2382.580227902182
 20
172.5122926342275
 10
2381.945227902173
 20
171.8772926342275
 10
2381.416061235498
 20
171.2422926342275
 10
2380.992727902188
 20
170.5014593008941
 10
2380.675227902183
 20
169.6547926342274
 10
2380.675227902183
 20
168.8081259675608
 10
2380.675227902183
 20
163.7281259675608
 10
2382.580227902182
 20
163.7281259675608
 10
2382.580227902182
 20
168.8081259675608
 10
2382.580227902182
 20
169.2314593008942
 10
2382.686061235517
 20
169.7606259675609
 10
2383.003561235522
 20
170.1839593008941
 10
2383.321061235497
 20
170.6072926342275
 10
2383.638561235501
 20
170.9247926342275
 10
2384.061894568841
 20
171.1364593008941
 10
2384.591061235486
 20
171.2422926342275
 10
2385.12022790219
 20
171.3481259675608
  0
LWPOLYLINE
  5
4E8B
330
2
100
AcDbEntity
  8
0
100
AcDbPolyline
 90
       22
 70
     1
 43
0.0
 10
2452.430227902188
 20
173.2531259675607
 10
2453.276894568838
 20
173.1472926342275
 10
2454.123561235517
 20
172.8297926342273
 10
2454.864394568832
 20
172.5122926342275
 10
2455.499394568841
 20
171.8772926342275
 10
2456.134394568822
 20
171.2422926342275
 10
2456.451894568855
 20
170.5014593008941
 10
2456.76939456886
 20
169.6547926342274
 10
2456.875227902195
 20
168.8081259675608
 10
2456.875227902195
 20
163.7281259675608
 10
2454.970227902167
 20
163.7281259675608
 10
2454.970227902167
 20
168.8081259675608
 10
2454.864394568832
 20
169.2314593008942
 10
2454.758561235497
 20
169.7606259675609
 10
2454.546894568856
 20
170.1839593008941
 10
2454.229394568852
 20
170.6072926342275
 10
2453.806061235483
 20
170.9247926342275
 10
2453.382727902173
 20
171.1364593008941
 10
2452.853561235498
 20
171.2422926342275
 10
2452.430227902188
 20
171.3481259675608
 10
2421.632727902173
 20
171.3481259675608
 10
2421.632727902173
 20
173.2531259675607
  0
LWPOLYLINE
  5
4E96
330
2
100
AcDbEntity
  8
0
100
AcDbPolyline
 90
        4
 70
     0
 43
0.0
 10
2382.580227902182
 20
163.7281259675608
 10
2382.580227902182
 20
131.9781259675609
 10
2380.675227902183
 20
131.9781259675609
 10
2380.675227902183
 20
163.7281259675608
  0
LWPOLYLINE
  5
4E99
330
2
100
AcDbEntity
  8
0
100
AcDbPolyline
 90
        4
 70
     0
 43
0.0
 10
2456.875227902195
 20
163.7281259675608
 10
2456.875227902195
 20
131.9781259675609
 10
2454.970227902167
 20
131.9781259675609
 10
2454.970227902167
 20
163.7281259675608
  0
LWPOLYLINE
  5
4E9E
330
2
100
AcDbEntity
  8
0
100
AcDbPolyline
 90
        4
 70
     0
 43
0.0
 10
2380.675227902183
 20
131.9781259675609
 10
2380.675227902183
 20
106.5781259675609
 10
2382.580227902182
 20
106.5781259675609
 10
2382.580227902182
 20
131.9781259675609
  0
LWPOLYLINE
  5
4EA1
330
2
100
AcDbEntity
  8
0
100
AcDbPolyline
 90
        4
 70
     0
 43
0.0
 10
2454.970227902167
 20
131.9781259675609
 10
2454.970227902167
 20
106.5781259675609
 10
2456.875227902195
 20
106.5781259675609
 10
2456.875227902195
 20
131.9781259675609
  0
LWPOLYLINE
  5
4EA4
330
2
100
AcDbEntity
  8
0
100
AcDbPolyline
 90
       30
 70
     0
 43
0.0
 10
2382.580227902182
 20
106.5781259675609
 10
2382.686061235517
 20
106.5781259675609
 10
2383.003561235522
 20
106.5781259675609
 10
2383.638561235501
 20
106.5781259675609
 10
2384.379394568817
 20
106.5781259675609
 10
2385.437727902194
 20
106.5781259675609
 10
2386.707727902155
 20
106.5781259675609
 10
2388.083561235509
 20
106.5781259675609
 10
2389.671061235532
 20
106.5781259675609
 10
2391.470227902167
 20
106.5781259675609
 10
2393.269394568831
 20
106.5781259675609
 10
2395.280227902164
 20
106.5781259675609
 10
2397.396894568833
 20
106.5781259675609
 10
2399.407727902196
 20
106.5781259675609
 10
2401.630227902199
 20
106.5781259675609
 10
2435.920227902178
 20
106.5781259675609
 10
2438.036894568847
 20
106.5781259675609
 10
2440.153561235516
 20
106.5781259675609
 10
2442.16439456885
 20
106.5781259675609
 10
2444.175227902154
 20
106.5781259675609
 10
2445.974394568847
 20
106.5781259675609
 10
2447.773561235511
 20
106.5781259675609
 10
2449.361061235534
 20
106.5781259675609
 10
2450.73689456883
 20
106.5781259675609
 10
2452.006894568848
 20
106.5781259675609
 10
2453.065227902168
 20
106.5781259675609
 10
2453.911894568847
 20
106.5781259675609
 10
2454.441061235522
 20
106.5781259675609
 10
2454.864394568832
 20
106.5781259675609
 10
2454.970227902167
 20
106.5781259675609
  0
CIRCLE
  5
4EA8
330
2
100
AcDbEntity
  8
0
100
AcDbCircle
 10
2407.957896097877
 20
109.7055495149635
 30
0.0
 40
2.799332197190866
  0
CIRCLE
  5
4EA9
330
2
100
AcDbEntity
  8
0
100
AcDbCircle
 10
2429.547896097874
 20
109.7055495149637
 30
0.0
 40
2.799332197190755
  0
LWPOLYLINE
  5
4EAB
330
2
100
AcDbEntity
  8
0
100
AcDbPolyline
 90
        9
 70
     0
 43
0.0
 10
2420.786061235523
 20
129.2264593008942
 10
2420.997727902193
 20
129.2264593008942
 10
2422.373561235488
 20
129.7556259675609
 10
2423.643561235506
 20
130.6022926342276
 10
2424.807727902161
 20
131.5547926342276
 10
2425.760227902175
 20
132.7189593008942
 10
2426.501061235519
 20
133.9889593008943
 10
2427.136061235499
 20
135.3647926342276
 10
2427.347727902169
 20
136.4231259675609
  0
LWPOLYLINE
  5
4EB4
330
2
100
AcDbEntity
  8
0
100
AcDbPolyline
 90
      108
 70
     0
 43
0.0
 10
2429.570227902173
 20
171.3481259675608
 10
2429.570227902173
 20
171.2422926342275
 10
2429.570227902173
 20
171.1364593008941
 10
2429.570227902173
 20
170.9247926342275
 10
2429.570227902173
 20
170.6072926342275
 10
2429.570227902173
 20
170.1839593008941
 10
2429.570227902173
 20
169.7606259675609
 10
2429.570227902173
 20
169.2314593008942
 10
2429.570227902173
 20
168.8081259675608
 10
2435.920227902178
 20
168.8081259675608
 10
2435.920227902178
 20
169.2314593008942
 10
2435.920227902178
 20
169.7606259675609
 10
2435.920227902178
 20
170.1839593008941
 10
2435.920227902178
 20
170.6072926342275
 10
2435.920227902178
 20
170.9247926342275
 10
2435.920227902178
 20
171.1364593008941
 10
2435.920227902178
 20
171.2422926342275
 10
2435.920227902178
 20
171.3481259675608
 10
2435.920227902178
 20
171.2422926342275
 10
2435.920227902178
 20
171.1364593008941
 10
2435.920227902178
 20
170.9247926342275
 10
2435.920227902178
 20
170.6072926342275
 10
2435.920227902178
 20
170.1839593008941
 10
2435.920227902178
 20
169.7606259675609
 10
2435.920227902178
 20
169.2314593008942
 10
2435.920227902178
 20
168.8081259675608
 10
2438.036894568847
 20
168.8081259675608
 10
2440.153561235516
 20
168.8081259675608
 10
2442.16439456885
 20
168.8081259675608
 10
2444.175227902154
 20
168.8081259675608
 10
2445.974394568847
 20
168.8081259675608
 10
2447.773561235511
 20
168.8081259675608
 10
2449.361061235534
 20
168.8081259675608
 10
2450.73689456883
 20
168.8081259675608
 10
2452.006894568848
 20
168.8081259675608
 10
2453.065227902168
 20
168.8081259675608
 10
2453.911894568847
 20
168.8081259675608
 10
2454.441061235522
 20
168.8081259675608
 10
2454.864394568832
 20
168.8081259675608
 10
2454.970227902167
 20
168.8081259675608
 10
2454.864394568832
 20
168.8081259675608
 10
2454.441061235522
 20
168.8081259675608
 10
2453.911894568847
 20
168.8081259675608
 10
2453.065227902168
 20
168.8081259675608
 10
2452.006894568848
 20
168.8081259675608
 10
2450.73689456883
 20
168.8081259675608
 10
2449.361061235534
 20
168.8081259675608
 10
2447.773561235511
 20
168.8081259675608
 10
2445.974394568847
 20
168.8081259675608
 10
2444.175227902154
 20
168.8081259675608
 10
2442.16439456885
 20
168.8081259675608
 10
2440.153561235516
 20
168.8081259675608
 10
2438.036894568847
 20
168.8081259675608
 10
2435.920227902178
 20
168.8081259675608
 10
2401.630227902199
 20
168.8081259675608
 10
2399.407727902196
 20
168.8081259675608
 10
2397.396894568833
 20
168.8081259675608
 10
2395.280227902164
 20
168.8081259675608
 10
2393.269394568831
 20
168.8081259675608
 10
2391.470227902167
 20
168.8081259675608
 10
2389.671061235532
 20
168.8081259675608
 10
2388.083561235509
 20
168.8081259675608
 10
2386.707727902155
 20
168.8081259675608
 10
2385.437727902194
 20
168.8081259675608
 10
2384.379394568817
 20
168.8081259675608
 10
2383.638561235501
 20
168.8081259675608
 10
2383.003561235522
 20
168.8081259675608
 10
2382.686061235517
 20
168.8081259675608
 10
2382.580227902182
 20
168.8081259675608
 10
2382.686061235517
 20
168.8081259675608
 10
2383.003561235522
 20
168.8081259675608
 10
2383.638561235501
 20
168.8081259675608
 10
2384.379394568817
 20
168.8081259675608
 10
2385.437727902194
 20
168.8081259675608
 10
2386.707727902155
 20
168.8081259675608
 10
2388.083561235509
 20
168.8081259675608
 10
2389.671061235532
 20
168.8081259675608
 10
2391.470227902167
 20
168.8081259675608
 10
2393.269394568831
 20
168.8081259675608
 10
2395.280227902164
 20
168.8081259675608
 10
2397.396894568833
 20
168.8081259675608
 10
2399.407727902196
 20
168.8081259675608
 10
2401.630227902199
 20
168.8081259675608
 10
2401.630227902199
 20
169.2314593008942
 10
2401.630227902199
 20
169.7606259675609
 10
2401.630227902199
 20
170.1839593008941
 10
2401.630227902199
 20
170.6072926342275
 10
2401.630227902199
 20
170.9247926342275
 10
2401.630227902199
 20
171.1364593008941
 10
2401.630227902199
 20
171.2422926342275
 10
2401.630227902199
 20
171.3481259675608
 10
2401.630227902199
 20
171.2422926342275
 10
2401.630227902199
 20
171.1364593008941
 10
2401.630227902199
 20
170.9247926342275
 10
2401.630227902199
 20
170.6072926342275
 10
2401.630227902199
 20
170.1839593008941
 10
2401.630227902199
 20
169.7606259675609
 10
2401.630227902199
 20
169.2314593008942
 10
2401.630227902199
 20
168.8081259675608
 10
2407.980227902176
 20
168.8081259675608
 10
2407.980227902176
 20
169.2314593008942
 10
2407.980227902176
 20
169.7606259675609
 10
2407.980227902176
 20
170.1839593008941
 10
2407.980227902176
 20
170.6072926342275
 10
2407.980227902176
 20
170.9247926342275
 10
2407.980227902176
 20
171.1364593008941
 10
2407.980227902176
 20
171.2422926342275
 10
2407.980227902176
 20
171.3481259675608
  0
LWPOLYLINE
  5
4EB7
330
2
100
AcDbEntity
  8
0
100
AcDbPolyline
 90
        2
 70
     0
 43
0.0
 10
2407.980227902176
 20
168.8081259675608
 10
2407.980227902176
 20
168.8081259675608
  0
LWPOLYLINE
  5
4EB8
330
2
100
AcDbEntity
  8
0
100
AcDbPolyline
 90
        2
 70
     0
 43
0.0
 10
2401.630227902199
 20
168.8081259675608
 10
2401.630227902199
 20
168.8081259675608
  0
LWPOLYLINE
  5
4EB9
330
2
100
AcDbEntity
  8
0
100
AcDbPolyline
 90
        2
 70
     0
 43
0.0
 10
2429.570227902173
 20
168.8081259675608
 10
2429.570227902173
 20
168.8081259675608
  0
LWPOLYLINE
  5
4EBA
330
2
100
AcDbEntity
  8
0
100
AcDbPolyline
 90
        2
 70
     0
 43
0.0
 10
2435.920227902178
 20
168.8081259675608
 10
2435.920227902178
 20
168.8081259675608
  0
LWPOLYLINE
  5
4EBB
330
2
100
AcDbEntity
  8
0
100
AcDbPolyline
 90
        2
 70
     0
 43
0.0
 10
2453.716208735504
 20
152.2783351342274
 10
2383.866208735498
 20
152.2783351342274
  0
LWPOLYLINE
  5
4EBC
330
2
100
AcDbEntity
  8
0
100
AcDbPolyline
 90
        2
 70
     0
 43
0.0
 10
2453.716208735504
 20
123.1446409675608
 10
2383.866208735498
 20
123.1446409675608
  0
LWPOLYLINE
  5
4EBD
330
2
100
AcDbEntity
  8
0
100
AcDbPolyline
 90
        2
 70
     0
 43
0.0
 10
2382.580227902182
 20
168.8081259675608
 10
2380.675227902183
 20
168.8081259675608
  0
LWPOLYLINE
  5
4EBE
330
2
100
AcDbEntity
  8
0
100
AcDbPolyline
 90
        2
 70
     0
 43
0.0
 10
2454.970227902167
 20
168.8081259675608
 10
2456.875227902195
 20
168.8081259675608
  0
LWPOLYLINE
  5
4EBF
330
2
100
AcDbEntity
  8
0
100
AcDbPolyline
 90
        2
 70
     0
 43
0.0
 10
2385.128588735498
 20
171.3702451342274
 10
2385.128588735498
 20
173.2678368008941
  0
LWPOLYLINE
  5
4EC0
330
2
100
AcDbEntity
  8
0
100
AcDbPolyline
 90
        2
 70
     0
 43
0.0
 10
2452.453828735503
 20
171.3702451342274
 10
2452.453828735503
 20
173.2678368008941
  0
LWPOLYLINE
  5
4EC1
330
2
100
AcDbEntity
  8
0
100
AcDbPolyline
 90
        2
 70
     0
 43
0.0
 10
2435.920227902178
 20
168.8081259675608
 10
2435.920227902178
 20
161.5056259675608
  0
LWPOLYLINE
  5
4EC2
330
2
100
AcDbEntity
  8
0
100
AcDbPolyline
 90
        2
 70
     0
 43
0.0
 10
2435.943828735494
 20
113.8806259675609
 10
2435.943828735494
 20
106.5781259675609
  0
LWPOLYLINE
  5
4EC3
330
2
100
AcDbEntity
  8
0
100
AcDbPolyline
 90
        2
 70
     0
 43
0.0
 10
2401.638588735508
 20
106.5781259675609
 10
2401.638588735508
 20
113.8806259675609
  0
LWPOLYLINE
  5
4EC4
330
2
100
AcDbEntity
  8
0
100
AcDbPolyline
 90
        2
 70
     0
 43
0.0
 10
2401.630227902199
 20
161.5056259675608
 10
2401.630227902199
 20
168.8081259675608
  0
CIRCLE
  5
4F4E
330
2
100
AcDbEntity
  8
0
100
AcDbCircle
 10
2605.234173966565
 20
-232.2483582558216
 30
0.0
 40
2.018916523310116
  0
CIRCLE
  5
4F54
330
2
100
AcDbEntity
  8
0
100
AcDbCircle
 10
2619.523764128209
 20
-105.2878845465438
 30
0.0
 40
4.781015193360056
  0
CIRCLE
  5
4F55
330
2
100
AcDbEntity
  8
0
100
AcDbCircle
 10
2619.523764128209
 20
-48.13788454654536
 30
0.0
 40
4.78101519336148
  0
CIRCLE
  5
4F56
330
2
100
AcDbEntity
  8
0
100
AcDbCircle
 10
2619.523764128209
 20
9.012115453450292
 30
0.0
 40
4.781015193365695
  0
LWPOLYLINE
  5
4F5B
330
2
100
AcDbEntity
  8
0
100
AcDbPolyline
 90
      112
 70
     0
 43
0.0
 10
2568.713700222282
 20
-270.3693799453181
 10
2568.713700222282
 20
-270.2635466119848
 10
2568.713700222282
 20
-269.9460466119848
 10
2568.713700222282
 20
-269.3110466119848
 10
2568.713700222282
 20
-268.5702132786514
 10
2568.713700222282
 20
-267.5118799453181
 10
2568.713700222282
 20
-266.3477132786515
 10
2568.713700222282
 20
-264.9718799453181
 10
2568.713700222282
 20
-263.4902132786515
 10
2568.713700222282
 20
-261.6910466119848
 10
2568.713700222282
 20
-259.8918799453181
 10
2568.713700222282
 20
-257.9868799453182
 10
2568.713700222282
 20
-255.8702132786515
 10
2568.713700222282
 20
-253.7535466119848
 10
2568.713700222282
 20
-251.6368799453182
 10
2568.713700222282
 20
-249.4143799453182
 10
2568.713700222282
 20
-230.2585466119849
 10
2594.113700222247
 20
-135.4318799453184
 10
2594.113700222247
 20
-5.256879945318814
 10
2625.863700222276
 20
26.49312005468107
 10
2630.943700222292
 20
26.49312005468107
 10
2631.790366888942
 20
26.49312005468107
 10
2632.637033555621
 20
26.49312005468107
 10
2633.483700222271
 20
26.49312005468107
 10
2634.118700222281
 20
26.49312005468107
 10
2634.647866888926
 20
26.49312005468107
 10
2635.071200222295
 20
26.49312005468107
 10
2635.282866888964
 20
26.49312005468107
 10
2635.38870022227
 20
26.49312005468107
 10
2635.38870022227
 20
-249.4143799453182
 10
2635.38870022227
 20
-251.4252132786515
 10
2635.38870022227
 20
-253.3302132786515
 10
2635.38870022227
 20
-255.2352132786515
 10
2635.38870022227
 20
-257.1402132786515
 10
2635.38870022227
 20
-258.8335466119847
 10
2635.38870022227
 20
-260.4210466119848
 10
2635.38870022227
 20
-261.7968799453182
 10
2635.38870022227
 20
-262.9610466119848
 10
2635.38870022227
 20
-264.0193799453182
 10
2635.38870022227
 20
-264.8660466119848
 10
2635.38870022227
 20
-265.5010466119847
 10
2635.38870022227
 20
-265.8185466119848
 10
2635.38870022227
 20
-265.9243799453181
 10
2635.282866888964
 20
-266.7710466119847
 10
2635.071200222295
 20
-267.6177132786516
 10
2634.647866888926
 20
-268.3585466119848
 10
2634.118700222281
 20
-269.0993799453181
 10
2633.483700222271
 20
-269.6285466119848
 10
2632.637033555621
 20
-270.0518799453181
 10
2631.790366888942
 20
-270.2635466119848
 10
2630.943700222292
 20
-270.3693799453181
 10
2630.943700222292
 20
-270.2635466119848
 10
2630.943700222292
 20
-269.9460466119848
 10
2630.943700222292
 20
-269.3110466119848
 10
2630.943700222292
 20
-268.5702132786514
 10
2630.943700222292
 20
-267.5118799453181
 10
2630.943700222292
 20
-266.3477132786515
 10
2630.943700222292
 20
-264.9718799453181
 10
2630.943700222292
 20
-263.4902132786515
 10
2630.943700222292
 20
-261.6910466119848
 10
2630.943700222292
 20
-259.8918799453181
 10
2630.943700222292
 20
-257.9868799453182
 10
2630.943700222292
 20
-255.8702132786515
 10
2630.943700222292
 20
-253.7535466119848
 10
2630.943700222292
 20
-251.6368799453182
 10
2630.943700222292
 20
-249.4143799453182
 10
2631.790366888942
 20
-249.4143799453182
 10
2632.637033555621
 20
-249.4143799453182
 10
2633.483700222271
 20
-249.4143799453182
 10
2634.118700222281
 20
-249.4143799453182
 10
2634.647866888926
 20
-249.4143799453182
 10
2635.071200222295
 20
-249.4143799453182
 10
2635.282866888964
 20
-249.4143799453182
 10
2635.38870022227
 20
-249.4143799453182
 10
2635.282866888964
 20
-249.4143799453182
 10
2635.071200222295
 20
-249.4143799453182
 10
2634.647866888926
 20
-249.4143799453182
 10
2634.118700222281
 20
-249.4143799453182
 10
2633.483700222271
 20
-249.4143799453182
 10
2632.637033555621
 20
-249.4143799453182
 10
2631.790366888942
 20
-249.4143799453182
 10
2630.943700222292
 20
-249.4143799453182
 10
2630.943700222292
 20
-251.6368799453182
 10
2630.943700222292
 20
-253.7535466119848
 10
2630.943700222292
 20
-255.8702132786515
 10
2630.943700222292
 20
-257.9868799453182
 10
2630.943700222292
 20
-259.8918799453181
 10
2630.943700222292
 20
-261.6910466119848
 10
2630.943700222292
 20
-263.4902132786515
 10
2630.943700222292
 20
-264.9718799453181
 10
2630.943700222292
 20
-266.3477132786515
 10
2630.943700222292
 20
-267.5118799453181
 10
2630.943700222292
 20
-268.5702132786514
 10
2630.943700222292
 20
-269.3110466119848
 10
2630.943700222292
 20
-269.9460466119848
 10
2630.943700222292
 20
-270.2635466119848
 10
2630.943700222292
 20
-270.3693799453181
 10
2568.713700222282
 20
-270.3693799453181
 10
2568.713700222282
 20
-270.4752132786515
 10
2568.819533555617
 20
-270.4752132786515
 10
2569.137033555621
 20
-270.4752132786515
 10
2569.666200222267
 20
-270.4752132786515
 10
2570.301200222247
 20
-270.4752132786515
 10
2571.04203355562
 20
-270.4752132786515
 10
2571.88870022227
 20
-270.4752132786515
 10
2572.73536688892
 20
-270.4752132786515
 10
2573.476200222293
 20
-270.4752132786515
 10
2574.111200222274
 20
-270.4752132786515
 10
2574.640366888919
 20
-270.4752132786515
 10
2574.957866888924
 20
-270.4752132786515
 10
2575.063700222259
 20
-270.4752132786515
 10
2575.063700222259
 20
-270.3693799453181
  0
LWPOLYLINE
  5
4F63
330
2
100
AcDbEntity
  8
0
100
AcDbPolyline
 90
        9
 70
     0
 43
0.0
 10
2630.943700222292
 20
-270.3693799453181
 10
2631.790366888942
 20
-270.2635466119848
 10
2632.637033555621
 20
-270.0518799453181
 10
2633.483700222271
 20
-269.6285466119848
 10
2634.118700222281
 20
-269.0993799453181
 10
2634.647866888926
 20
-268.3585466119848
 10
2635.071200222295
 20
-267.6177132786516
 10
2635.282866888964
 20
-266.7710466119847
 10
2635.38870022227
 20
-265.9243799453181
  0
LWPOLYLINE
  5
4F64
330
2
100
AcDbEntity
  8
0
100
AcDbPolyline
 90
        2
 70
     0
 43
0.0
 10
2630.943700222292
 20
-270.3693799453181
 10
2630.943700222292
 20
-270.3693799453181
  0
LWPOLYLINE
  5
4F65
330
2
100
AcDbEntity
  8
0
100
AcDbPolyline
 90
        3
 70
     0
 43
0.0
 10
2568.789688555605
 20
-249.3684482786515
 10
2631.027096888946
 20
-249.3684482786515
 10
2631.027096888946
 20
26.49312005468102
  0
LWPOLYLINE
  5
50B4
330
2
100
AcDbEntity
  8
Defpoints
100
AcDbPolyline
 90
        4
 70
     1
 43
0.0
 10
2291.615050350739
 20
-348.94025211706
 10
2711.615050350739
 20
-348.94025211706
 10
2711.615050350739
 20
245.05974788294
 10
2291.615050350739
 20
245.05974788294
  0
VIEWPORT
  5
2940
102
{ACAD_XDICTIONARY
360
2941
102
}
330
2932
100
AcDbEntity
 67
     1
  8
0
100
AcDbViewport
 10
516.9786617151776
 20
24.94152646720227
 30
0.0
 40
2417.064076158331
 41
1027.787538376862
 68
     1
 69
     1
 12
516.9786617151776
 22
24.94152646720227
 13
0.0
 23
0.0
 14
0.5
 24
0.5
 15
0.5
 25
0.5
 16
0.0
 26
0.0
 36
1.0
 17
0.0
 27
0.0
 37
0.0
 42
50.0
 43
0.0
 44
0.0
 45
1027.787538376862
 50
0.0
 51
0.0
 72
   100
 90
   557088
  1

281
     0
 71
     1
 74
     0
110
0.0
120
0.0
130
0.0
111
1.0
121
0.0
131
0.0
112
0.0
122
1.0
132
0.0
 79
     0
146
0.0
170
     0
 61
     5
348
1ED
292
     1
282
     1
141
0.0
142
0.0
 63
   250
421
  3355443
  0
LWPOLYLINE
  5
297A
330
2932
100
AcDbEntity
 67
     1
  8
Defpoints
100
AcDbPolyline
 90
        4
 70
     1
 43
0.0
 10
40.07863934062789
 20
-10.69415893036625
 10
250.0786393406279
 20
-10.69415893036625
 10
250.0786393406279
 20
286.3058410696337
 10
40.07863934062789
 20
286.3058410696337
  0
VIEWPORT
  5
298C
102
{ACAD_XDICTIONARY
360
298D
102
}
330
2932
100
AcDbEntity
 67
     1
  8
Defpoints
100
AcDbViewport
 10
145.0786393406279
 20
137.8058410696337
 30
0.0
 40
210.0
 41
297.0
 68
     2
 69
     2
 12
2501.615050350739
 22
-51.94025211706005
 13
0.0
 23
0.0
 14
0.5
 24
0.5
 15
0.5
 25
0.5
 16
0.0
 26
0.0
 36
1.0
 17
0.0
 27
0.0
 37
0.0
 42
50.0
 43
0.0
 44
0.0
 45
594.0
 50
0.0
 51
0.0
 72
   100
 90
   573472
  1

281
     0
 71
     1
 74
     0
110
0.0
120
0.0
130
0.0
111
1.0
121
0.0
131
0.0
112
0.0
122
1.0
132
0.0
 79
     0
146
0.0
170
     0
 61
     5
348
1ED
292
     1
282
     1
141
0.0
142
0.0
 63
   250
421
  3355443
  0
ENDSEC
  0
SECTION
  2
OBJECTS
  0
DICTIONARY
  5
1B7
330
0
100
AcDbDictionary
281
     1
  3
ACAD_CIP_PREVIOUS_PRODUCT_INFO
350
221
  3
ACAD_COLOR
350
200
  3
ACAD_DETAILVIEWSTYLE
350
21A
  3
ACAD_GROUP
350
1B4
  3
ACAD_LAYOUT
350
201
  3
ACAD_MATERIAL
350
1CE
  3
ACAD_MLEADERSTYLE
350
216
  3
ACAD_MLINESTYLE
350
1B5
  3
ACAD_PLOTSETTINGS
350
21C
  3
ACAD_PLOTSTYLENAME
350
1CC
  3
ACAD_SCALELIST
350
204
  3
ACAD_SECTIONVIEWSTYLE
350
218
  3
ACAD_TABLESTYLE
350
202
  3
ACAD_VISUALSTYLE
350
1E7
  3
ACDB_RECOMPOSE_DATA
350
50F8
  3
AcDbVariableDictionary
350
7D6
  3
AEC_PROPERTY_SET_DEFS
350
2838
  0
DICTIONARY
  5
1A9
330
1A8
100
AcDbDictionary
280
     1
281
     1
  0
DICTIONARY
  5
1AB
330
1AA
100
AcDbDictionary
280
     1
281
     1
  0
DICTIONARY
  5
6
330
5
100
AcDbDictionary
280
     1
281
     1
  0
DICTIONARY
  5
22C
330
1A5
100
AcDbDictionary
280
     1
281
     1
  3
ACAD_LAYERSTATES
360
22D
  0
DICTIONARY
  5
686
330
61
100
AcDbDictionary
280
     1
281
     1
  3
ADSK_XREC_LAYER_RECONCILED
360
687
  0
DICTIONARY
  5
688
330
4
100
AcDbDictionary
280
     1
281
     1
  3
ADSK_XREC_LAYER_RECONCILED
360
689
  0
DICTIONARY
  5
68A
330
13F
100
AcDbDictionary
280
     1
281
     1
  3
ADSK_XREC_LAYER_RECONCILED
360
68B
  0
DICTIONARY
  5
68C
330
D
100
AcDbDictionary
280
     1
281
     1
  3
ADSK_XREC_LAYER_RECONCILED
360
68D
  0
DICTIONARY
  5
68E
330
9
100
AcDbDictionary
280
     1
281
     1
  3
ADSK_XREC_LAYER_RECONCILED
360
68F
  0
DICTIONARY
  5
F69
330
F68
100
AcDbDictionary
280
     1
281
     1
  0
DICTIONARY
  5
B
330
A
100
AcDbDictionary
280
     1
281
     1
  0
DICTIONARY
  5
1BC
330
1BB
100
AcDbDictionary
280
     1
281
     1
  0
DICTIONARY
  5
19C
330
2
100
AcDbDictionary
280
     1
281
     1
  3
ACAD_LAYOUTSELFREF
360
19D
  3
ACAD_SORTENTS
360
497C
  0
DICTIONARY
  5
2835
330
2833
100
AcDbDictionary
280
     1
281
     1
  0
DICTIONARY
  5
2941
330
2940
100
AcDbDictionary
280
     1
281
     1
  3
ASDK_XREC_ANNOTATION_SCALE_INFO
360
2942
  0
DICTIONARY
  5
298D
330
298C
100
AcDbDictionary
280
     1
281
     1
  3
ASDK_XREC_ANNOTATION_SCALE_INFO
360
298E
  0
XRECORD
  5
221
102
{ACAD_REACTORS
330
1B7
102
}
330
1B7
100
AcDbXrecord
280
     1
300
ACDLT
300
2018
300
ACDLT_F_S
  0
DICTIONARY
  5
200
102
{ACAD_REACTORS
330
1B7
102
}
330
1B7
100
AcDbDictionary
281
     1
  0
DICTIONARY
  5
21A
102
{ACAD_REACTORS
330
1B7
102
}
330
1B7
100
AcDbDictionary
281
     1
  3
Imperial24
350
21B
  0
DICTIONARY
  5
1B4
102
{ACAD_REACTORS
330
1B7
102
}
330
1B7
100
AcDbDictionary
281
     1
  0
DICTIONARY
  5
201
102
{ACAD_REACTORS
330
1B7
102
}
330
1B7
100
AcDbDictionary
281
     1
  3
Model
350
21D
  3
PHD5A
350
2933
  0
DICTIONARY
  5
1CE
102
{ACAD_REACTORS
330
1B7
102
}
330
1B7
100
AcDbDictionary
281
     1
  3
ByBlock
350
1D7
  3
ByLayer
350
1CF
  3
Global
350
1DF
  0
DICTIONARY
  5
216
102
{ACAD_REACTORS
330
1B7
102
}
330
1B7
100
AcDbDictionary
281
     1
  3
Standard
350
217
  0
DICTIONARY
  5
1B5
102
{ACAD_XDICTIONARY
360
1B6
102
}
102
{ACAD_REACTORS
330
1B7
102
}
330
1B7
100
AcDbDictionary
281
     1
  3
STANDARD
350
1BA
  0
DICTIONARY
  5
21C
102
{ACAD_REACTORS
330
1B7
102
}
330
1B7
100
AcDbDictionary
281
     1
  3
A4
350
19B0
  0
ACDBDICTIONARYWDFLT
  5
1CC
102
{ACAD_REACTORS
330
1B7
102
}
330
1B7
100
AcDbDictionary
281
     1
  3
Normal
350
1CD
100
AcDbDictionaryWithDefault
340
1CD
  0
DICTIONARY
  5
204
102
{ACAD_REACTORS
330
1B7
102
}
330
1B7
100
AcDbDictionary
281
     1
  3
A0
350
205
  3
A1
350
45C5
  3
A2
350
285B
  3
A3
350
45C6
  3
A4
350
45C7
  3
A5
350
45C8
  3
A6
350
45C9
  3
A7
350
45CA
  3
A8
350
45CB
  3
A9
350
45CC
  3
B0
350
45CD
  3
B1
350
45CE
  3
B2
350
45CF
  3
B3
350
45D0
  3
B4
350
45D1
  3
B5
350
45D2
  3
B6
350
45D3
  3
B7
350
45D4
  3
B8
350
45D5
  3
B9
350
45D6
  3
C0
350
45D7
  0
DICTIONARY
  5
218
102
{ACAD_REACTORS
330
1B7
102
}
330
1B7
100
AcDbDictionary
281
     1
  3
Imperial24
350
219
  0
DICTIONARY
  5
202
102
{ACAD_REACTORS
330
1B7
102
}
330
1B7
100
AcDbDictionary
281
     1
  3
Standard
350
203
  0
DICTIONARY
  5
1E7
102
{ACAD_REACTORS
330
1B7
102
}
330
1B7
100
AcDbDictionary
281
     1
  3
2dWireframe
350
1ED
  3
Basic
350
1EC
  3
Brighten
350
1F3
  3
ColorChange
350
1F7
  3
Conceptual
350
1F0
  3
Dim
350
1F2
  3
EdgeColorOff
350
1FF
  3
Facepattern
350
1F6
  3
Flat
350
1E8
  3
FlatWithEdges
350
1E9
  3
Gouraud
350
1EA
  3
GouraudWithEdges
350
1EB
  3
Hidden
350
1EF
  3
JitterOff
350
1FD
  3
Linepattern
350
1F5
  3
OverhangOff
350
1FE
  3
Realistic
350
1F1
  3
Shaded
350
1FC
  3
Shaded with edges
350
1FB
  3
Shades of Gray
350
1F8
  3
Sketchy
350
1F9
  3
Thicken
350
1F4
  3
Wireframe
350
1EE
  3
X-Ray
350
1FA
  0
XRECORD
  5
50F8
102
{ACAD_REACTORS
330
1B7
102
}
330
1B7
100
AcDbXrecord
280
     1
 90
        1
330
203
  0
DICTIONARY
  5
7D6
102
{ACAD_REACTORS
330
1B7
102
}
330
1B7
100
AcDbDictionary
281
     1
  3
CANNOSCALE
350
7DC
  3
CMLEADERSTYLE
350
7D8
  3
CTABLESTYLE
350
7D7
  3
CVIEWDETAILSTYLE
350
7D9
  3
CVIEWSECTIONSTYLE
350
7DA
  3
LAYEREVAL
350
7DE
  3
LAYERNOTIFY
350
7DF
  3
LIGHTINGUNITS
350
7DD
  3
MSLTSCALE
350
7DB
  0
DICTIONARY
  5
2838
102
{ACAD_REACTORS
330
1B7
102
}
330
1B7
100
AcDbDictionary
281
     1
  0
DICTIONARY
  5
22D
102
{ACAD_REACTORS
330
22C
102
}
330
22C
100
AcDbDictionary
281
     1
  0
XRECORD
  5
687
102
{ACAD_REACTORS
330
686
102
}
330
686
100
AcDbXrecord
280
     1
290
     1
  0
XRECORD
  5
689
102
{ACAD_REACTORS
330
688
102
}
330
688
100
AcDbXrecord
280
     1
290
     1
  0
XRECORD
  5
68B
102
{ACAD_REACTORS
330
68A
102
}
330
68A
100
AcDbXrecord
280
     1
290
     1
  0
XRECORD
  5
68D
102
{ACAD_REACTORS
330
68C
102
}
330
68C
100
AcDbXrecord
280
     1
290
     1
  0
XRECORD
  5
68F
102
{ACAD_REACTORS
330
68E
102
}
330
68E
100
AcDbXrecord
280
     1
290
     1
  0
XRECORD
  5
19D
102
{ACAD_REACTORS
330
19C
102
}
330
19C
100
AcDbXrecord
280
     1
340
2
  0
SORTENTSTABLE
  5
497C
102
{ACAD_REACTORS
330
19C
102
}
330
19C
100
AcDbSortentsTable
330
2
331
4944
  5
497A
331
4943
  5
4945
331
2F7E
  5
2F7E
331
4945
  5
497B
  0
XRECORD
  5
2942
102
{ACAD_REACTORS
330
2941
102
}
330
2941
100
AcDbXrecord
280
     1
 90
        1
340
205
  0
XRECORD
  5
298E
102
{ACAD_REACTORS
330
298D
102
}
330
298D
100
AcDbXrecord
280
     1
 90
        1
340
45C7
  0
ACDBDETAILVIEWSTYLE
  5
21B
102
{ACAD_REACTORS
330
21A
102
}
330
21A
100
AcDbModelDocViewStyle
 70
     0
  3
Imperial24
290
     1
300
Imperial24
 90
        0
100
AcDbDetailViewStyle
 70
     0
 71
     0
 90
        3
 71
     1
340
A
 62
   256
 40
0.24
340
0
 62
   256
 40
0.24
300

 40
0.36
280
     3
 71
     2
340
5
 90
       25
 62
   256
 71
     3
340
A
 62
   256
 40
0.24
 90
        1
 40
0.75
 90
        1
300
%<\AcVar ViewType \f "%tc1">% %<\AcVar ViewDetailId>%\PSCALE %<\AcVar ViewScale \f "%sn">%
 71
     4
340
5
 90
       25
 62
   256
340
5
 90
       25
 62
   256
280
     0
  0
LAYOUT
  5
21D
102
{ACAD_REACTORS
330
201
102
}
330
201
100
AcDbPlotSettings
  1

  2
DWG To PDF.pc3
  4
ISO_full_bleed_A4_(210.00_x_297.00_MM)
  6

 40
0.7937499880790711
 41
0.7937499880790711
 42
0.7937469482421875
 43
0.79376220703125
 44
210.0
 45
297.0
 46
0.0
 47
0.0
 48
0.0
 49
0.0
140
0.0
141
0.0
142
1.0
143
6.980987797419007
 70
 11952
 72
     1
 73
     0
 74
     0
  7

 75
     0
147
0.1432462036919356
 76
     0
 77
     2
 78
   300
148
528.7620538809947
149
148.3289992822255
100
AcDbLayout
  1
Model
 70
     1
 71
     0
 10
0.0
 20
0.0
 11
12.0
 21
9.0
 12
0.0
 22
0.0
 32
0.0
 14
0.0
 24
0.0
 34
0.0
 15
0.0
 25
0.0
 35
0.0
146
0.0
 13
0.0
 23
0.0
 33
0.0
 16
1.0
 26
0.0
 36
0.0
 17
0.0
 27
1.0
 37
0.0
 76
     0
330
2
331
1CA
1001
ACAD_PSEXT
1000
DWG To PDF.pc3
1000
DWG To PDF
1000
File
1000

1070
     0
  0
LAYOUT
  5
2933
102
{ACAD_REACTORS
330
201
102
}
330
201
100
AcDbPlotSettings
  1

  2
DWG To PDF.pc3
  4
ISO_full_bleed_A4_(210.00_x_297.00_MM)
  6

 40
0.0
 41
0.0
 42
0.0
 43
0.0
 44
210.0
 45
297.0
 46
0.0
 47
0.0
 48
40.07863934062789
 49
-10.69415893036625
140
250.0786393406279
141
286.3058410696337
142
1.0
143
1.0
 70
   672
 72
     1
 73
     0
 74
     5
  7
monochrome.ctb
 75
    16
147
25.4
 76
     0
 77
     2
 78
   300
148
-40.07863934062789
149
10.69415893036625
100
AcDbLayout
  1
PHD5A
 70
     1
 71
     1
 10
40.07863934062789
 20
-10.69415893036625
 11
250.0786393406279
 21
286.3058410696337
 12
0.0
 22
0.0
 32
0.0
 14
40.07863934062789
 24
-170.6521290962268
 34
0.0
 15
785.1898010242084
 25
286.3058410696337
 35
0.0
146
0.0
 13
0.0
 23
0.0
 33
0.0
 16
1.0
 26
0.0
 36
0.0
 17
0.0
 27
1.0
 37
0.0
 76
     0
330
2932
331
2940
1001
PLOTTRANSPARENCY
1071
        1
1001
ACAD_PSEXT
1000
DWG To PDF.pc3
1000
DWG To PDF
1000
File
1000

1070
     0
  0
MATERIAL
  5
1D7
102
{ACAD_XDICTIONARY
360
1D8
102
}
102
{ACAD_REACTORS
330
1CE
102
}
330
1CE
100
AcDbMaterial
  1
ByBlock
 72
     0
 43
0.0208333333333333
 43
0.0
 43
0.0
 43
0.0
 43
0.0
 43
0.0208333333333333
 43
0.0
 43
0.0
 43
0.0
 43
0.0
 43
1.0
 43
0.0
 43
0.0
 43
0.0
 43
0.0
 43
1.0
 77
     0
 47
0.0208333333333333
 47
0.0
 47
0.0
 47
0.0
 47
0.0
 47
0.0208333333333333
 47
0.0
 47
0.0
 47
0.0
 47
0.0
 47
1.0
 47
0.0
 47
0.0
 47
0.0
 47
0.0
 47
1.0
171
     0
 49
0.0208333333333333
 49
0.0
 49
0.0
 49
0.0
 49
0.0
 49
0.0208333333333333
 49
0.0
 49
0.0
 49
0.0
 49
0.0
 49
1.0
 49
0.0
 49
0.0
 49
0.0
 49
0.0
 49
1.0
175
     0
142
0.0208333333333333
142
0.0
142
0.0
142
0.0
142
0.0
142
0.0208333333333333
142
0.0
142
0.0
142
0.0
142
0.0
142
1.0
142
0.0
142
0.0
142
0.0
142
0.0
142
1.0
179
     0
144
0.0208333333333333
144
0.0
144
0.0
144
0.0
144
0.0
144
0.0208333333333333
144
0.0
144
0.0
144
0.0
144
0.0
144
1.0
144
0.0
144
0.0
144
0.0
144
0.0
144
1.0
147
0.0208333333333333
147
0.0
147
0.0
147
0.0
147
0.0
147
0.0208333333333333
147
0.0
147
0.0
147
0.0
147
0.0
147
1.0
147
0.0
147
0.0
147
0.0
147
0.0
147
1.0
  0
MATERIAL
  5
1CF
102
{ACAD_XDICTIONARY
360
1D0
102
}
102
{ACAD_REACTORS
330
1CE
102
}
330
1CE
100
AcDbMaterial
  1
ByLayer
 72
     0
 43
0.0208333333333333
 43
0.0
 43
0.0
 43
0.0
 43
0.0
 43
0.0208333333333333
 43
0.0
 43
0.0
 43
0.0
 43
0.0
 43
1.0
 43
0.0
 43
0.0
 43
0.0
 43
0.0
 43
1.0
 77
     0
 47
0.0208333333333333
 47
0.0
 47
0.0
 47
0.0
 47
0.0
 47
0.0208333333333333
 47
0.0
 47
0.0
 47
0.0
 47
0.0
 47
1.0
 47
0.0
 47
0.0
 47
0.0
 47
0.0
 47
1.0
171
     0
 49
0.0208333333333333
 49
0.0
 49
0.0
 49
0.0
 49
0.0
 49
0.0208333333333333
 49
0.0
 49
0.0
 49
0.0
 49
0.0
 49
1.0
 49
0.0
 49
0.0
 49
0.0
 49
0.0
 49
1.0
175
     0
142
0.0208333333333333
142
0.0
142
0.0
142
0.0
142
0.0
142
0.0208333333333333
142
0.0
142
0.0
142
0.0
142
0.0
142
1.0
142
0.0
142
0.0
142
0.0
142
0.0
142
1.0
179
     0
144
0.0208333333333333
144
0.0
144
0.0
144
0.0
144
0.0
144
0.0208333333333333
144
0.0
144
0.0
144
0.0
144
0.0
144
1.0
144
0.0
144
0.0
144
0.0
144
0.0
144
1.0
147
0.0208333333333333
147
0.0
147
0.0
147
0.0
147
0.0
147
0.0208333333333333
147
0.0
147
0.0
147
0.0
147
0.0
147
1.0
147
0.0
147
0.0
147
0.0
147
0.0
147
1.0
  0
MATERIAL
  5
1DF
102
{ACAD_XDICTIONARY
360
1E0
102
}
102
{ACAD_REACTORS
330
1CE
102
}
330
1CE
100
AcDbMaterial
  1
Global
 72
     0
 43
0.0208333333333333
 43
0.0
 43
0.0
 43
0.0
 43
0.0
 43
0.0208333333333333
 43
0.0
 43
0.0
 43
0.0
 43
0.0
 43
1.0
 43
0.0
 43
0.0
 43
0.0
 43
0.0
 43
1.0
 77
     0
 47
0.0208333333333333
 47
0.0
 47
0.0
 47
0.0
 47
0.0
 47
0.0208333333333333
 47
0.0
 47
0.0
 47
0.0
 47
0.0
 47
1.0
 47
0.0
 47
0.0
 47
0.0
 47
0.0
 47
1.0
171
     0
 49
0.0208333333333333
 49
0.0
 49
0.0
 49
0.0
 49
0.0
 49
0.0208333333333333
 49
0.0
 49
0.0
 49
0.0
 49
0.0
 49
1.0
 49
0.0
 49
0.0
 49
0.0
 49
0.0
 49
1.0
175
     0
142
0.0208333333333333
142
0.0
142
0.0
142
0.0
142
0.0
142
0.0208333333333333
142
0.0
142
0.0
142
0.0
142
0.0
142
1.0
142
0.0
142
0.0
142
0.0
142
0.0
142
1.0
179
     0
144
0.0208333333333333
144
0.0
144
0.0
144
0.0
144
0.0
144
0.0208333333333333
144
0.0
144
0.0
144
0.0
144
0.0
144
1.0
144
0.0
144
0.0
144
0.0
144
0.0
144
1.0
147
0.0208333333333333
147
0.0
147
0.0
147
0.0
147
0.0
147
0.0208333333333333
147
0.0
147
0.0
147
0.0
147
0.0
147
1.0
147
0.0
147
0.0
147
0.0
147
0.0
147
1.0
  0
MLEADERSTYLE
  5
217
102
{ACAD_REACTORS
330
216
102
}
330
216
100
AcDbMLeaderStyle
179
     2
170
     2
171
     1
172
     0
 90
        2
 40
0.0
 41
0.0
173
     1
 91
-1056964608
340
1A8
 92
       -2
290
     1
 42
0.09
291
     1
 43
0.36
  3
Standard
 44
0.18
300

342
A
174
     1
178
     6
175
     1
176
     0
 93
-1056964608
 45
0.18
292
     0
297
     0
 46
0.18
 94
-1056964608
 47
1.0
 49
1.0
140
1.0
293
     1
141
0.0
294
     1
177
     0
142
1.0
295
     1
296
     0
143
0.125
271
     0
272
     9
273
     9
298
     1
  0
DICTIONARY
  5
1B6
330
1B5
100
AcDbDictionary
280
     1
281
     1
  0
MLINESTYLE
  5
1BA
102
{ACAD_REACTORS
330
1B5
102
}
330
1B5
100
AcDbMlineStyle
  2
STANDARD
 70
     0
  3

 62
   256
 51
90.0
 52
90.0
 71
     2
 49
0.5
 62
   256
  6
BYLAYER
 49
-0.5
 62
   256
  6
BYLAYER
  0
PLOTSETTINGS
  5
19B0
102
{ACAD_REACTORS
330
21C
102
}
330
21C
100
AcDbPlotSettings
  1
A4
  2
DWG To PDF.pc3
  4
ISO_full_bleed_A4_(210.00_x_297.00_MM)
  6

 40
0.0
 41
0.0
 42
0.0
 43
0.0
 44
210.0
 45
297.0
 46
0.0
 47
0.0
 48
40.07863934062789
 49
-10.69415893036625
140
250.0786393406279
141
286.3058410696337
142
1.0
143
1.0
 70
  2720
 72
     1
 73
     0
 74
     4
  7
monochrome.ctb
 75
    16
147
25.4
 76
     0
 77
     2
 78
   300
148
-40.07863934062789
149
10.69415893036625
1001
PLOTTRANSPARENCY
1071
        1
1001
ACAD_PSEXT
1000
DWG To PDF.pc3
1000
DWG To PDF
1000
File
1000

1070
     0
  0
ACDBPLACEHOLDER
  5
1CD
102
{ACAD_REACTORS
330
1CC
102
}
330
1CC
  0
SCALE
  5
205
102
{ACAD_REACTORS
330
204
102
}
330
204
100
AcDbScale
 70
     0
300
1:1
140
1.0
141
1.0
290
     1
  0
SCALE
  5
45C5
102
{ACAD_REACTORS
330
204
102
}
330
204
100
AcDbScale
 70
     0
300
2:1
140
2.0
141
1.0
290
     0
  0
SCALE
  5
285B
102
{ACAD_REACTORS
330
204
102
}
330
204
100
AcDbScale
 70
     0
300
1:1.5
140
1.0
141
1.5
290
     0
  0
SCALE
  5
45C6
102
{ACAD_REACTORS
330
204
102
}
330
204
100
AcDbScale
 70
     0
300
1;2.5
140
1.0
141
2.5
290
     0
  0
SCALE
  5
45C7
102
{ACAD_REACTORS
330
204
102
}
330
204
100
AcDbScale
 70
     0
300
1:2
140
1.0
141
2.0
290
     0
  0
SCALE
  5
45C8
102
{ACAD_REACTORS
330
204
102
}
330
204
100
AcDbScale
 70
     0
300
1/128" = 1'-0"
140
0.0078125
141
12.0
290
     0
  0
SCALE
  5
45C9
102
{ACAD_REACTORS
330
204
102
}
330
204
100
AcDbScale
 70
     0
300
1/64" = 1'-0"
140
0.015625
141
12.0
290
     0
  0
SCALE
  5
45CA
102
{ACAD_REACTORS
330
204
102
}
330
204
100
AcDbScale
 70
     0
300
1/32" = 1'-0"
140
0.03125
141
12.0
290
     0
  0
SCALE
  5
45CB
102
{ACAD_REACTORS
330
204
102
}
330
204
100
AcDbScale
 70
     0
300
1/16" = 1'-0"
140
0.0625
141
12.0
290
     0
  0
SCALE
  5
45CC
102
{ACAD_REACTORS
330
204
102
}
330
204
100
AcDbScale
 70
     0
300
3/32" = 1'-0"
140
0.09375
141
12.0
290
     0
  0
SCALE
  5
45CD
102
{ACAD_REACTORS
330
204
102
}
330
204
100
AcDbScale
 70
     0
300
1/8" = 1'-0"
140
0.125
141
12.0
290
     0
  0
SCALE
  5
45CE
102
{ACAD_REACTORS
330
204
102
}
330
204
100
AcDbScale
 70
     0
300
3/16" = 1'-0"
140
0.1875
141
12.0
290
     0
  0
SCALE
  5
45CF
102
{ACAD_REACTORS
330
204
102
}
330
204
100
AcDbScale
 70
     0
300
1/4" = 1'-0"
140
0.25
141
12.0
290
     0
  0
SCALE
  5
45D0
102
{ACAD_REACTORS
330
204
102
}
330
204
100
AcDbScale
 70
     0
300
3/8" = 1'-0"
140
0.375
141
12.0
290
     0
  0
SCALE
  5
45D1
102
{ACAD_REACTORS
330
204
102
}
330
204
100
AcDbScale
 70
     0
300
1/2" = 1'-0"
140
0.5
141
12.0
290
     0
  0
SCALE
  5
45D2
102
{ACAD_REACTORS
330
204
102
}
330
204
100
AcDbScale
 70
     0
300
3/4" = 1'-0"
140
0.75
141
12.0
290
     0
  0
SCALE
  5
45D3
102
{ACAD_REACTORS
330
204
102
}
330
204
100
AcDbScale
 70
     0
300
1" = 1'-0"
140
1.0
141
12.0
290
     0
  0
SCALE
  5
45D4
102
{ACAD_REACTORS
330
204
102
}
330
204
100
AcDbScale
 70
     0
300
1-1/2" = 1'-0"
140
1.5
141
12.0
290
     0
  0
SCALE
  5
45D5
102
{ACAD_REACTORS
330
204
102
}
330
204
100
AcDbScale
 70
     0
300
3" = 1'-0"
140
3.0
141
12.0
290
     0
  0
SCALE
  5
45D6
102
{ACAD_REACTORS
330
204
102
}
330
204
100
AcDbScale
 70
     0
300
6" = 1'-0"
140
6.0
141
12.0
290
     0
  0
SCALE
  5
45D7
102
{ACAD_REACTORS
330
204
102
}
330
204
100
AcDbScale
 70
     0
300
1'-0" = 1'-0"
140
12.0
141
12.0
290
     0
  0
ACDBSECTIONVIEWSTYLE
  5
219
102
{ACAD_REACTORS
330
218
102
}
330
218
100
AcDbModelDocViewStyle
 70
     0
  3
Imperial24
290
     1
300
Imperial24
 90
        0
100
AcDbSectionViewStyle
 70
     0
 71
     0
 90
       78
 71
     1
340
A
 62
   256
 40
0.24
340
0
340
0
 62
   256
 40
0.24
300
I, O, Q, S, X, Z
 40
0.48
 90
        3
 40
0.18
 90
        1
 71
     2
340
5
 90
       25
 62
   256
340
5
 90
       50
 62
   256
 40
0.24
 40
0.0
 40
0.24
 71
     3
340
A
 62
   256
 40
0.24
 90
        1
 40
0.75
 90
        1
300
%<\AcVar ViewType \f "%tc1">% %<\AcVar ViewSectionStartId>%-%<\AcVar ViewSectionEndId>%\PSCALE %<\AcVar ViewScale \f "%sn">%
 71
     4
 62
   256
 62
   257
300
ANSI31
 40
1.0
 90
        0
290
     0
290
     0
 90
        6
 40
0.0
 40
1.570796326794896
 40
0.2617993877991494
 40
1.308996938995747
 40
-0.2617993877991494
 40
1.832595714594046
  0
TABLESTYLE
  5
203
102
{ACAD_XDICTIONARY
360
50F6
102
}
102
{ACAD_REACTORS
330
202
102
}
330
202
100
AcDbTableStyle
280
     0
  3
Standard
 70
     0
 71
     0
 40
0.06
 41
0.06
280
     0
281
     0
  7
STANDARD
140
0.18
170
     2
 62
     0
 63
     7
283
     0
 90
      512
 91
        0
  1

274
    -2
284
     1
 64
     0
275
    -2
285
     1
 65
     0
276
    -2
286
     1
 66
     0
277
    -2
287
     1
 67
     0
278
    -2
288
     1
 68
     0
279
    -2
289
     1
 69
     0
  7
STANDARD
140
0.25
170
     5
 62
     0
 63
     7
283
     0
 90
      512
 91
        0
  1

274
    -2
284
     1
 64
     0
275
    -2
285
     1
 65
     0
276
    -2
286
     1
 66
     0
277
    -2
287
     1
 67
     0
278
    -2
288
     1
 68
     0
279
    -2
289
     1
 69
     0
  7
STANDARD
140
0.18
170
     5
 62
     0
 63
     7
283
     0
 90
      512
 91
        0
  1

274
    -2
284
     1
 64
     0
275
    -2
285
     1
 65
     0
276
    -2
286
     1
 66
     0
277
    -2
287
     1
 67
     0
278
    -2
288
     1
 68
     0
279
    -2
289
     1
 69
     0
  0
VISUALSTYLE
  5
1ED
102
{ACAD_REACTORS
330
1E7
102
}
330
1E7
100
AcDbVisualStyle
  2
2dWireframe
 70
     4
177
     3
291
     0
 70
    58
 90
        0
176
     1
 90
        2
176
     1
 90
        0
176
     1
 90
        0
176
     1
 40
0.6
176
     1
 40
30.0
176
     1
 62
     7
420
 16777215
176
     1
 90
        1
176
     1
 90
        4
176
     1
 62
     7
176
     1
 62
   257
176
     1
 90
        1
176
     1
 90
        1
176
     1
 40
1.0
176
     1
 90
        0
176
     1
 62
   257
176
     1
 40
1.0
176
     1
 90
        1
176
     1
 90
        6
176
     1
 90
        2
176
     1
 62
     7
176
     1
 90
        5
176
     1
 90
        0
176
     1
 90
        0
176
     1
290
     0
176
     1
 90
        1
176
     1
 40
0.0
176
     1
 90
        0
176
     1
290
     1
176
     1
290
     1
176
     1
290
     0
176
     1
290
     0
176
     1
290
     0
176
     1
290
     0
176
     1
290
     0
176
     1
290
     0
176
     1
290
     0
176
     1
 90
       50
176
     1
 40
0.0
176
     1
 40
1.0
176
     1
 90
        0
176
     1
 62
    18
420
        0
176
     1
 90
       50
176
     1
 90
        3
176
     1
 62
     5
420
      255
176
     1
290
     0
176
     1
 90
       50
176
     1
 90
       50
176
     1
 90
       50
176
     1
290
     0
176
     1
 90
       50
176
     1
 62
   256
176
     0
 40
1.0
176
     0
 90
        2
176
     1
  1
strokes_ogs.tif
176
     1
290
     0
176
     1
 40
1.0
176
     1
 40
1.0
176
     1
  0
VISUALSTYLE
  5
1EC
102
{ACAD_REACTORS
330
1E7
102
}
330
1E7
100
AcDbVisualStyle
  2
Basic
 70
     7
177
     3
291
     1
 70
    58
 90
        1
176
     1
 90
        0
176
     1
 90
        1
176
     1
 90
        0
176
     1
 40
0.6
176
     1
 40
30.0
176
     1
 62
     7
420
 16777215
176
     1
 90
        0
176
     1
 90
        4
176
     1
 62
     7
176
     1
 62
   257
176
     1
 90
        1
176
     1
 90
        1
176
     1
 40
1.0
176
     1
 90
        8
176
     1
 62
     7
176
     1
 40
1.0
176
     1
 90
        1
176
     1
 90
        6
176
     1
 90
        2
176
     1
 62
     7
176
     1
 90
        5
176
     1
 90
        0
176
     1
 90
        0
176
     1
290
     0
176
     1
 90
        1
176
     1
 40
0.0
176
     1
 90
        0
176
     1
290
     0
176
     1
290
     1
176
     1
290
     1
176
     1
290
     0
176
     1
290
     0
176
     1
290
     0
176
     1
290
     0
176
     1
290
     0
176
     1
290
     0
176
     1
 90
       50
176
     1
 40
0.0
176
     1
 40
1.0
176
     1
 90
        0
176
     1
 62
    18
420
        0
176
     1
 90
       50
176
     1
 90
        3
176
     1
 62
     5
420
      255
176
     1
290
     0
176
     1
 90
       50
176
     1
 90
       50
176
     1
 90
       50
176
     1
290
     0
176
     1
 90
       50
176
     1
 62
   256
176
     0
 40
1.0
176
     0
 90
        2
176
     1
  1
strokes_ogs.tif
176
     1
290
     0
176
     1
 40
1.0
176
     1
 40
1.0
176
     1
  0
VISUALSTYLE
  5
1F3
102
{ACAD_REACTORS
330
1E7
102
}
330
1E7
100
AcDbVisualStyle
  2
Brighten
 70
    12
177
     3
291
     1
 70
    58
 90
        2
176
     1
 90
        2
176
     1
 90
        0
176
     1
 90
        0
176
     1
 40
0.6
176
     1
 40
30.0
176
     1
 62
     7
420
 16777215
176
     1
 90
        1
176
     1
 90
        4
176
     1
 62
     7
176
     1
 62
   257
176
     1
 90
        1
176
     1
 90
        1
176
     1
 40
1.0
176
     1
 90
        8
176
     1
 62
     7
176
     1
 40
1.0
176
     1
 90
        1
176
     1
 90
        6
176
     1
 90
        2
176
     1
 62
     7
176
     1
 90
        5
176
     1
 90
        0
176
     1
 90
        0
176
     1
290
     0
176
     1
 90
        1
176
     1
 40
50.0
176
     1
 90
        0
176
     1
290
     0
176
     1
290
     1
176
     1
290
     1
176
     1
290
     0
176
     1
290
     0
176
     1
290
     0
176
     1
290
     0
176
     1
290
     0
176
     1
290
     0
176
     1
 90
       50
176
     1
 40
0.0
176
     1
 40
1.0
176
     1
 90
        0
176
     1
 62
    18
420
        0
176
     1
 90
       50
176
     1
 90
        3
176
     1
 62
     5
420
      255
176
     1
290
     0
176
     1
 90
       50
176
     1
 90
       50
176
     1
 90
       50
176
     1
290
     0
176
     1
 90
       50
176
     1
 62
   256
176
     0
 40
1.0
176
     0
 90
        2
176
     1
  1
strokes_ogs.tif
176
     1
290
     0
176
     1
 40
1.0
176
     1
 40
1.0
176
     1
  0
VISUALSTYLE
  5
1F7
102
{ACAD_REACTORS
330
1E7
102
}
330
1E7
100
AcDbVisualStyle
  2
ColorChange
 70
    16
177
     3
291
     1
 70
    58
 90
        2
176
     1
 90
        2
176
     1
 90
        3
176
     1
 90
        0
176
     1
 40
0.6
176
     1
 40
30.0
176
     1
 62
     8
420
  8421504
176
     1
 90
        1
176
     1
 90
        4
176
     1
 62
     7
176
     1
 62
   257
176
     1
 90
        1
176
     1
 90
        1
176
     1
 40
1.0
176
     1
 90
        8
176
     1
 62
     8
420
  8421504
176
     1
 40
1.0
176
     1
 90
        1
176
     1
 90
        6
176
     1
 90
        2
176
     1
 62
     7
176
     1
 90
        5
176
     1
 90
        0
176
     1
 90
        0
176
     1
290
     0
176
     1
 90
        1
176
     1
 40
0.0
176
     1
 90
        0
176
     1
290
     0
176
     1
290
     1
176
     1
290
     1
176
     1
290
     0
176
     1
290
     0
176
     1
290
     0
176
     1
290
     0
176
     1
290
     0
176
     1
290
     0
176
     1
 90
       50
176
     1
 40
0.0
176
     1
 40
1.0
176
     1
 90
        0
176
     1
 62
    18
420
        0
176
     1
 90
       50
176
     1
 90
        3
176
     1
 62
     5
420
      255
176
     1
290
     0
176
     1
 90
       50
176
     1
 90
       50
176
     1
 90
       50
176
     1
290
     0
176
     1
 90
       50
176
     1
 62
   256
176
     0
 40
1.0
176
     0
 90
        2
176
     1
  1
strokes_ogs.tif
176
     1
290
     0
176
     1
 40
1.0
176
     1
 40
1.0
176
     1
  0
VISUALSTYLE
  5
1F0
102
{ACAD_REACTORS
330
1E7
102
}
330
1E7
100
AcDbVisualStyle
  2
Conceptual
 70
     9
177
     3
291
     0
 70
    58
 90
        3
176
     1
 90
        2
176
     1
 90
        0
176
     1
 90
        0
176
     1
 40
0.6
176
     1
 40
30.0
176
     1
 62
     7
420
 16777215
176
     1
 90
        2
176
     1
 90
        2
176
     1
 62
     7
176
     1
 62
   257
176
     1
 90
        1
176
     1
 90
        1
176
     1
 40
179.0
176
     1
 90
        8
176
     1
 62
     7
176
     1
 40
1.0
176
     1
 90
        1
176
     1
 90
        6
176
     1
 90
        2
176
     1
 62
     7
176
     1
 90
        3
176
     1
 90
        0
176
     1
 90
        0
176
     1
290
     0
176
     1
 90
        1
176
     1
 40
0.0
176
     1
 90
        0
176
     1
290
     0
176
     1
290
     1
176
     1
290
     1
176
     1
290
     0
176
     1
290
     0
176
     1
290
     0
176
     1
290
     0
176
     1
290
     0
176
     1
290
     0
176
     1
 90
       50
176
     1
 40
0.0
176
     1
 40
1.0
176
     1
 90
        0
176
     1
 62
    18
420
        0
176
     1
 90
       50
176
     1
 90
        3
176
     1
 62
     5
420
      255
176
     1
290
     0
176
     1
 90
       50
176
     1
 90
       50
176
     1
 90
       50
176
     1
290
     0
176
     1
 90
       50
176
     1
 62
   256
176
     0
 40
1.0
176
     0
 90
        2
176
     1
  1
strokes_ogs.tif
176
     1
290
     0
176
     1
 40
1.0
176
     1
 40
1.0
176
     1
  0
VISUALSTYLE
  5
1F2
102
{ACAD_REACTORS
330
1E7
102
}
330
1E7
100
AcDbVisualStyle
  2
Dim
 70
    11
177
     3
291
     1
 70
    58
 90
        2
176
     1
 90
        2
176
     1
 90
        0
176
     1
 90
        0
176
     1
 40
0.6
176
     1
 40
30.0
176
     1
 62
     7
420
 16777215
176
     1
 90
        1
176
     1
 90
        4
176
     1
 62
     7
176
     1
 62
   257
176
     1
 90
        1
176
     1
 90
        1
176
     1
 40
1.0
176
     1
 90
        8
176
     1
 62
     7
176
     1
 40
1.0
176
     1
 90
        1
176
     1
 90
        6
176
     1
 90
        2
176
     1
 62
     7
176
     1
 90
        5
176
     1
 90
        0
176
     1
 90
        0
176
     1
290
     0
176
     1
 90
        1
176
     1
 40
-50.0
176
     1
 90
        0
176
     1
290
     0
176
     1
290
     1
176
     1
290
     1
176
     1
290
     0
176
     1
290
     0
176
     1
290
     0
176
     1
290
     0
176
     1
290
     0
176
     1
290
     0
176
     1
 90
       50
176
     1
 40
0.0
176
     1
 40
1.0
176
     1
 90
        0
176
     1
 62
    18
420
        0
176
     1
 90
       50
176
     1
 90
        3
176
     1
 62
     5
420
      255
176
     1
290
     0
176
     1
 90
       50
176
     1
 90
       50
176
     1
 90
       50
176
     1
290
     0
176
     1
 90
       50
176
     1
 62
   256
176
     0
 40
1.0
176
     0
 90
        2
176
     1
  1
strokes_ogs.tif
176
     1
290
     0
176
     1
 40
1.0
176
     1
 40
1.0
176
     1
  0
VISUALSTYLE
  5
1FF
102
{ACAD_REACTORS
330
1E7
102
}
330
1E7
100
AcDbVisualStyle
  2
EdgeColorOff
 70
    22
177
     3
291
     1
 70
    58
 90
        2
176
     0
 90
        2
176
     0
 90
        0
176
     0
 90
        0
176
     0
 40
0.6
176
     0
 40
30.0
176
     0
 62
     7
420
 16777215
176
     0
 90
        1
176
     0
 90
        4
176
     0
 62
     7
176
     0
 62
   257
176
     0
 90
        1
176
     0
 90
        1
176
     0
 40
1.0
176
     0
 90
        8
176
     2
 62
     7
176
     0
 40
1.0
176
     0
 90
        1
176
     0
 90
        6
176
     0
 90
        2
176
     0
 62
     7
176
     0
 90
        5
176
     0
 90
        0
176
     0
 90
        0
176
     0
290
     0
176
     0
 90
        1
176
     0
 40
0.0
176
     0
 90
        0
176
     0
290
     0
176
     0
290
     1
176
     0
290
     1
176
     0
290
     0
176
     0
290
     0
176
     0
290
     0
176
     0
290
     0
176
     0
290
     0
176
     0
290
     0
176
     0
 90
       50
176
     0
 40
0.0
176
     0
 40
1.0
176
     0
 90
        0
176
     0
 62
    18
420
        0
176
     0
 90
       50
176
     0
 90
        3
176
     0
 62
     5
420
      255
176
     0
290
     0
176
     0
 90
       50
176
     0
 90
       50
176
     0
 90
       50
176
     0
290
     0
176
     0
 90
       50
176
     0
 62
   256
176
     0
 40
1.0
176
     0
 90
        2
176
     0
  1
strokes_ogs.tif
176
     0
290
     0
176
     0
 40
1.0
176
     0
 40
1.0
176
     0
  0
VISUALSTYLE
  5
1F6
102
{ACAD_REACTORS
330
1E7
102
}
330
1E7
100
AcDbVisualStyle
  2
Facepattern
 70
    15
177
     3
291
     1
 70
    58
 90
        2
176
     1
 90
        2
176
     1
 90
        0
176
     1
 90
        0
176
     1
 40
0.6
176
     1
 40
30.0
176
     1
 62
     7
420
 16777215
176
     1
 90
        1
176
     1
 90
        4
176
     1
 62
     7
176
     1
 62
   257
176
     1
 90
        1
176
     1
 90
        1
176
     1
 40
1.0
176
     1
 90
        8
176
     1
 62
     7
176
     1
 40
1.0
176
     1
 90
        1
176
     1
 90
        6
176
     1
 90
        2
176
     1
 62
     7
176
     1
 90
        5
176
     1
 90
        0
176
     1
 90
        0
176
     1
290
     0
176
     1
 90
        1
176
     1
 40
0.0
176
     1
 90
        0
176
     1
290
     0
176
     1
290
     1
176
     1
290
     1
176
     1
290
     0
176
     1
290
     0
176
     1
290
     0
176
     1
290
     0
176
     1
290
     0
176
     1
290
     0
176
     1
 90
       50
176
     1
 40
0.0
176
     1
 40
1.0
176
     1
 90
        0
176
     1
 62
    18
420
        0
176
     1
 90
       50
176
     1
 90
        3
176
     1
 62
     5
420
      255
176
     1
290
     0
176
     1
 90
       50
176
     1
 90
       50
176
     1
 90
       50
176
     1
290
     0
176
     1
 90
       50
176
     1
 62
   256
176
     0
 40
1.0
176
     0
 90
        2
176
     1
  1
strokes_ogs.tif
176
     1
290
     0
176
     1
 40
1.0
176
     1
 40
1.0
176
     1
  0
VISUALSTYLE
  5
1E8
102
{ACAD_REACTORS
330
1E7
102
}
330
1E7
100
AcDbVisualStyle
  2
Flat
 70
     0
177
     3
291
     1
 70
    58
 90
        2
176
     1
 90
        1
176
     1
 90
        1
176
     1
 90
        2
176
     1
 40
0.6
176
     1
 40
30.0
176
     1
 62
     7
420
 16777215
176
     1
 90
        0
176
     1
 90
        0
176
     1
 62
     7
176
     1
 62
   257
176
     1
 90
        1
176
     1
 90
        1
176
     1
 40
1.0
176
     1
 90
        8
176
     1
 62
     7
176
     1
 40
1.0
176
     1
 90
        1
176
     1
 90
        6
176
     1
 90
        2
176
     1
 62
     7
176
     1
 90
        5
176
     1
 90
        0
176
     1
 90
        0
176
     1
290
     0
176
     1
 90
       13
176
     1
 40
0.0
176
     1
 90
        0
176
     1
290
     0
176
     1
290
     1
176
     1
290
     1
176
     1
290
     0
176
     1
290
     0
176
     1
290
     0
176
     1
290
     0
176
     1
290
     0
176
     1
290
     0
176
     1
 90
       50
176
     1
 40
0.0
176
     1
 40
1.0
176
     1
 90
        0
176
     1
 62
    18
420
        0
176
     1
 90
       50
176
     1
 90
        3
176
     1
 62
     5
420
      255
176
     1
290
     0
176
     1
 90
       50
176
     1
 90
       50
176
     1
 90
       50
176
     1
290
     0
176
     1
 90
       50
176
     1
 62
   256
176
     0
 40
1.0
176
     0
 90
        2
176
     1
  1
strokes_ogs.tif
176
     1
290
     0
176
     1
 40
1.0
176
     1
 40
1.0
176
     1
  0
VISUALSTYLE
  5
1E9
102
{ACAD_REACTORS
330
1E7
102
}
330
1E7
100
AcDbVisualStyle
  2
FlatWithEdges
 70
     1
177
     3
291
     1
 70
    58
 90
        2
176
     1
 90
        1
176
     1
 90
        1
176
     1
 90
        2
176
     1
 40
0.6
176
     1
 40
30.0
176
     1
 62
     7
420
 16777215
176
     1
 90
        1
176
     1
 90
        0
176
     1
 62
     7
176
     1
 62
   257
176
     1
 90
        1
176
     1
 90
        1
176
     1
 40
1.0
176
     1
 90
        0
176
     1
 62
   257
176
     1
 40
1.0
176
     1
 90
        1
176
     1
 90
        6
176
     1
 90
        2
176
     1
 62
     7
176
     1
 90
        5
176
     1
 90
        0
176
     1
 90
        0
176
     1
290
     0
176
     1
 90
       13
176
     1
 40
0.0
176
     1
 90
        0
176
     1
290
     0
176
     1
290
     1
176
     1
290
     1
176
     1
290
     0
176
     1
290
     0
176
     1
290
     0
176
     1
290
     0
176
     1
290
     0
176
     1
290
     0
176
     1
 90
       50
176
     1
 40
0.0
176
     1
 40
1.0
176
     1
 90
        0
176
     1
 62
    18
420
        0
176
     1
 90
       50
176
     1
 90
        3
176
     1
 62
     5
420
      255
176
     1
290
     0
176
     1
 90
       50
176
     1
 90
       50
176
     1
 90
       50
176
     1
290
     0
176
     1
 90
       50
176
     1
 62
   256
176
     0
 40
1.0
176
     0
 90
        2
176
     1
  1
strokes_ogs.tif
176
     1
290
     0
176
     1
 40
1.0
176
     1
 40
1.0
176
     1
  0
VISUALSTYLE
  5
1EA
102
{ACAD_REACTORS
330
1E7
102
}
330
1E7
100
AcDbVisualStyle
  2
Gouraud
 70
     2
177
     3
291
     1
 70
    58
 90
        2
176
     1
 90
        2
176
     1
 90
        1
176
     1
 90
        2
176
     1
 40
0.6
176
     1
 40
30.0
176
     1
 62
     7
420
 16777215
176
     1
 90
        0
176
     1
 90
        0
176
     1
 62
     7
176
     1
 62
   257
176
     1
 90
        1
176
     1
 90
        1
176
     1
 40
1.0
176
     1
 90
        0
176
     1
 62
     7
176
     1
 40
1.0
176
     1
 90
        1
176
     1
 90
        6
176
     1
 90
        2
176
     1
 62
     7
176
     1
 90
        5
176
     1
 90
        0
176
     1
 90
        0
176
     1
290
     0
176
     1
 90
       13
176
     1
 40
0.0
176
     1
 90
        0
176
     1
290
     0
176
     1
290
     1
176
     1
290
     1
176
     1
290
     0
176
     1
290
     0
176
     1
290
     0
176
     1
290
     0
176
     1
290
     0
176
     1
290
     0
176
     1
 90
       50
176
     1
 40
0.0
176
     1
 40
1.0
176
     1
 90
        0
176
     1
 62
    18
420
        0
176
     1
 90
       50
176
     1
 90
        3
176
     1
 62
     5
420
      255
176
     1
290
     0
176
     1
 90
       50
176
     1
 90
       50
176
     1
 90
       50
176
     1
290
     0
176
     1
 90
       50
176
     1
 62
   256
176
     0
 40
1.0
176
     0
 90
        2
176
     1
  1
strokes_ogs.tif
176
     1
290
     0
176
     1
 40
1.0
176
     1
 40
1.0
176
     1
  0
VISUALSTYLE
  5
1EB
102
{ACAD_REACTORS
330
1E7
102
}
330
1E7
100
AcDbVisualStyle
  2
GouraudWithEdges
 70
     3
177
     3
291
     1
 70
    58
 90
        2
176
     1
 90
        2
176
     1
 90
        1
176
     1
 90
        2
176
     1
 40
0.6
176
     1
 40
30.0
176
     1
 62
     7
420
 16777215
176
     1
 90
        1
176
     1
 90
        0
176
     1
 62
     7
176
     1
 62
   257
176
     1
 90
        1
176
     1
 90
        1
176
     1
 40
1.0
176
     1
 90
        0
176
     1
 62
   257
176
     1
 40
1.0
176
     1
 90
        1
176
     1
 90
        6
176
     1
 90
        2
176
     1
 62
     7
176
     1
 90
        5
176
     1
 90
        0
176
     1
 90
        0
176
     1
290
     0
176
     1
 90
       13
176
     1
 40
0.0
176
     1
 90
        0
176
     1
290
     0
176
     1
290
     1
176
     1
290
     1
176
     1
290
     0
176
     1
290
     0
176
     1
290
     0
176
     1
290
     0
176
     1
290
     0
176
     1
290
     0
176
     1
 90
       50
176
     1
 40
0.0
176
     1
 40
1.0
176
     1
 90
        0
176
     1
 62
    18
420
        0
176
     1
 90
       50
176
     1
 90
        3
176
     1
 62
     5
420
      255
176
     1
290
     0
176
     1
 90
       50
176
     1
 90
       50
176
     1
 90
       50
176
     1
290
     0
176
     1
 90
       50
176
     1
 62
   256
176
     0
 40
1.0
176
     0
 90
        2
176
     1
  1
strokes_ogs.tif
176
     1
290
     0
176
     1
 40
1.0
176
     1
 40
1.0
176
     1
  0
VISUALSTYLE
  5
1EF
102
{ACAD_REACTORS
330
1E7
102
}
330
1E7
100
AcDbVisualStyle
  2
Hidden
 70
     6
177
     3
291
     0
 70
    58
 90
        1
176
     1
 90
        2
176
     1
 90
        2
176
     1
 90
        0
176
     1
 40
0.6
176
     1
 40
30.0
176
     1
 62
     7
420
 16777215
176
     1
 90
        2
176
     1
 90
        2
176
     1
 62
     7
176
     1
 62
   257
176
     1
 90
        2
176
     1
 90
        1
176
     1
 40
40.0
176
     1
 90
        0
176
     1
 62
   257
176
     1
 40
1.0
176
     1
 90
        1
176
     1
 90
        6
176
     1
 90
        2
176
     1
 62
     7
176
     1
 90
        3
176
     1
 90
        0
176
     1
 90
        0
176
     1
290
     0
176
     1
 90
        1
176
     1
 40
0.0
176
     1
 90
        0
176
     1
290
     0
176
     1
290
     1
176
     1
290
     1
176
     1
290
     0
176
     1
290
     0
176
     1
290
     0
176
     1
290
     0
176
     1
290
     0
176
     1
290
     0
176
     1
 90
       50
176
     1
 40
0.0
176
     1
 40
1.0
176
     1
 90
        0
176
     1
 62
    18
420
        0
176
     1
 90
       50
176
     1
 90
        3
176
     1
 62
     5
420
      255
176
     1
290
     0
176
     1
 90
       50
176
     1
 90
       50
176
     1
 90
       50
176
     1
290
     0
176
     1
 90
       50
176
     1
 62
   256
176
     0
 40
1.0
176
     0
 90
        2
176
     1
  1
strokes_ogs.tif
176
     1
290
     0
176
     1
 40
1.0
176
     1
 40
1.0
176
     1
  0
VISUALSTYLE
  5
1FD
102
{ACAD_REACTORS
330
1E7
102
}
330
1E7
100
AcDbVisualStyle
  2
JitterOff
 70
    20
177
     3
291
     1
 70
    58
 90
        2
176
     0
 90
        2
176
     0
 90
        0
176
     0
 90
        0
176
     0
 40
0.6
176
     0
 40
30.0
176
     0
 62
     7
420
 16777215
176
     0
 90
        1
176
     0
 90
        4
176
     0
 62
     7
176
     0
 62
   257
176
     0
 90
        1
176
     0
 90
        1
176
     0
 40
1.0
176
     0
 90
       10
176
     2
 62
     7
176
     0
 40
1.0
176
     0
 90
        1
176
     0
 90
        6
176
     0
 90
        2
176
     0
 62
     7
176
     0
 90
        5
176
     0
 90
        0
176
     0
 90
        0
176
     0
290
     0
176
     0
 90
        1
176
     0
 40
0.0
176
     0
 90
        0
176
     0
290
     0
176
     0
290
     1
176
     0
290
     1
176
     0
290
     0
176
     0
290
     0
176
     0
290
     0
176
     0
290
     0
176
     0
290
     0
176
     0
290
     0
176
     0
 90
       50
176
     0
 40
0.0
176
     0
 40
1.0
176
     0
 90
        0
176
     0
 62
    18
420
        0
176
     0
 90
       50
176
     0
 90
        3
176
     0
 62
     5
420
      255
176
     0
290
     0
176
     0
 90
       50
176
     0
 90
       50
176
     0
 90
       50
176
     0
290
     0
176
     0
 90
       50
176
     0
 62
   256
176
     0
 40
1.0
176
     0
 90
        2
176
     0
  1
strokes_ogs.tif
176
     0
290
     0
176
     0
 40
1.0
176
     0
 40
1.0
176
     0
  0
VISUALSTYLE
  5
1F5
102
{ACAD_REACTORS
330
1E7
102
}
330
1E7
100
AcDbVisualStyle
  2
Linepattern
 70
    14
177
     3
291
     1
 70
    58
 90
        2
176
     1
 90
        2
176
     1
 90
        0
176
     1
 90
        0
176
     1
 40
0.6
176
     1
 40
30.0
176
     1
 62
     7
420
 16777215
176
     1
 90
        1
176
     1
 90
        4
176
     1
 62
     7
176
     1
 62
   257
176
     1
 90
        7
176
     1
 90
        7
176
     1
 40
1.0
176
     1
 90
        8
176
     1
 62
     7
176
     1
 40
1.0
176
     1
 90
        1
176
     1
 90
        6
176
     1
 90
        2
176
     1
 62
     7
176
     1
 90
        5
176
     1
 90
        0
176
     1
 90
        0
176
     1
290
     0
176
     1
 90
        1
176
     1
 40
0.0
176
     1
 90
        0
176
     1
290
     0
176
     1
290
     1
176
     1
290
     1
176
     1
290
     0
176
     1
290
     0
176
     1
290
     0
176
     1
290
     0
176
     1
290
     0
176
     1
290
     0
176
     1
 90
       50
176
     1
 40
0.0
176
     1
 40
1.0
176
     1
 90
        0
176
     1
 62
    18
420
        0
176
     1
 90
       50
176
     1
 90
        3
176
     1
 62
     5
420
      255
176
     1
290
     0
176
     1
 90
       50
176
     1
 90
       50
176
     1
 90
       50
176
     1
290
     0
176
     1
 90
       50
176
     1
 62
   256
176
     0
 40
1.0
176
     0
 90
        2
176
     1
  1
strokes_ogs.tif
176
     1
290
     0
176
     1
 40
1.0
176
     1
 40
1.0
176
     1
  0
VISUALSTYLE
  5
1FE
102
{ACAD_REACTORS
330
1E7
102
}
330
1E7
100
AcDbVisualStyle
  2
OverhangOff
 70
    21
177
     3
291
     1
 70
    58
 90
        2
176
     0
 90
        2
176
     0
 90
        0
176
     0
 90
        0
176
     0
 40
0.6
176
     0
 40
30.0
176
     0
 62
     7
420
 16777215
176
     0
 90
        1
176
     0
 90
        4
176
     0
 62
     7
176
     0
 62
   257
176
     0
 90
        1
176
     0
 90
        1
176
     0
 40
1.0
176
     0
 90
        9
176
     2
 62
     7
176
     0
 40
1.0
176
     0
 90
        1
176
     0
 90
        6
176
     0
 90
        2
176
     0
 62
     7
176
     0
 90
        5
176
     0
 90
        0
176
     0
 90
        0
176
     0
290
     0
176
     0
 90
        1
176
     0
 40
0.0
176
     0
 90
        0
176
     0
290
     0
176
     0
290
     1
176
     0
290
     1
176
     0
290
     0
176
     0
290
     0
176
     0
290
     0
176
     0
290
     0
176
     0
290
     0
176
     0
290
     0
176
     0
 90
       50
176
     0
 40
0.0
176
     0
 40
1.0
176
     0
 90
        0
176
     0
 62
    18
420
        0
176
     0
 90
       50
176
     0
 90
        3
176
     0
 62
     5
420
      255
176
     0
290
     0
176
     0
 90
       50
176
     0
 90
       50
176
     0
 90
       50
176
     0
290
     0
176
     0
 90
       50
176
     0
 62
   256
176
     0
 40
1.0
176
     0
 90
        2
176
     0
  1
strokes_ogs.tif
176
     0
290
     0
176
     0
 40
1.0
176
     0
 40
1.0
176
     0
  0
VISUALSTYLE
  5
1F1
102
{ACAD_REACTORS
330
1E7
102
}
330
1E7
100
AcDbVisualStyle
  2
Realistic
 70
     8
177
     3
291
     0
 70
    58
 90
        2
176
     1
 90
        3
176
     1
 90
        0
176
     1
 90
        2
176
     1
 40
0.6
176
     1
 40
30.0
176
     1
 62
     7
420
 16777215
176
     1
 90
        0
176
     1
 90
        0
176
     1
 62
     7
176
     1
 62
   257
176
     1
 90
        1
176
     1
 90
        1
176
     1
 40
1.0
176
     1
 90
        8
176
     1
 62
   257
176
     1
 40
1.0
176
     1
 90
        1
176
     1
 90
        6
176
     1
 90
        2
176
     1
 62
     7
176
     1
 90
        3
176
     1
 90
        0
176
     1
 90
        0
176
     1
290
     0
176
     1
 90
       13
176
     1
 40
0.0
176
     1
 90
        0
176
     1
290
     0
176
     1
290
     1
176
     1
290
     1
176
     1
290
     0
176
     1
290
     0
176
     1
290
     0
176
     1
290
     0
176
     1
290
     0
176
     1
290
     0
176
     1
 90
       50
176
     1
 40
0.0
176
     1
 40
1.0
176
     1
 90
        0
176
     1
 62
    18
420
        0
176
     1
 90
       50
176
     1
 90
        3
176
     1
 62
     5
420
      255
176
     1
290
     0
176
     1
 90
       50
176
     1
 90
       50
176
     1
 90
       50
176
     1
290
     0
176
     1
 90
       50
176
     1
 62
   256
176
     0
 40
1.0
176
     0
 90
        2
176
     1
  1
strokes_ogs.tif
176
     1
290
     0
176
     1
 40
1.0
176
     1
 40
1.0
176
     1
  0
VISUALSTYLE
  5
1FC
102
{ACAD_REACTORS
330
1E7
102
}
330
1E7
100
AcDbVisualStyle
  2
Shaded
 70
    27
177
     3
291
     0
 70
    58
 90
        2
176
     1
 90
        2
176
     1
 90
        1
176
     1
 90
        2
176
     1
 40
0.6
176
     1
 40
30.0
176
     1
 62
     7
420
 16777215
176
     1
 90
        0
176
     1
 90
        4
176
     1
 62
     7
176
     1
 62
   257
176
     1
 90
        1
176
     1
 90
        1
176
     1
 40
1.0
176
     1
 90
        8
176
     1
 62
   257
176
     1
 40
1.0
176
     1
 90
        1
176
     1
 90
        6
176
     1
 90
        2
176
     1
 62
     8
420
  7895160
176
     1
 90
        3
176
     1
 90
        0
176
     1
 90
        0
176
     1
290
     0
176
     1
 90
        5
176
     1
 40
0.0
176
     1
 90
        0
176
     1
290
     0
176
     1
290
     1
176
     1
290
     1
176
     1
290
     0
176
     1
290
     0
176
     1
290
     0
176
     1
290
     0
176
     1
290
     0
176
     1
290
     0
176
     1
 90
       50
176
     1
 40
0.0
176
     1
 40
1.0
176
     1
 90
        0
176
     1
 62
    18
420
        0
176
     1
 90
       50
176
     1
 90
        3
176
     1
 62
     5
420
      255
176
     1
290
     0
176
     1
 90
       50
176
     1
 90
       50
176
     1
 90
       50
176
     1
290
     0
176
     1
 90
       50
176
     1
 62
   256
176
     0
 40
1.0
176
     0
 90
        2
176
     1
  1
strokes_ogs.tif
176
     1
290
     0
176
     1
 40
1.0
176
     1
 40
1.0
176
     1
  0
VISUALSTYLE
  5
1FB
102
{ACAD_REACTORS
330
1E7
102
}
330
1E7
100
AcDbVisualStyle
  2
Shaded with edges
 70
    26
177
     3
291
     0
 70
    58
 90
        2
176
     1
 90
        2
176
     1
 90
        1
176
     1
 90
        2
176
     1
 40
0.6
176
     1
 40
30.0
176
     1
 62
     7
420
 16777215
176
     1
 90
        1
176
     1
 90
        2
176
     1
 62
     7
176
     1
 62
   257
176
     1
 90
        2
176
     1
 90
        1
176
     1
 40
1.0
176
     1
 90
        8
176
     1
 62
   257
176
     1
 40
1.0
176
     1
 90
        1
176
     1
 90
        6
176
     1
 90
        2
176
     1
 62
     7
176
     1
 90
        3
176
     1
 90
        0
176
     1
 90
        0
176
     1
290
     0
176
     1
 90
        5
176
     1
 40
0.0
176
     1
 90
        0
176
     1
290
     0
176
     1
290
     1
176
     1
290
     1
176
     1
290
     0
176
     1
290
     0
176
     1
290
     0
176
     1
290
     0
176
     1
290
     0
176
     1
290
     0
176
     1
 90
       50
176
     1
 40
0.0
176
     1
 40
1.0
176
     1
 90
        0
176
     1
 62
    18
420
        0
176
     1
 90
       50
176
     1
 90
        3
176
     1
 62
     5
420
      255
176
     1
290
     0
176
     1
 90
       50
176
     1
 90
       50
176
     1
 90
       50
176
     1
290
     0
176
     1
 90
       50
176
     1
 62
   256
176
     0
 40
1.0
176
     0
 90
        2
176
     1
  1
strokes_ogs.tif
176
     1
290
     0
176
     1
 40
1.0
176
     1
 40
1.0
176
     1
  0
VISUALSTYLE
  5
1F8
102
{ACAD_REACTORS
330
1E7
102
}
330
1E7
100
AcDbVisualStyle
  2
Shades of Gray
 70
    23
177
     3
291
     0
 70
    58
 90
        2
176
     1
 90
        2
176
     1
 90
        3
176
     1
 90
        0
176
     1
 40
0.6
176
     1
 40
30.0
176
     1
 62
     7
420
 16777215
176
     1
 90
        2
176
     1
 90
        2
176
     1
 62
     7
176
     1
 62
     7
176
     1
 90
        1
176
     1
 90
        1
176
     1
 40
40.0
176
     1
 90
        8
176
     1
 62
     7
176
     1
 40
1.0
176
     1
 90
        1
176
     1
 90
        6
176
     1
 90
        2
176
     1
 62
     7
176
     1
 90
        3
176
     1
 90
        0
176
     1
 90
        0
176
     1
290
     0
176
     1
 90
        1
176
     1
 40
0.0
176
     1
 90
        0
176
     1
290
     0
176
     1
290
     1
176
     1
290
     1
176
     1
290
     0
176
     1
290
     0
176
     1
290
     0
176
     1
290
     0
176
     1
290
     0
176
     1
290
     0
176
     1
 90
       50
176
     1
 40
0.0
176
     1
 40
1.0
176
     1
 90
        0
176
     1
 62
    18
420
        0
176
     1
 90
       50
176
     1
 90
        3
176
     1
 62
     5
420
      255
176
     1
290
     0
176
     1
 90
       50
176
     1
 90
       50
176
     1
 90
       50
176
     1
290
     0
176
     1
 90
       50
176
     1
 62
   256
176
     0
 40
1.0
176
     0
 90
        2
176
     1
  1
strokes_ogs.tif
176
     1
290
     0
176
     1
 40
1.0
176
     1
 40
1.0
176
     1
  0
VISUALSTYLE
  5
1F9
102
{ACAD_REACTORS
330
1E7
102
}
330
1E7
100
AcDbVisualStyle
  2
Sketchy
 70
    24
177
     3
291
     0
 70
    58
 90
        1
176
     1
 90
        2
176
     1
 90
        2
176
     1
 90
        0
176
     1
 40
0.6
176
     1
 40
30.0
176
     1
 62
     7
420
 16777215
176
     1
 90
        2
176
     1
 90
        2
176
     1
 62
     7
176
     1
 62
     7
176
     1
 90
        1
176
     1
 90
        1
176
     1
 40
40.0
176
     1
 90
       11
176
     1
 62
     7
176
     1
 40
1.0
176
     1
 90
        1
176
     1
 90
        6
176
     1
 90
        2
176
     1
 62
     7
176
     1
 90
        6
176
     1
 90
        0
176
     1
 90
        0
176
     1
290
     0
176
     1
 90
        1
176
     1
 40
0.0
176
     1
 90
        0
176
     1
290
     0
176
     1
290
     1
176
     1
290
     1
176
     1
290
     0
176
     1
290
     0
176
     1
290
     0
176
     1
290
     0
176
     1
290
     0
176
     1
290
     0
176
     1
 90
       50
176
     1
 40
0.0
176
     1
 40
1.0
176
     1
 90
        0
176
     1
 62
    18
420
        0
176
     1
 90
       50
176
     1
 90
        3
176
     1
 62
     5
420
      255
176
     1
290
     0
176
     1
 90
       50
176
     1
 90
       50
176
     1
 90
       50
176
     1
290
     0
176
     1
 90
       50
176
     1
 62
   256
176
     0
 40
1.0
176
     0
 90
        2
176
     1
  1
strokes_ogs.tif
176
     1
290
     0
176
     1
 40
1.0
176
     1
 40
1.0
176
     1
  0
VISUALSTYLE
  5
1F4
102
{ACAD_REACTORS
330
1E7
102
}
330
1E7
100
AcDbVisualStyle
  2
Thicken
 70
    13
177
     3
291
     1
 70
    58
 90
        2
176
     1
 90
        2
176
     1
 90
        0
176
     1
 90
        0
176
     1
 40
0.6
176
     1
 40
30.0
176
     1
 62
     7
420
 16777215
176
     1
 90
        1
176
     1
 90
        4
176
     1
 62
     7
176
     1
 62
   257
176
     1
 90
        1
176
     1
 90
        1
176
     1
 40
1.0
176
     1
 90
       12
176
     1
 62
     7
176
     1
 40
1.0
176
     1
 90
        1
176
     1
 90
        6
176
     1
 90
        2
176
     1
 62
     7
176
     1
 90
        5
176
     1
 90
        0
176
     1
 90
        0
176
     1
290
     0
176
     1
 90
        1
176
     1
 40
0.0
176
     1
 90
        0
176
     1
290
     0
176
     1
290
     1
176
     1
290
     1
176
     1
290
     0
176
     1
290
     0
176
     1
290
     0
176
     1
290
     0
176
     1
290
     0
176
     1
290
     0
176
     1
 90
       50
176
     1
 40
0.0
176
     1
 40
1.0
176
     1
 90
        0
176
     1
 62
    18
420
        0
176
     1
 90
       50
176
     1
 90
        3
176
     1
 62
     5
420
      255
176
     1
290
     0
176
     1
 90
       50
176
     1
 90
       50
176
     1
 90
       50
176
     1
290
     0
176
     1
 90
       50
176
     1
 62
   256
176
     0
 40
1.0
176
     0
 90
        2
176
     1
  1
strokes_ogs.tif
176
     1
290
     0
176
     1
 40
1.0
176
     1
 40
1.0
176
     1
  0
VISUALSTYLE
  5
1EE
102
{ACAD_REACTORS
330
1E7
102
}
330
1E7
100
AcDbVisualStyle
  2
Wireframe
 70
     5
177
     3
291
     0
 70
    58
 90
        0
176
     1
 90
        2
176
     1
 90
        0
176
     1
 90
        0
176
     1
 40
0.6
176
     1
 40
30.0
176
     1
 62
     7
420
 16777215
176
     1
 90
        1
176
     1
 90
        4
176
     1
 62
     7
176
     1
 62
   257
176
     1
 90
        1
176
     1
 90
        1
176
     1
 40
1.0
176
     1
 90
        0
176
     1
 62
   257
176
     1
 40
1.0
176
     1
 90
        1
176
     1
 90
        6
176
     1
 90
        2
176
     1
 62
     7
176
     1
 90
        3
176
     1
 90
        0
176
     1
 90
        0
176
     1
290
     0
176
     1
 90
        1
176
     1
 40
0.0
176
     1
 90
        0
176
     1
290
     0
176
     1
290
     1
176
     1
290
     1
176
     1
290
     0
176
     1
290
     0
176
     1
290
     0
176
     1
290
     0
176
     1
290
     0
176
     1
290
     0
176
     1
 90
       50
176
     1
 40
0.0
176
     1
 40
1.0
176
     1
 90
        0
176
     1
 62
    18
420
        0
176
     1
 90
       50
176
     1
 90
        3
176
     1
 62
     5
420
      255
176
     1
290
     0
176
     1
 90
       50
176
     1
 90
       50
176
     1
 90
       50
176
     1
290
     0
176
     1
 90
       50
176
     1
 62
   256
176
     0
 40
1.0
176
     0
 90
        2
176
     1
  1
strokes_ogs.tif
176
     1
290
     0
176
     1
 40
1.0
176
     1
 40
1.0
176
     1
  0
VISUALSTYLE
  5
1FA
102
{ACAD_REACTORS
330
1E7
102
}
330
1E7
100
AcDbVisualStyle
  2
X-Ray
 70
    25
177
     3
291
     0
 70
    58
 90
        2
176
     1
 90
        2
176
     1
 90
        1
176
     1
 90
        1
176
     1
 40
0.5
176
     1
 40
30.0
176
     1
 62
     7
420
 16777215
176
     1
 90
        1
176
     1
 90
        0
176
     1
 62
     7
176
     1
 62
   257
176
     1
 90
        1
176
     1
 90
        1
176
     1
 40
1.0
176
     1
 90
        8
176
     1
 62
     7
176
     1
 40
1.0
176
     1
 90
        1
176
     1
 90
        6
176
     1
 90
        2
176
     1
 62
     7
176
     1
 90
        3
176
     1
 90
        0
176
     1
 90
        0
176
     1
290
     0
176
     1
 90
       13
176
     1
 40
0.0
176
     1
 90
        0
176
     1
290
     0
176
     1
290
     1
176
     1
290
     1
176
     1
290
     0
176
     1
290
     0
176
     1
290
     0
176
     1
290
     0
176
     1
290
     0
176
     1
290
     0
176
     1
 90
       50
176
     1
 40
0.0
176
     1
 40
1.0
176
     1
 90
        0
176
     1
 62
    18
420
        0
176
     1
 90
       50
176
     1
 90
        3
176
     1
 62
     5
420
      255
176
     1
290
     0
176
     1
 90
       50
176
     1
 90
       50
176
     1
 90
       50
176
     1
290
     0
176
     1
 90
       50
176
     1
 62
   256
176
     0
 40
1.0
176
     0
 90
        2
176
     1
  1
strokes_ogs.tif
176
     1
290
     0
176
     1
 40
1.0
176
     1
 40
1.0
176
     1
  0
DICTIONARYVAR
  5
7DC
102
{ACAD_REACTORS
330
7D6
102
}
330
7D6
100
DictionaryVariables
280
     0
  1
1:1
  0
DICTIONARYVAR
  5
7D8
102
{ACAD_REACTORS
330
7D6
102
}
330
7D6
100
DictionaryVariables
280
     0
  1
STANDARD
  0
DICTIONARYVAR
  5
7D7
102
{ACAD_REACTORS
330
7D6
102
}
330
7D6
100
DictionaryVariables
280
     0
  1
STANDARD
  0
DICTIONARYVAR
  5
7D9
102
{ACAD_REACTORS
330
7D6
102
}
330
7D6
100
DictionaryVariables
280
     0
  1
Imperial24
  0
DICTIONARYVAR
  5
7DA
102
{ACAD_REACTORS
330
7D6
102
}
330
7D6
100
DictionaryVariables
280
     0
  1
Imperial24
  0
DICTIONARYVAR
  5
7DE
102
{ACAD_REACTORS
330
7D6
102
}
330
7D6
100
DictionaryVariables
280
     0
  1
1
  0
DICTIONARYVAR
  5
7DF
102
{ACAD_REACTORS
330
7D6
102
}
330
7D6
100
DictionaryVariables
280
     0
  1
15
  0
DICTIONARYVAR
  5
7DD
102
{ACAD_REACTORS
330
7D6
102
}
330
7D6
100
DictionaryVariables
280
     0
  1
0
  0
DICTIONARYVAR
  5
7DB
102
{ACAD_REACTORS
330
7D6
102
}
330
7D6
100
DictionaryVariables
280
     0
  1
0
  0
DICTIONARY
  5
1D8
330
1D7
100
AcDbDictionary
280
     1
281
     1
  3
BUMPTILE
360
1DA
  3
DIFFUSETILE
360
1D9
  3
OPACITYTILE
360
1DD
  3
REFLECTIONTILE
360
1DC
  3
REFRACTIONTILE
360
1DE
  3
SPECULARTILE
360
1DB
  0
DICTIONARY
  5
1D0
330
1CF
100
AcDbDictionary
280
     1
281
     1
  3
BUMPTILE
360
1D2
  3
DIFFUSETILE
360
1D1
  3
OPACITYTILE
360
1D5
  3
REFLECTIONTILE
360
1D4
  3
REFRACTIONTILE
360
1D6
  3
SPECULARTILE
360
1D3
  0
DICTIONARY
  5
1E0
330
1DF
100
AcDbDictionary
280
     1
281
     1
  3
BUMPTILE
360
1E2
  3
DIFFUSETILE
360
1E1
  3
FBXASSET
360
698
  3
OPACITYTILE
360
1E5
  3
REFLECTIONTILE
360
1E4
  3
REFRACTIONTILE
360
1E6
  3
SPECULARTILE
360
1E3
  0
DICTIONARY
  5
50F6
330
203
100
AcDbDictionary
280
     1
281
     1
  3
ACAD_ROUNDTRIP_2008_TABLESTYLE_CELLSTYLEMAP
360
50F7
  0
XRECORD
  5
1DA
102
{ACAD_REACTORS
330
1D8
102
}
330
1D8
100
AcDbXrecord
280
     1
270
     1
271
     1
  0
XRECORD
  5
1D9
102
{ACAD_REACTORS
330
1D8
102
}
330
1D8
100
AcDbXrecord
280
     1
270
     1
271
     1
  0
XRECORD
  5
1DD
102
{ACAD_REACTORS
330
1D8
102
}
330
1D8
100
AcDbXrecord
280
     1
270
     1
271
     1
  0
XRECORD
  5
1DC
102
{ACAD_REACTORS
330
1D8
102
}
330
1D8
100
AcDbXrecord
280
     1
270
     1
271
     1
  0
XRECORD
  5
1DE
102
{ACAD_REACTORS
330
1D8
102
}
330
1D8
100
AcDbXrecord
280
     1
270
     1
271
     1
  0
XRECORD
  5
1DB
102
{ACAD_REACTORS
330
1D8
102
}
330
1D8
100
AcDbXrecord
280
     1
270
     1
271
     1
  0
XRECORD
  5
1D2
102
{ACAD_REACTORS
330
1D0
102
}
330
1D0
100
AcDbXrecord
280
     1
270
     1
271
     1
  0
XRECORD
  5
1D1
102
{ACAD_REACTORS
330
1D0
102
}
330
1D0
100
AcDbXrecord
280
     1
270
     1
271
     1
  0
XRECORD
  5
1D5
102
{ACAD_REACTORS
330
1D0
102
}
330
1D0
100
AcDbXrecord
280
     1
270
     1
271
     1
  0
XRECORD
  5
1D4
102
{ACAD_REACTORS
330
1D0
102
}
330
1D0
100
AcDbXrecord
280
     1
270
     1
271
     1
  0
XRECORD
  5
1D6
102
{ACAD_REACTORS
330
1D0
102
}
330
1D0
100
AcDbXrecord
280
     1
270
     1
271
     1
  0
XRECORD
  5
1D3
102
{ACAD_REACTORS
330
1D0
102
}
330
1D0
100
AcDbXrecord
280
     1
270
     1
271
     1
  0
XRECORD
  5
1E2
102
{ACAD_REACTORS
330
1E0
102
}
330
1E0
100
AcDbXrecord
280
     1
270
     1
271
     1
  0
XRECORD
  5
1E1
102
{ACAD_REACTORS
330
1E0
102
}
330
1E0
100
AcDbXrecord
280
     1
270
     1
271
     1
  0
XRECORD
  5
698
102
{ACAD_REACTORS
330
1E0
102
}
330
1E0
100
AcDbXrecord
280
     1
 70
     1
 90
1959938040
 71
     1
  1
C78627C1-2952-4250-AD13-4433CC6D3613
311
504B03041400060808002249EE528CA2DDAA35010000A80100004F00000045394646434135312D324339412D344237452D384246362D4437463232453434324342392F4173736574446174612F446566696E6974696F6E4974657261746F7250726F706572746965732E62696E35504B4EC330101D588058B040E2002CD89A
311
241E27699010CA97151B38007283A7AD94A655D3882D4BAE3077F29D8C2DCA48CFF37B33F3E41F007027F3219C797CFBF7DAFB17339AC3A67FEFD766ABE1225486DD520FF73E2ABB58658D94A22D168D50599A89AA4D5391C749829D8A2B55C973CFBBF4680CE979388695AF9BA937C3A047B39BA71B5F38DDB8DBEAA3BFA5
311
878730740510DCB707FC37A6B069F5A72888FCF2D09FFBC7673D4DE6F814B545D7D5659A085917A55055DE8A45D565A2C93B295BA5645D15D19B9976F3A1375354E78B4CE6B5A717A9144AA6B1289B04855288759D359825181DD773F89ADB206339EACD10C5D149C2C77E5C31A12574444084148C892C912306620C1933B1
311
257664812C86A665B296AC2307E4D073C931394BCE31000386516006CBE0188111C326FC05504B03041400060808002249EE52F6B7F04515010000300200004500000045394646434135312D324339412D344237452D384246362D4437463232453434324342392F4173736574446174612F496E7374616E636550726F7065
311
72746965732E62696EEB606060F80F0540260323103700495E20ED9E9A975A94991C9C9C919A9BA802147036B73033327736D435B23435D235313235D075743134D6353131367676367331363334664768046931363471713532B5D435052AD235313332D475727372D13534373670367376B67474B5042A03DBCBA019D37F
311
E8ABC6157B20CD04146B0062181F4C03F940F0C11EA29A8141C08141002C0426541C106CAC2CA046088033B02A030AC2157C6006F21A8018AAF50194E6010A610250382264E08660284CD9E98021862280A91564B406929A0FF62C401E28B6F88038B83CB1243943D7A928312F25350524030321A91525F1AE29E9A9FE7E30
311
2114DABD28B120233EC8DD29A0283F0D4506C281C8BBA4966526A70255310000504B03041400060808002249EE5288E57597CD3F0000904100006B00000045394646434135312D324339412D344237452D384246362D4437463232453434324342392F5265736F75726365732F43373836323743312D323935322D34323530
311
2D414431332D3434333343433644333631332F7468756D626E61696C2F302F67656E657269635F706E67355B773CD4FF1FBF73E71C0E67EF7576C9DEF3EC995D46C6A1EC5046649CBDF79E192942562825CE965D8A868C2842C8DE9FDFD1F7E7F138F7078FCF6B3F5FCFD7EBFDFEC41B196891913091804020321D6D7513FC
311
77D8C5070EC3FFEE51B21F068154CC75D455CC028A3EA68992803810109FDDE5D5CEC5521B28A1B422BF80741695D5B529DA1C2D058AD2388BDA9F476F7C2CADC939304173DBF48A452BF8A700C0C70C3D121C1AA15A5270C22E2B9E28763651F7DA0D12CE11077B2ECD0D560B5E3DE2368B1E65C5E1C87384A4CC5F2D9FB8
311
BE39E9B77C753783A37998F5CEF1B4FEE553463245C9712270880DF339E0B882A6BA713D865F6F384C842D440934EF264F4A304F8DE4EEFA1E2BF5E2D91F5ADD9613D6E31DDB33ED31DB1D7916CAF091286EA3D31B9CFECB78BB0060245B943C4C040119FF780A74DD308BA9D028678674EB5504ECF284EE814DAED07440BA
311
F649BE4B55DA2890F4D73E2D489A59EE54FDB0A85B59F2F52C4858A02705C4815A792B0C4A996A2023ECB195073E115E3E3647F64243A8338F2000BCB58DA5692C7E7C3D413F963FEDF3CF00FBB0F831A9D51360FECA43819F527B89FA260EB63C5DA676830AA3626A3693B23F1A17A0DFFCE3EE164E31B5365EDF0C89EF64
311
D8E38AB0BA9A1117D7C3A0EC44F44F4023095E80BA610DE336D0F99593A88BFC5306E72DF98F7FD132ED95878DF2964EA7E43071359FD83B2BDF9C6B5BDF768F0F3C0FC351199526F53D9460A34511F75D1B63E488178569472C91A94497807A3FD4A390C6558F26D416365C3656DE6E769DA9D8FC73774E1709812842DD8E
311
F96AED1960F79D21B395CDDFE6F92CB4EB962A4668C76990E2EF29798C8941D67DA50F4A5F947872460F1F6FDB794E8A29FD7AC0C0D6E0714339CE258FB17AE8535221E3464A10F29A0BE5EEECEFC5675926A89F49EB14E5711894F6586DB5754EB4D5DA9C6437EBA57DB97A24F8B8A8DB295FFD73266CF57E82694DF5166D
311
DF93573AFE9C9C5EB05F8FEF8E89E0A8917B0B3724DB7BEBB53252581EFC3E38166BA131A3A5B42FE2AD00A769BBFA4458D2DE7822F8C4F63D0B8E21B285AE13325F3410A435C648C9D91FDEB109E73CEDA7BC796961AF79175E1A3CE4C5E8B0D009B0C9E29EFD98BC8E97554E3D8D838424E270F7685226E5AC268E021EDE
311
3522D583E8F20C0BDE2959EF5BBFEEDAB32FE9A3ED0E39F211A86AA9DEBFC68182EDED132AB8BB794442D2D7EA9F4D8BFF52BC4D55BB165124EE90A42D101E67BBBB292FFB4F66DE5BF2300E44546757DA7CEF8932BFC9F92A0707953491A55C5A5ACEDABD9FA1AEA01BAC3DC5A24E22E7C47213493996EFBC369D086ED939
311
7C9BA6C7F9855C7BD5E15BFC8C53DB3D2A4C5901A57ACD2FBDF4D1676E95338B2C2BCE65FDA4C64F5FEFDC7D9CA5AA1FCF11E193F2FDABF0F4916BF13FB916A224380E6462A9815F2300DC49CC4DF8D055CEF76462F4B7A7ACA7365C2707891370BC1D0AA6203C44CCAB47084FEC057F27FFCD57F89B8B9852459798A675C6
311
6BD7CE572CAF71FF7E6D7ECF7BF62CAB7B3F1107DCD04DC55A3F9961700286141C94A4F771FEB2BCDA2DDEE0CB0BAE402FF1DB0100F8E475DFFFC074DDB4498AB7D186A7654DDB1CB680D703D47CEB4E72F8CB13D86A4AA68116E26387B93FD6738779B34FEDB8E517EDF2BAF28D9BE93A1D3A164320E07D42E514725C2951
311
5FF361754213EDE06B079A2E99EB1CA82A02019EADEEB87B9AF005BD04BBCECB14AACD6B24EFBE482194A97DD32400685FF1FEF1544D1B14EFB1E7F08E6D2CD2AF52DE757F35F5E62332EE88EA26417AD5C3E0E319D68F25414E6D672BD4522B278C57D18F0113921C71D96527E091F00CEB15AE23D24667369BD3CEFA10C7
311
549D930890BA4366F4EBC55F01F746109F98ABCDD5A3EE06619C6AD78AB33E48E4C9BD21BF7478B385EC05C4F8987E2C1BFA0A60EBEDAA0AE0B015C2720ECE180FB6F2DEFBEB822D96338C9B63822183BBF52FB664A7AE57003AABCE512BF77E7E31BDA2E739AC4C131657DDFE5225E900FB56CC01CDE808FA4A9C9DA16AC6
311
79656BB64796283D89812B8F91136AE18EE5EBBAF47A73BE3C153EB5D4CD491B4BFB4FE690A4CF9ABA08C0D8AA64220C438C96EA6CA80B58FE5761E697B3A292EB9FBDA502FA863E49FE694ADDFFF9D62C520BDD1A22014147A0903A05B9B729F54272EF83931FEEC057BFF8C8055C279EAC5C0011804828734024F6CFA319
311
C9CC6867C727184465CD9BB7ED386AFFD96B294A85E3802FAE47244602D8273615952B98C4F23F7EAE4463D9D638EEE374A20959E0FE519C4CFB0FBFE5DD80C2AA3F9DB961D1BDE57E67C9BB47B77FDD74EE3094F5DBBE3EBC1FBDB7393F5116263009E2EFE1AF9A221B2AE234C902BF70E9F280ED23E73908361565964333
311
A3F01D0B006AF32FB21AA1316744B489D5A198E85299241735BE559675130955C902A8ED761FC0DBE337A9F91919AF5CE32AF902ADF9AB2615E00E8A94586BA1A90839B61832FF1BFB76D2EFADE6DB1BA04CCAD3DA649E7E2A0219F592E22F2AD54847EEA8E42271011E9074F8F3DD9FBA6CDF88FFC9FC7E811AD1CA8F4557
311
CE4AFC7BBEDCF0114A48689F20A584520C74DA8127124B767E2FB91A6B186246727BE63C9445BAE02088D58B8EFDC0F1072407CD9B89A13F6303B4A928F593AD489B58E6869325790ADC406036C591729FE14021F94B7796BB11848D463536A092A26F077F94639F7CEEE2A724C66EC885F4A24F8B8A0AC321F8FD149BA529
311
460FAA34E4663C02D41FDF80BCA222D42F0ABFF8490F4FA74C673807C2051D8E467B47B616072860069A9A303ABA9B319D58404461401B0A0F9BE5E1E151C14BC33B32ABE03DDE91708DFAEB15E7C0D593C86BB7D7EC17BE56E57975F077BFD5525F3A1A361D584A75E08CF29FC7B44B2B3085014F3A5A14517377C3F6B8F3
311
7E59514C3B12F8AACDEDDA4DFC49BE5710101534CD6FB6DE15B50F11A09472AABA727F0C49D9CB906B158030065F48EB3625E010CEC1D511D0053474B11E6A4F01C0D6EF1BED3A944FDEC70E0DDCDC756C86545910E0DAE3BE3AA9A404574C2995CD5CAF9549226BC94B4F4F0F5F9086F418F6B32346464610D8BC7391D3C3
311
A3CCF04CFC1FB2A3A3170E369511868F14EEA4E5E438CC73DB1F3248AA94B6B2FF33B222FF3D1E7BF146CAD229770158063BCE4F5391964DF62F7E52A7BE0EEA829C9E13C4C147D6F93FE59E111DAB5E4594D6F3CD1AD375EE039930EFE5AF2BB2D41C83C7DABD8C659BAFBE8FAB392CA634F3D15C1D945DB4588D2B0824A4
311
EC928AAC565557CA2F0DAA588CA5BE30B3A8004F7BF005E96CBF891D7F18112A3619FDF530DC8AA64954258E1811789B5189B49B4EB53F5F89F7D37523894F3EB57B373763C91E502F52CC99EB7BDDF933FC324C4FFC2561DFFA7339FAFDD0A4BFBE6D3A8FF9ED1FC49898139864602458968913181918F719CCF5A68B2EE9
311
C1FF050E34E63107003B8120FA982C21B30A874E4F5E4B38D5A8290C4B8D9BE48A0BE31EA995BDC37AC6DE90BA17D259DEF53605D55922FEB1855D915B659FBEB350EE0DFB2F9F766E1C84CC8964B75D08667445EAB966015F63A18A9E0A325C1B3DC628C0D3CB60F767FA93CC65F25458BD23C3B312716E5F40E5858AC06E
311
BA9AB14F95DB99147B832069201541D09A0D856E12C629CF32683760EE855537D1901988D5EBC156676C7DD51D7207CF3267AF1D76C2AD867315E44618015313A98B19941C696FED3461CAA9B5415F918556D7802EDACEFD6B2E45853A9735DFC9DBF7E440F9319F8B6805A973BCCDC76C069A9144E51F187EDCC12FC31B5D
311
EAAF0A76137199B106EC84ADA6B6EE697D4E6A96E007417F4E880E8B1E89B4BCE9D81EF611E2ED8F0C1A6C25F620FAFAAB656A7C42D464880E8AFAB0E0FC8EA38CA9A8AEEAEE3E4648BA4680270A89743CDD3E6C6CBF34B7B640EFA285ABC7EA0A1E28F3CC963D114A80123EE66D0AF7D5380EB41909B605AB4765B709B808
311
590458157E69BA1378FEC4B48CAF6A730E3BE3C5EF2DD1A5EAF94B1DDE50CEB55DDFD7EE9A16747FA4B223359FB1FCC69E1194892BABB93A1D5C4E807AC0EA2E30180811E77A2291F6E7F7FAA5E0F60215BC6024E48DE436C511F0628B8CA189982D4D83CCA17D305A7E923C37941CFDFDCD93ACAF735EF5F0E61BBD3E6C41
311
A59B242790D3A3BAC7064DCD89AA2E37214EC839820949D5CAA31E240D2948E48F690298974A96BA9A8432BC90F5071D6537C9666EA4564796B7AFFFA548077BEEA75F63083435074BA182F3699557397F71548383FDA8CA34D99B981E72835ECDA5DDDC151315173D05A21F651AAF8524E88209E2E7A737ED1045800CE339
311
0050BCFB8BE588DF111617874C62575039CA588EEFDEFEFE319B739DE2EDC147092A262611E159650E787917885EF08F1F51B8F2D8A71D60B58B190FEF9541A1BE94BC19FEA50784DA1419FE4B0FB51B8D36B5FF8E1286FD8AF42B91E59A5F1CC4D60174E764045FD8C57B18209B217F89A62252BD20BE0E63E12B8E8F029F
311
E19E0E8D0870F58721A557082250D5424F7909369376E41666C0EE77CD87CB283F661D5FB6D0DA023CB67320A20DC7BE661E9E1BFE5463085C557DA1FF9BE835733766C3D139F2CF9E2208873AD0EB4814DE9E6BF2CAF81614D4D43906ED1C05A3265CABBFE192770FC2F64F940CB6B17B5F166F133C9AEEAD2641807C3E69
311
515171DD74C4A85311513D6EC9530B3B601B6BA3EBFF3B5C3D2F7D69765141E345F75433953D013ADDF8F6AA7DC3F4A7563FE5C7D367937E2900D7EAD0F9FC9A4A1A9B5BDF1FEF08532660C01C5D6DE22199AA774383E306DAB87E301ABB7D213887F9869D4942D0D71E94B27EDF216A318BD488D45DF84529EF575AF3C393
311
8C0AAA0215B01994153E2054A0B894DA5C784980633AAD48576957CF4AEAEAFADC7C587368551C73DBE1E57C58AC713303A8BFC258BD04B51724459FF9E24C03A81E0E0679CEB9B348C0DC998FEB9C6D6EFA77D247CC8F92D3848599ED89A23218D0636465AD1CEEB7DC140D7426F83491C4E8E8281C2FB35240918FFECE88
311
0CA2A42D70E8B20B34DF5221C7DB0CF90ECCB9C745B37A47E9B716FF7A97B7A252C1F3814DC7B1E1A7F72B8751D524EF7CAE45B0C73B3BE7D08ED39781B380DDFC9AA4A4749C9493DB5BAD07A6EA6C092FBD0E85DB004DF06B8C9D3089C5320187E4CE1846158C7EA7DDAE8AD9AFFF21AA3A1026BB06A259845E8232DEE628
311
11A4DA9CEAB3A4887320B76E2AE5615EAB7BDF738CBDD01F1E64064BC13D9EC53576751CA8CACD58B3CEB0E6CA585BD089B2A59B9FC101403387AADBDBE70586B93D64BF3AD4453EF9C3B6A93817E8346991798601344F79A83C51F3D50F7BF2683A3605F51A72449489E0EE6169C749C60B1035651103AEE24D24E51A759C
311
840DD3FC6504DA6FE107510E447B43461C79D22970B75DE5E1BD3007D1AFC619A4A4A69B5626AF5E9B8374E20677F77E2F8E73DF868E8BEC7EBA7B6A75EEF7205E1AB9486CB642741D6E03FF13FCCEDB1C4AC129886268B01CDF4B124AF797CF784F3C6DEC97A17D4B558070A0F1C04DA4FF9BDBF34159AEFE958479824B3F
311
58EBD1E19088A2AFDE501B6F2052368A3FD0E650A179EFAB1561E1D27527077136E652676C3670F42DCB3352F48F6BC86D2C3B0051727E41A0A4DC6CE2BE9D47F5CAA2935A3C0539AF080665997194ABECD723B08129CC5B6B21D2E7D54CD4D12610E7E9FB8306771A89576C7A982002775ED44F3F744CF21EEBB27A631671
311
D921938AAEE3EB0D19CD1E083727F607823E817BF599DCED5394E37EEBC2E88782E638920CA641EF74D4CDFCDEF06F4278ECB18E31E7E9876F2D783C8BF429C75395F57E98C2B495A3DA077EB3AC3C158608B6B57FE3EA48484D9A480096FCEE0DE880950E7E5A5714131C5C41AAA29FD19AE81AC145FA1B9E85C7169A5AB8
311
37B213493DF7E9AA4B5FBF9CDEB36EBD21EF1181B7CF7366AB2A951D01E37AF4EB835D1BE8C117CFBE7625D2EBCDB0B20C5A4B45CED0BCDE3EE8DA9DA78C2E21DEAAFFD1197E463C33CC6A80FB785669B856EFF7A8CCCA2841B5A5369173320B1170C368B2748D81062EA0296E5E2D95D7667A4A46D98A6FF475C76AAB0A8C
311
8D45E226FAFC9FE0133EA9F60111F99CA81ACE03A1D14C89E8B0D69079C91464FA1D99E651D0EAF606F345C42A8A1AA9BA391031582B96D5B4176A77AADB01F12FD298A75DEEBB2C82F0B8650E880722F8DDD90C56A7A058E5FDEF1AC93545BA27367C76F5D8F9690CB6F8DAE141EDD7971F0FB548A2AE435F224D6E5954CA
311
155512F7332029D5A1230854B79F258EC5FFDB09F5F6343A8EB193229B7F7E79B3E48F8E183860B38C8269D1B53738FF1E0BACF6AADA6D4869E9DE708E79B5DADCC09B1BC76F649731CFAF59A83FD8BAE4C749D66FA87A3810D4D62FFE826FA400C0F325D2BC0F3CA35F5847B82A2ACC7961745C823E4D863D54460AF792CE
311
6F79B5C7A33B25C3AEA6CDE15A919B6367D781E9D44F61BF828672594A3E1D9EDD6DF179A81F27EAC05B936575D73E05C209DDD2115CFB705DF9BBF3C911589B3640735E9E618FC9C36A7326C82B2205E244C55D56FDB9D5DC93CE958D4BF8174D2B3DA54CB3C09F2C2A6DFF73D23B2197355761AD421EC581284A7EF8DE2C
311
E3497C0C804D49B41DFD6A7360844E5BEFFB495CFCDB97A4595911CDBA623274CE852B5E278AF0BEB1770E9D37CD977B2766A7DED0E94B840E1E95E8C77DE5CB6354AF7871427C28ADBEEF7BA0A28E19DE9ACD75F379FE373EAE6DDDAE3834692F9C2B03B4FCA8FCA9ABE8EEEBEBB725B88A7C90941E850682CA04061A7DF0
311
CE82ED49BFAFFD42C309818FAE14755CAAE78B0F73243ECCCAD7DF58FCB9CDFAE7A4D3E6671A613639130D056C8383C8F4FCF4808C331E544DD26E4755D09EA05253B3049A1E32587CC25D72E073E2CD96D04A71BBCB0038FEC3F53D254199C3CDC67CD66640269431860225392B2CB3ECD0B4498AAE78BA1994246AE1EE78
311
F2EDFB79F6C6CB6B5E279C4D373FBC21CB2698C9ACBBEB6A4BB6B39E16AB0E421CCBFC7654D81ED86022F9BB522146F9F4772E2D0E4FA70120C95A85A417BF5078B232F4754363EB1750B2AC2148EB46B1EA72AD9B4D23ADCBC589D70106C3EC2ABEEED84DFE28E718C6C83502C28E9FDD3B09DA0A6F6F7B72B706A31C9E2A
311
331EE70DA56A083D2177BFD63C55B11D8D949FAFCF90B23A1E24B9B5018B9A17E99F2890EC302F330FE7936E2C23F0D237EC8916F5166AB84B62A21BB0B950146962D754F92CC2C8877BED8FC7B7B25726DD19545392570B3A2C66B58F027BEF412E552D12A588C4A3CC5C3193FCB3485EFFF700D0B9EEC077754A33DC1FB9
311
E25AF814628F91DDFECB667D3F7690803F38D13F8AE39353523BB08FC6760144AFA2CE28236F65EDBB3D5F59A57D612B99E3D7E5F8A851666BF9B5A6658EFC96EEB37A378ABB0EB3FDDF1303AF32C41BD1C8560745D7BD81066B0D6313359CF488563D3BA3F8E2185D1FAA3EBA1397C9D0E3DD232180A4DCADB6AF25DB3AC3
311
CC26589C8239E66E81547BC7E2F328F9884764CA37EB5DBE390DFC03A5246B456A7C3684C4377D0EEF9A350680FA9A077E8B2957B489E09AB1AD41316944C2254B5984830F691C93CAA767EECF976FA5647538830B5E63236A6F0365C1E0F3E327F24FE35EDDBD7360B0F7374837409F7A6311BECC12B7026D4FA1AE204FA3
311
F5FE904B1F420C7A9044AE58E403E7C4848E7DA25DC9EDAC79DD756FAA26B9EA83ACE8A214A2612A22AFA19DAE7DBAC5F8CDE1292A485F98DAC731A29FE01A3966E96BCB9FB5A4C8830E1B9AF0C54B87FBE221A097036E5D28D1F869F810C06A9BB0AC0612F69AEBAF893C6E7AD59460208BAB3A6B09CA4F6BDDAB8CF0D1F8
311
4B72487498395A70DCD754796E271099A567A55CF242BBED64696378BB6CF25EF0FCDB589F3A82F1116D010A9AB9FA4358809EE0C973A2B4229BAA876A70B03AB49CBA7FBE71DB1832FFD32F9BF2C8E98075CACAFB36921235D0F552B6A67E94E094097A5D7DF681B40623DA535ADA7A9AD8E9A62407D7C9A5AE51D62A17A8
311
3A23728DE86BB56115804D3F2675F2C6B87541A0FC497BF0CA86420F558C9859EBE9FAD62747E323E3AADC03FDCDDFE7407B09DA90B44E3185723C5381EAEF589765E2F7A099BA46695BAD60CEF3491B8A171F5F56444F7CE9455312C3498C74173AEA0214EC029833B34B650CBB5A5508D5091665309642791708ECF27CF1
311
1DB3D797D6CFE474453BD4BFADB768094B2147814D81C7CBAF8228DCAF5564B5891F5EF6A860EB2E323CB82AB868D8EA048880D63B0DE5341F1B3D53297B928A11E15F25E5148990F710747C3509ED14909C552EBE3973246FCE55D00564D8310BC3EBC5085D08D806799B77D6C57FDF5E55837F9E934F09C03C729271B64F
311
12D0A9F9E938107CAF7BF1EC8CF1BB9B42363D33070F4CACB425E605DDB0A34A12BB936DE286B9887A4E2E558F0886498BFF49C311D96C277CF6A9FC0D75AD0ECC5226D7E0E3572012E56D7FDE4410CEC7A6D0F997F225A2055B8B92E3956E875AE4993CB3D4C9063AF98FD45E1BAB165640A43439A2C9181A7C355B297C0A
311
0CCFFAE19B6FA3C2BA238A885FBC98B8F6DAF4B94B97304878DF4D8BFF6A4AEDF79E90ED4E68F00CD7299F4E0D83E35601AF0CBEF18C1E870E74758FA91F5131075004DB3CFCF09AE1DABC11957FD9808C92E8A678CE9DBE40DDA0E0D1D505AAFBCBA208232BFB6FB3704E8985E61ADE53DE74152F5C7DE74B1DEDCD37DC3E
311
8FB30D7EBA8B9EFFC3606BF90B8D438279CB7709FC7C00D327F41817EEA71CD9E49FE9C8C9A81C70915D9F0F15958EC5AA4C3BBFAF46986B90F188BDB24B89DE3C6F29EC3E6F66D84856EE96A35E657CA41B41EFD8DBFA16AD6E91439EA92B40B21C053249F51AE50EB0B24C770FFAF40DF12C8436366819C48E36547D4E7B
311
72FE2BBF10828583057814A668BDF183F6B2E58DFB151103E56303E63D00F39C27C4661605DB644D19175D02E3F0241E8FC3458D17AAAADB117CE9EEA690D0DB01E634878C04C2C9310B69FCAB831151E3AD293BEF6E46B0ABCECB50F5939B39C613D41E81FAE8D34CAE3C4566B761D37185FE864AC32FCB71AEF39DAA5BAB
311
88609BB980CD2F07A8F941653B529567726E2B2A58D079DD57E1E5E31426CF184A04D7B03B985F276D47406AF276FE32E3328BA866EB1FD39BEF57863A317634AA5FE467409B3873F5069EF0D71AF00AD189D17BA1974ECDB2D623E9E14086386A6AAB5807825C37B015BFE892AFD154920EC437EB945D958E18622E1E0FE2
311
FA06557CE4BB9BBD05A2D40E774DA2B65473791E314B7D6C886820B2FCFE4AA272B3B8B15E7344A145E8AF919B5454D89D36D413E87211186BF6F645E5EC94DCCE8E1C799022E4EC9BC86D7A0F2AFB1FC4B2CE48F84B3F49ECE65BAD24CADCC07EFF39AB06BE9E6B27A059938EA7208838455383DDBCFCD967DDE4650EF92A
311
14FF933C975DB20BD7FEEBC4487576485963D757D16340D9599FEB362F775F38CA4185A86F74B629C81B133644A3B18FD056E997E0734F9BE26D11C0AAFC669E2AC9FC41D281F8B2E1C35AE27BCE05F3DA295488096688719D974DF1B5D182DB7792288697F8763CFB43562C1CDEE11C4AABD5C22B6E33F6F389CFC3477C59
311
19DC0D533F8A7A1846B7ADB60ABDC26C43D0CFC8910B7C15EE22675BD02702ED39DB77A87A192CA7A543E6205B979B9F5A6B512A3CA799E198B2D5797C0AF8D1D872CA455D4D431A7879D4DD76110B5FF7F4176B54477A9EB5E4A5D11214FDA585F0382751D8E2582BA5D2075053298FEB8F1537304E32CB22C2E2B693DC0A
311
760B1DFCA751BDC445AFDCBB12820ED85F6D5298933C7EF1211E9E057684056CDA3FEF3BB6052355E162DF27C59E965A8DDB7F9437EB72CDDA3A090DE65A5B2F50326247B7EC67B73ACC7047FC9B353D6EE990F772207C6EC52B39DC2F3C0754821DAB559F7C1809C7D0DD5B0499D0442E0A6E391B3D5DB46D11E731E6794E
311
C77523FBDAA242ED67F9FA1FB684255671F63C9BCFE6E7E896D51001A6113EF2298BA494E0B0980D1FA5B9D60796554C02256B1E0345FB7C6186B6A19D2DCA270416262845FA4F42DB5D9B0A0B6F07FCA2E56C242522E001E0CEB734AF310FC8BFB57E38E03AACE93B3326A2197891E68452B26A6307FDABFEE0223D3C03C3
311
C73D2D5BC054C8311F12004CAE488E5C29287F8156A2CAA4AD0D7BE6B97264E4139F437CE73ADF52E5134C52B819777C18B323A5924E4F67AFD13B1CDC3A61793A79FAF5C0CEB718E441071E797C6DCCB9EFCF7E4A1E9F3DF3C2F9C9E8294E9586868788C972857FB0556D7A26941A7EEB9B580AD78EC40B85DC906B4120A5
311
63CA3B87797ED612D3B035962BB75F6515A393F4CB057F564CDF54F2E5A024514E6A1F901DB80C7E70B1FC05E356A7E72FABF4775B3E3FB8F70A2A8E7B6A94542BB304157978CCC999E707A29CC795E67A59CC546A5D47B368954CA7B6E75EC9E1F6FC73CE3B4F71F8CB1A6B15923D61EAAEB14626AAA9D04A26EB9C66CD1B
311
E86CA31A5D8703DE04CD1EBCE4F5CCB62F93909AD11E55799A781A956ED27D3E738F4538CB04ADABC7DAEF20BC35BA6A90BCC1DC61BA05F20D8832FFB9BC9B15E2DB838A0AFBB7E0C82A562127E0446894F427794C3037186F622BF24DE1B00AA10A23BFA47B2A180D6DA5AD6F7326FEB8C100C2D7142EB2A0B2A9D1008A09
311
BA343D70E054AB69E2A7EDB783CBD92537FAF4A44D1296AC2792729104B3276C276C951D0CF3CF3F1E6B017720A7B8505A5FF9589365979678C36F1BAF759EAF57C60F1FF5FE9DCF5F8E764FF25A2D06CF25117A8FED51884C13B2B750DB0E4F5E3D64124FCF11F0AD8F1CC3B3DA4B38ED22BF1CB2585EE6BFEBBA63FBFD44
311
F9537B9B37BDD6B358720F98A8125AED4349CCFEB0E135F19E208A04CA7E2B10711185D72E381F448036EF57C9F874E54A971CA37A639E986AC0226DC5AA00D5B14FEA9192234B3DE617814FC221C92F33F1D392F297731B567FD98FD91D989379AF567A65B8ADF177591DB90FBEA99BF4ED11B16E50A0AB1DBF1156D034BB
311
E04D69D08F939D8E92BF525A1DDAFF80ECBC95D8F45D3FDD289FD23F7D8B452F8EBB34EC082DEEE68E18EDDF072060FAD2AB1504DD4879BF67099FC58F6E9DEFBF645D16334A3E9A127C6F1AF6132CF287E433B43A0EE93812B4AA0B194E03EE3FF91EF9C6ED0074A2F6EB18A96A7C9890B1FCDA1F2095E944DB911ED54C60
311
DF16FB74C8CE9BDC7C54C4F14078CF73C2FFF1F1BBCCD7CF64F71407EA1683DBC410D226627F66E509060D5C0AFD611DE681D509DB8DD12FB1265B03C6F5C55FF4C30BD94187FF692B4F152982502F193098A789526A038AB529A52BC0DC4FB6285CBAC10A8B8DB75DCD9BDABBB221E27D1F8DA9F5EE5926A1C8AA9BA9BC09
311
239C6A7F12914EA3B59EFF7AAEC3FFCCE56F1C5C2980AD072793527565E774F4631DB178CEEC691B1F367BEA0CF2907E1D6B854D527065979DDEF002D8B2ACEA7CE21AE297737EDE1D45B31233B73FEA35BCFDD0B09721FDBAF6432681F2FD10C3E9EFB246FD6E854B344ACC9D8A0EEF876A7314B49B6A499FC650B099D650
311
DBFEC7638ADFD245E2B7839DA5AC5F7D5623FC0ECEEC8653FC9B2BDD1AD4D00A566FBA7186DD3C9CD26512551637498CADB950FEC71ADB9A5524285DE328B8EC7EC75D2345AEC6A27C42AF6D9B92155315C80DBFCABBB7DA0FAE425C4FB896B15C9BFAC4FE67DF5A23D30C93DA4D8F36FB15D100050DA6062E22AEC5F4DAC4
311
F6FEEF97AE05DE63C6D38F9E068A20BC5E3B6BCD75320C5090924E7F93640A7735B1A43451C2D91EE62C6238B797349E59890AF3A520DF4A87095F3ABEC2E61F0593416CE46CDCBE0E00E2523FCCD04408588B5B6C9DB6459C786CE378770B54F51DA3A5E1DF2A3349BEAAC234A6CF8993B598B3B25B4B113E353A4D750FA7
311
534749430F3EBF2512E7EA3FD43C6AB9A1F765A58463B306721A15D224FAFE8C6F5E3432D57EE697DA0DD5A9D4866A8BCCAAA9DFF1F06047851408FEC060471D0E3EB86BFAF46E4B5E60311DC3E3CEA147C75CF971BE74689507154FF2D2E92F15CDB2B9182B11459FD8ACAC5A85F174BC94A7F4EE4C4F5CAFA7C02E37BF0B
311
C77B7DCD0C047BC316F562A01A441AFA7931CC84A28CB9F4AA367EB515778F29BFE61195FA671F4352E5E46E3A64773F1F76EE5EB36D7BCE9BCEAD837A4D77F8DB8C92AEEF6711920D7C7D0F76B0FD0EB7AB83724CD35BCA7D36DDDF5FBB7FF6F04A91F3E2BB3B8F1A43CD659639507FF6331C5F697BCC782AE57D757A27D9
311
7F1AB9E0AEDB43F92F1B2AACDF5FEC8ADBAF9F814E2027003BA2F9E144B1938A7A04050AE5D953B82C45619165C813A10E76DD6906B3C16438064D14CDA713AEC420034613E1AC7241904A49FBF87409AFB1FCB9B72FE7933A87D8FBEDACECE4EDCF6A4FE9FB94D5DEB74FAB7CFEAE17EE965DF980DCCA2D04134994F9A2E9
311
4D2265DA4FE6AA7B7AC15FACAC2B5ABBCD7DFF542C5314FDAB2E1B9D8B65220B8E2B638BE008E8DCA22678C820C5053664D15E89F2D735B51A84955E81A443545E9FF787BE0FA700A76D136C27DA179A7C6E8939E01BE756E19CB292798063D8B97F44E8A27BCF3A614FEB8BE974A718E86F7EC99B53CA35FA24F61F2B0726
311
6684623A3D4CF073E511F3A10A8FDAFAF0078C577F4DF9D339FE7862E5FA47CF4344209E5BF76D783B1B48E152AD281B15FCB934DCDA49CEC5706B1EE8B460F435324A5CAD154725E21AB8044B75A557A79F6C807B9340AA3D92503E866F4274412926C8C504E4D5EF8C0E68DD0B028781A6B4054F11CF18941F101C57CCC7
311
96773ABC8DED9CD91FE5788806C05E548895354AEAC96546D55B0E94A59F148D061F42AA398D822CDECA4CDE79E13469BDCC44FDC990F366BA5978C15F97ED80CBFD73B0CD9B8B83A4F6845BDFBFAF034019473FB9A63BD55D3A4A7284757071574029A4D016DCCBE95DD679EF3C4880BF169422F8C89B68A988D2B13793CA
311
ED4F74DE7486C72DC94DF46B8E93D8E02EFCB1FF9B3BA10C8AE7F653DF94F4AF466CDDCEF5776687F7C4C14B63E4EED1719DC2EC482D7DBCC7AE518CDE3D5FF86D39000EC3673C0044E1D308BF05F74D1B5F033A7D1BE7F74BC55BBE3E4A20F920946CA0271EB17BD2B80E5660ACB8A29A79F5E4BBA49D4D945B6EEF4A7EFE
311
AA65E5555BBB57A7E15D2F83C69F30BBB978D2B39F1F26FC097424D39BB33CA3D87ABF64E307938B685BAD44F71556A30B7E712CA4FE600613C3E554B69ADE949A7CFE214DF1FFF05CB82151EC6FC31950239F94CF7AD39DC473F6EA356E5EC2C4EFA04383CEFE985A127484366FBEE3C0EC4FEA363E4F6632AE781392FD45
311
D67B63FB8DF70E82734F431FD3443172A0E30A83D60982D55FA6A2CF86DBA8382502ACC6CDEF3B907982EED1160E14863FA242F9757347E1544275CCDCF71ECD5F8621CBEA326B8BA884AD7F825781923E66971F04010D574C541D8427A438A37EEF8AF88240EED7362C953F5A81DE2D56109CDE2524EA0F5D2F87308C0C47
311
BD97AD605878AB8589E17CA83930CB5E0DCCD75853D68B1AB136594926DE426C367428E9334AFAFF90ECE221BB5DC9E5BB53D2CDEF954EAA9CD814F0E5725F1965DD458E5F8487683AD86B9D0076BE3EE91EB1CECC5331A67A3F79D8B27587C12EC2A6A70474749F27B4C0BBAFB94B34189E88DC18964BE4121B9137FD516C
311
7755356E50D6714E31ACD222621EBBCD1CFF81D87479056A9DA0E0B8EA19D24CF937DA89F78E8650CCBDC110AAB6C4E46DCBFD0446BA9E2060E81F314AC2031E88135E5476AC0160EF5C0DD2EEF1B8B5CB2D198BE9A554A9093B5F7D7E4B5407DDFCA1D9C152FD97F55BFFFDFE802954DFEC8995B983E28AC92F1971E28F53
311
1DC407A1280EB125F64A72E617EFB27DFBCEDCDA2D6F2BDADA36873EE46B9BE1782998C63DA7182BC383FB6FD15DA472B175D7E8B4FC88F38D6E07FEAA3FA3CBB8F6B449ECF14D2175E5C5CCA3A42ABF24CA6C9395AF74535F4DDB38CB84F56614B0FD32D7E19CA5CF988DB4449C40E23DF2B16772594554579094450F56F2
311
53CD25EA7F77366FB1CFE79696C428BB64D5A41E986189427E5E4D7E2DAE3D5BB4972B3DC44EAABDDDD63A2264ECFA5C786EB0EE1FDC5BE34FA0F08376869FD1E61EA06CAE15191135445EE8F0394161C3266A596AA035572BB0C8876180D8B9C77D307DF9DCDF7365ABDA6F3A2366436457A4DFC1F259666569A9E4A79C81
311
7BDD5610E5200FCE894A358EC72858D50EF67545DA81C6FACE3D457BAF70367E1E6BDD9A952FB4F56247F58F523B97E640246051A72F79BE42FFA0B3187F63097F91C48B868586F714B0EBD5A00A8412C1236E1298F60C72BE6C96B82B404CADAA304AE9F303176B14BA53FBC2D5E86377E35542019E24D97B96A49B2C0E50
311
06E7795954DEAF5DA58958839043C6C70BD3B1B33B6DC5C31316D8A6923F142E26F6711A2258AF977DDF1F970ECC4F1F2B434B96D81BEB6E89BF3BBB3C7C8CC80505070723D6D7D7D3C8CA27CA164A26024FED94B12A86031867241DA53D929636DA600F050BC40CE48B8BA03D69224720DEE2ED2127390BDF5E6EA64527BB
311
D4C4C63FA76BB801FEEC0E61218EC98A8A86CD8313781617877E66692839B9468CF4DB8E50A73986E558E309C0D6F676F921BE02F1185454DC75B111572FF9D27D85EA14C05AD7271225B391C4275659CA4A43759D0BA44639BE4C30A84DB7F67A41399FB95CBF923B1B1672ABC807C1590557FB18D811983FA97F5E609516
311
D62281D38B1281F68FC75528C35E4CD7DF0F7DBB5E5DD69C414EBEA2F4A5B241B996BA77AE6C772E367408C633EA3E438B68563EA8BE7667F3A4C4FDEEA52ABD78A2820F443B7914A15F180018D231E64519C56A12F6CA7C8DAE18F06F6B769DBF92329EF6A5D18FBCE600F36BD8E8198DE5CDAA96181F3A756EBA5501CEE5
311
8F497EA4F418A2B82565B9BCC611713C0B708CCA1F398B78C5F7D03B3437CC18F13061F55C7BEDADD5ACB1DB0E36D3CE47FF6EA1A563A57E9649EA5D14D1A50EAA457463381C073777EF1600607BAF6428A7DDC079D47A204EF1E1F1F0589FB054D45E02CE623B3823C317C601E589E22B1E88B448524B86A82828E32345EC
311
18AE17214B42F8C41C6D428016D9BA31DDCB47572561E5A402E5BA4FCE55F78AF7268524AA04130F3A20BA5D1E9F9948EA48FC8F5314FDB35E21898198060034ACE5E3E2BBCA34092518F275190AF65F45867FF0900AA4B81F25427414C372BF51DC29AA855C5428EE1EEDD6B849AD60F6E73475C2D2523F8A2772C840A478
311
DED18A8C5C91B085F255DC4F54EA7AA8947354FD17ECF8FB3B4A0DE7B483CAF3A1165EE05BBA413E5C1FEF3DE1D6B8F2F3F3251C17D9FCAB48A9AAF63AC773A0E413BBC46A9ADF84A566FC920E4D8C52C9769EE3301CADEEEDD92B312E02E2A7E35B7F1E7D203FE5A7D75578B06E99D0E46FFADB8FDA17ED8880390DA29094
311
202D6F645F76F6F96409CDA05495A96E84B04A00D1A6C6C81D7F3DE9376E828CCF144EE50E364ACCE7237EA0BFB5607ED1AC3CFE73794E5B61739D14DF1743441B1AC98F00ECEDE9E7301FA29755FBEFA68C91EF2B314CF510537EF1ABFC9A762496280B546F5EDAAF8A5B387D469FC9A878A92828C88608453ACEC6094DCA
311
54111E7AD5B2663DFE2DD151B7F123B9F4FEF8EE36AB125FD7AD52A59B1B765B3E3F73E3F73DEA93875004D2AFFE3CDE9493B87A9904DD052028949041A91DC0E1BA47BA714343FD5B25E0A6A09503AFC17C790058A836A324FE31D7893512E28230332F153181C1E018E1124EBE1BA262AA428A518237D1EA7275E48C5C56
311
1BD19ED6912EDD8367DA0F31E40EEAE9683DA9257525AEA7B632B97119E17145A90231768A4F3B9120FF32E8319B015E3CBE26F1A754177D8185345817C096B0CE443A955D13AC15E1FB5DEEA0239EC32A3C92241A237B0B02FFCB4F93CF2B02570C8D192E2F2A68CEEB42F12E6F8CEEFF46C251E22B4341C56FB08CCE550E
311
7A9D6F4D6564B9EA52A83D5BF2C6E03FA19D2775E15A8A7ACF30A13C259EE7F5EF2AC3BA354F1500E1A07FC63FB4686E2F12EC69719F9ECF5FE3F35598DF2CE944008CE78F0911BA5BE5D0A34E0098FF038669C26030BA9B300303039852A8F6F496341737CA7E0D2E3AAA36DE0A70AA7D9CA0D54D9AD84B18A44C9E625475
311
E1C97B93BEBB38DCE7D227E67A2D00F531436136355F243D1FC0D712C5765754FA22FCFFAE97919161F46D6E61ACB37D83777B385889770B50765B127768443A5C4D3A4E35A3151111F146B7CA116F918A049F1C272F2CD7976C69A0068773451659A97E0F4A08FE604C3FF6CE7385DB19F4D3ABC8A0D80DA8A42096AC377D
311
B49382B36E270B6FA7570188B4B7D1DDDDA82ACA487CCA5D38BD3BD039ADBAFA4ACFF27809239B722081E2EB9F145320553D183F28471C388BC8814E5045676767AB58A8E72D1CED2CA731379515D2E533E4CF0B39DFC625F97AC4836831A4DE330E87A8126FA17EBE583D614E71E22A8DBF2825599743E0640037303E8E1B
311
1E8EA4E1ABFA4F62907B5E4E0E5DCFDAB417C36C6848A2B8D15F1E505434C0707E16B1CFC2A1C36A42BBF55734F8F4301DDC2A5110CEE8C0747F69519265012A2174BF4E955ECD4FDE095A3ABC70536B7AD0B9D7892F81287D667C108703C9B66A221E9A0929D030008F77FF6F5D2108EF5706FC87A3069B976F7C9FC3239D
311
13D283CDEA83597461079FEEE049B0F392889898B7D87D31F8D60ED7B56B91823A8E4EDDB36C6172ECEE42BD42B12CD67994FA0F0DFAE9389356F4CD4425A4B8AA55CBF7ECD585C6A2C2316791E43D5C06841ADBB226A87FD61515FFBB0167B74E56BD7F3E90A57A97FEDCBDF483A0D6699A8C0849CAEB4947FAA90D8E332D
311
9DEBD9F4738C37DA0CAF9CF3DAA68BCB67C420459C7A64498D6E848E5CADE92BB6901F607AA331104A67F7CD650EE169B1DAE94D2C31C2F993632259B6957E246EFE4C5481107B07118607700040E5812A2A2A38DA0076875258C753F60E0F2662C748EDD5F3F3686B8FC3BD6FE631ECCAA1E8B1C1E565AD117E54893E79F4
311
672E32F9E46B2A183DFDCF3EECB4D4D077DBEA0DA254D256045109670050129E9B9B1A9E4A11344D61497A992778095151510C4BB7EF2009B63AA4360635312E4CF668B7E0D3D85A8688E2BD83B569439892ADB63461930D428E0DE42E4AC57CE48DA5CC1449530D8BD3D6A0F08DF20C8E8F570F2CFFFCEA286E30969B4654
311
D498A58D9DA782E19FE3F002181838925592C4A1EF0B332D88B61A92C644547BED490D3A42CFFAB70E36D961F694F6307F72FF15A1C79D5B1B5CEFD353D9E2B52566DEC8F8F09CB3E8359C0F68EBBB7898243E34E12A015B2685AB303C04D3A9E00671FF3DFF0A184E4A2ABEB2B666AF5B3A209C73D8EF29DCDB069C9F391E
311
EE9DD0F74C7BCDE16F8F02E3B8816122BBEB50665775B600549D8BB33A54A6BF940C028118BC6878C79958D6784F9DEAA6E26748386FFAF8D0D0101E2847B6563F5D8DC1D78F787BE00E2C941AE12148D4A81599FE8F68D4DA5CDED75530ADE138240300EE13B0FC13A1687FED6774662C05A2B7DFB186732F0D7A93545D8B
311
0A6390AE5054D9CB582DA846D7A061B3358B45E2B52DDE63E114397EDB7E09233A579155D795BE76102CF277F4DF8B188C4F2879BEAE3C08347124BF9ED23B128259FE107D31E34A652F090B30B39E0D9AF917B76A2806135621A8A60681F16AF216514BBD02711585B5B1AE823F4B2D0369EA5B6BCB863072727FFC871CA6
311
C9AB79A814D989057E9470A3D238BC87CBB4A0EA49AFE2B86F22E499793CAA9047080450166BDC357524561E258C77CB697F1ABB32562CF87C3B7AA12F911EF19FB3E5C02222E887D08202A60A17151F5E053A86B437771088B4FEE14D652C43E8D939995D34545E12E2FF93D4E366EAD25F10CB7DED141563C3D0C447AF06
311
078A91135FD4B9611583CB4BF3BD167F2399CEAB0E0100F8FFC305F00F1711717173138B4B48C83022295DE657EFEDD97F238ECA80F528AFB4F8D67AD4E2594B9A3AA86D7487EFC313BA95745C186F0CDD84CC12DC9CB0424B42203D351FD9C0A3AF10CC7F388E0329279087386421F194F4A29464C1DEF7EF8BE515E4A199
311
DCD5B909342598D8FE6A231F71336248D5CEC5454455C7BE383B3BC7B260FED27F703FDC39A170F3827239102F59D4DEE7FEF82EAA1A5E4BA94DCC4CC44E7E2EDE20F24244E4454369D2E87C3F823F193FD4FD27E1C23984B01898D15ABC20711A8A558054951A6AE280096BA36CBA439603B7B0B4C45F248C14B2383B4B5C
311
D8ECECE4FF859AD4A6CA2326D020EF090F4041D28DB66E5256B56232CC52829DE8060BAE6BBF37D4B7469B822454FE93210A3E8D15E69FFCF01123222611C51C4FD0A041A0CFA2471CF6BE38D2B20FA4C3525B5B8B586759475CF80ADFE67A284AC24651E52B8E683D24C2622642F27E7C3C22783BCF63648BC398BD6CD0D9
311
C97E7E7E3EACB6126DB7A6C1FD9F1031302EE67ED96F22B77C7CA0239BB324207559B105E4693EB26EC46182A92C9C0DBD24F29B31C5C5AC1F84300E0E17CEEAC15F5736FA4A98971E2F1423BFCD68D4BBD5F86E74B40A369F39507C88FCDB35D2DD8DEBEA4AF999E23CF2816D204200DF6E611781B9884C1AC8888B4DE397
311
320472959434323A5A36B22A8E1F721A270DF3BD65E4A31C11FF048AFB0D8B7B6881423793963A23CFCE935FC189ED36FAE35C46DA3574C979E4394BE52084F3081837BE033396D2EBD80F1F691B273F660D2B32FA27A33B1DE4ADA5F0FA4651511102DFA410DDA86E065272CA314D5249DF91B06BB92807B28EFD54F08F7B
311
525252782CD276DD02E6B0319B13DF87B1F6361AD6B28FC0D711CF445429B9E5A433CD493051C49A9E03DDB1B147D880253514A5DED88009018620EE229101C041950E2D8AA8E1F5F5438E0C0C0C60EEDEE9E3E0C051948C69F84BB7B2A48A1F3C8EB9E6864687F4F4F6F6E2FA87608ADAF9C5E117B7C1A737E710769DA1D1
311
5ECE6A84502AA855398712D5FB51BE92E4EF824969CE18278798AC303C2C7980DD2500ADF8FB1E6D6C2FAAFF9987178923334A244758BAA01A9A1B70FA5097D01E1CC2A58DAD0EC94CE6430AA9B0C10D75E3C6BAC670EFBADEE1607739CE0FC18A2587E3EC3058562014C64219C69BC269082D5C2F4A659278D58575591217
311
6D78A1B641719C2A394CED495A1AC5D583FD2F5EDD93308EA7EAE8A6DD396598BDBD3D4CFED62D18A5BDFDE0DD5C80D1A89BA62697B131AE7CE9A6594138582F1B37D68F1749AC7CB67A70695D48A4A056AC1FBD4E82358CEAE38F54B95A9016F9000F9879C0D9D131768635CA798895F27D6F1614F11F2838A83611AA51C9
311
A3DDB539D42979C29F10465655C17BEC3E2760B80DCBF609198C7B171A531905F3EC218D696025975E986C6B4C666666787271F202805577DD5A3EF0CAFAF91B62DC4B2DB4217A7606282F31D8DDBC290593BAA93EA6353AFA9939B877978481E15CFC9F2755CDC00C538F63A4BA3E80AE009B73CA0185687D339A507D165B
311
74290D6EE46D5C58148F020C3668ABE9EF2F7549170DC80DB41FFC1D678FF19AEB10C7133832B104B80F691B3138F97A92D26E551F1F110400D45AC71A9B9AC41A1A1B1DAEED0B0810638EFFB511D46B121C6FEA0F38CD00E03CFFEB9713FE1F9C263E4DDEC160D0497FA9A132BA608584057FB15380825DE6C7FC3C667EE9
311
47D488A09898D8E939C4953BF4EC9836344D2CC6B2971B2A21A572B06096F4982D2CC7232D46E8EA69DC83722E267754D777F97F96D5DA74E1E75178084D0E70F12AD33E5F71EF2AFA599B2BEBF60A5BE475F444F240CBFE8143C334E7ED9150FEEFEF7EB020C4DBED388DD1D6A167A76F3CBF119B578AE8CFA7736ACAFA44
311
40A1C47185638A0D2F3EB5BDDEFDA958FB13CE4AA4923D5BF840392D45544329525749734866684BF7F8D9D54D892E19BCA9F829A0F8BFCBEEA6CFDFC61D74EA1A645ED7A1FF241739F15694BD835B66FEC5677E40FE69BD3F91AE402F036537218A401CB0828604AD189E575015C6F3F6BBC8AC79CF6C70653847254B3155
311
1EFCBEB5978B9DB85D58D0FA41A9DFE9C624834AA04949D24B5AE6D299E072D152D12097920F14AA92C31C3B97E28B6C2E6E9C23D63043ECBBC0A60FDF5BD0C33C127EA8A3308B8B6AFFEB28B4455BF6E7AF4FC6222728357EB8E46E85053E6A8843AB23295BF838ABDA94658FEF3F832F147046B4ACD6F7D48E8FCC961858
311
2961C898D1C7A253C91BFECBDA6BA18A1FCF70755DCCEE2222F41B76D23CA98D0CB3D95F0CF66D57FFF65E2A90F5DF40FC3187621E981BD0BC1D992787212688976B94A8F0C6EF646624B570B78E068826F87CE27041A95C9A4871FF65CC17FCB1639629AD6A9517000D63AC231F3D741CB8430777E7ECF80CE7A3F73C0F16
311
2F7E56AA71F4DA80A33CD6ACEE78E2C11FAC03DAFCE929B106F8F6B3ED2DC71FF994BD9CEF4E9A94896EF1B6E2B7B4978168BCF0847A3D2A4F1B0500B926E634B174548E9FBAD27153FB5FC36799B1E6C7C38A94E1F9E996796D7B485E635D5287A2AE76FBD11A341DB3F8F810385BB7296391973DC6C37C452A9305AEBBE0
311
CDB6C566DB59FE60C8E94B1FD090354BF51439FFD1B48D725228FFA88C84F686F547107A7A235665A4593B7C34D748C1AC8D56DD5DA861EEFBADDECBBD65117E65851F90351AEB65F0EFCFF4BCFEF24CB7A5879699FAC437A7AF9099186CF006BB923A59E37D7A36A29FD8D2CBB914A5E9D0A8FD212FBF796AE9A67958FF1D
311
5D8B85F78F96219D4714EB919929241B6C018AAE0C02069F8D919961EC5DDFBFB7573E3AC8E08BFB7C8534BE6DE045B3CD63DBD71F7638BA2309CAE398EA3A7D8F98BBBC7AEB367EFA5CFA27A9F8F2F52FE878058E6209C026453F8E7E8A237DFC389E9590F6059B397CFD65183BBF936E86896612A5B5FEE49DAC8455D026
311
218AFEBEC12B3523A45B57B82C9C97E02ACFA1184DB18E48CF615DBF39C3CC6F0B4AE6BBEEA2E39D944E290302FA3DE33FA7E40296E2EF7BF1CD855BBECFAD0FD622BEE9746FC4FDFDE545AE6E3BC234CADF83A0FB76DFB145BF3828AE3436368AC24989454F8FF70A177672C711CAA1A76107218CF948CA01F873520E7A2B
311
118EBB161ABAD432932029628B6761590C98AB590C8C8C79798CE9F715BA696E839E9131A4BB68BE923F1747FBFF165331FFDD4D05997ACD168F12CA75348DAC04C7F509FE83898A8B421181AF492861CE81E4A2DD0A30850CFA95E05F097FF70F9E777310D584A75BA7018922E271DAB1D785671157685B7D383D3E074DDB
311
4F1E44EF04B07BAAC75A062077C54B9752C738C9D804D402E02851F3F89605AF189738C18C021D2139EAF72513824E10DDD3047BACC8521ED7E98B257D1166903B1B08FA6F918FD7E162913FEC7D0EF4787E29C35FBA8C6E2C9C20E9AB30AE42CA2A01A090E7D010C1B5BF9CEE2A304BF3A987FB40D836979B79E18D70F257
311
DA61E808472DD85B82761825779D6B90CAEB0F23360C6F80A7D7D77545E95B3DFF0CF96A827F9B5BCECD2C9698718417EF80FEEDEE938AFF55859D0D540B7FE09435583A6F04874A0C7E8CF234DF4879722000167F5872CEC6BF3EF7E5A8CC8121E6A359227C8A29C95212F9F735BC72A887D56B8F309FC525BFB4FD767AAE
311
C4AEFF249CFBBD2DE1AB9969A6155C7D8DABC307E47324C1F916C7BCFF40ABA5644E9FFB9238D19ADADA49D9610F01ABBA57E4DFCBDCCBB2B93C8953206C91DE01B0E2651A6D6C31721915B31F7B7CBCE55466F6D70402788FA91D73BE4ADCBA99A35F17D6B83383704917D6833F0FA3CD45C926ADB8BC17999A4A0AFBCE25
311
41F7B8CF4C2F5FBA611B3E626D64407CB32C122DFF4EF8674D6EDBB86C8F7C6A16D50FA685E2CCA34F8F7D1D8265BB0042E9D7F1F666F7BE5FAA5184DF58E12122A42EF02F461B3F369AC746F96528AD208512AB56844CF75B97F352DF7995024FB02855385854F3798670D01CAC771AC3E1889EC25F61A20C1F8CAB468988
311
17F9C47E2CDA1F286BF2F358298709FE567C91133E2638C8B53975E753EA8BFD3578B5F7186B7BF084EBA3F77BAC3132A5779902EC22AF2D2E79F42D324E083386DAEE9810D1B44A5DAA54513C7A71E52A4AB9257D975B621308FE4D2141CC3DCFE946C154A3C1DFCCA7629EC69ACFA831634ADDA93C0388D2A9A2DDAFCF95
311
7C6995BCE7FBB6DC4EBAE79E63EB08E9A25F52F67076F7093CA545CA3053B5BF576DEAD4E0017143C5F759F32B2D6F145B52B67B48909B7C7FCA6586EE385A2189C16932CB6DDFD9152AE317C430492A578ED27B72D85D40C7C93C097939E1B50F4D67F05334FE9DC362C30B7FF561B95259138ECFD9274C8D695C31B14D4E
311
AA9F3D7FA8DDF652F8C5DEFA23284C799B7D94416DEE81E05A866302DC70192A5368EA65E1CED8BF107A1E2D3119A71E85DC1A7B0C1E93274CE04DD0F2ABC8AC7C987FDB002B6F81757B43502EF7A0D92E416494FAEEA4C9C090CD9557AA4D532F4996A272B94355C5A0E4974EEA9627476F30809B94D8D8D860062E022046
311
43BEC7D0438AF800FC7E2B26955D595421E83C69E1A07E0E3122285835F014AD538188CF9737CE76D464A353FA55A001AB2526B84E985083693BC76FE211CA1D000679C889E3C009832C87E1AC2EDD05C302557422DF0800E316FCAC86978A371F025A6C7DAA9F333E7BD160403A1A06EA75AA9888FF01504B030414000608
311
08002249EE5228BB58AF800100009E0500003D00000045394646434135312D324339412D344237452D384246362D4437463232453434324342392F536368656D61732F436F6D6D6F6E536368656D612E786D6CBD544D4FC23018BEFB2B96DE15493C78601010A34B880709DEDFB52FD0D8B54BD70DF6EFED3AC0B12E6442E2
311
716BFB3CEFF3D18E26FB440405EA8C2B1992E1C323095052C5B8DC842437EBFB673219DF8DA659866649B798C078B48AE6410122242F2A4994AC7F93815DF85C049C8564CA0A901499DD886B2EB9B1E02448F358701A9235880C49A0119892A20C89D1B9FD768815CAD268CB5E0355B40B1E47F3E37A2020464BED06AA57CE
311
8FCC20C3C3446D46761A2632A8C1283D07031EFF2AE7CCB1BFEEE916E406DFAC8E36FFD99A9D60A6944090EEDC3B670C7DC13DE86B6B2C5C240D6E503BB85ACD579D513F1B9F9A69DC9CC22AFA80C426D40AF0B21EA168559156B6276F0F726A6BFF04DCD513A87A62CAD41FB24FCB2858B3952E3D852084DA25B9303C1568
311
7973CC8E8AAE11DF2836C38C6A9E765E8C1BA1BFB1DC29CDFE518C8B5A7655A4ED7E77291ABEB80DBD82EC866ADE1B8D05AF9E35CF09D7A061F38A986D9EC412B8F0F65E5D81534D9B231D1E5A8FE577A241F3A5FD01504B03041400060808002249EE52E336299B9F040000341300003E00000045394646434135312D3243
311
39412D344237452D384246362D4437463232453434324342392F536368656D61732F47656E65726963536368656D612E786D6CD5585B6FE238147EDF5F61E5BD1498E9A895A02398AA5D1E2A5665BAAF96710C78D6B9C87168D95FBFE7F81242134A968E469A4855437C72AEDFB965F4F53551642B7421B3741C0D7AFD8888
311
9467B14CD7E3A834AB8BEBE8EBED1FA3495108B3E01B91B0DBD1F3EC8E6C991A470F22155A72F73CBABC1D4D5921DCD1934863A11F990102A6F61466977B8AC49FB13C174CB3940BE4504A22E3713489B7F82406516225536940BD88E4E552493E8E564C1522225AB0384BD56E1C195DC26FAB13882C2EBD62E1FF9E5B0FCC
311
453132C99548446A1872B62267078F1EF14C3DB1DD1952DDBBB384AD456779F387C51992E0ADCE12FED2622BC5CB1952FC9BDF3295E9206E961AB116DA7ACE45F76F07A26EFC3FD762FD7362FC3C0BAA4DB34C09E682CA5167BADCD16CF94370E331E2F1A3D852008AAD5D64BA2373478338AEB1583B905396D158182655E1
311
B938D07926CF007CC7E85E6709999B0D3827C0BF406BEF55C68CF5579DA32C8C85BE03EFE788787E8FEC95DC85C3E31A615658D81F9A34499612004CE69CAB12531B15A887ACA642C110F8C1A8C1974A85853F407794695C905C688E69B116550ACA946B9B4785FC179E0E229240B62665328E86D5BD2C800CF5D80289F35A
311
C25E3DD51508F4BF9A74A0F5A557BB3D284BC6FF59312E282F956A75C5D453906F48D11A876599E49425602400842995BDF02C4D012E226658F78A710416AC552831FDDEF0E6F0BABEBEA9DC36718CCEF4DAC5A0DF871AECBDD8F448F015F8DA113A473609D1751672B723874B2CAB21ECD6E284E51DCC7D1A47A00F60EC21
311
DC4CC3CDC406DC03760A4E6C772F2F4D561A9AE58C4B03F5B4838701472139EDCB36819A66C472B52AB1139C648956F43E0DAEC067B56B0818F5961D3D446B8F1E1E78C0EAD7EE02AF2895D813E88AC5014A7B436DBB20F778D40A1D9737EFE45B47D49CC8360F9966B15AABAC802C1005548A93EE469F5D55317CD8BF0AA8
311
6CABADB2A009D4D6F60CFE53AE370AFE8C45415B15D362A5A038E766E34B00F8C2E3E7098E2093B1C96349FDAEA158903B4BDAEA665F473FECE72186E3BDDCACCADA31839CD6D4FA7D47DF5469006ED340EBE71DF960DDEE88A3E17557039B58C278A1795BA8079419DA8FC5BA1BAA1A66238BF69C7B2BE4E6274839122B7D
311
00BE8B7D52CF61B2D63216046008C8B330FC10F8907787DEF061F47965BBA02FD8F53BA12F9827614979F53563D0BB1AD67A03DC0E00E2FB2CF3EFB457E70E65A3D7C78E7D700DBB45132AE9BBA5E468CD861408961AD8B00A55C2FCC677F4456039FD9F1907A5B3E2D0EE845FDBA2DAFA88C64195671AD6D282DA2E45B1F5
311
0A0D632B0D0B6718757DCC7C84A70A3656F222CDA6DBF07E204AB358961D1BE31E53A82C2C0D56DBF61A5608B5A252A932A1DC6E32462430853353EA30417C8199A662E946A4EF352268B8CDB9A9C6762515ACE8E09BBC031C608A02C4BA89C9DDC074E46E0E26A17BCBD4ED43270D03E3645ADB81F6D62CC07A3243EB81C0
311
7E01681DDF2DB4730631E6DDA6CBBD048BE9F06AEB3CF06B31DD6C9575E37E9FF17161342C4C76D95519672A6509E0F5C4E71B4B1916440059F57D0921F496237E473A83E3E4E06353BD9D27593594D7B6707C08D22FEBDFBFFE03504B03041400060808002249EE528DFFFC99640100009B03000045000000453946464341
311
35312D324339412D344237452D384246362D4437463232453434324342392F536368656D61732F52656E6465724D6174657269616C536368656D612E786D6CA5535D6BC230147DDFAF08799F5FDB600FADA20EA430D968A7AF12D36B1B481349529DFF7EF9A85A718860DFDA73EFB987734EA3D16FC5D10E946652C4B8DFE9
311
610482CA9C8922C6B5D93CBFE3D1F0291A6B0D26A3255464182D920FB4233CC629881CD49C18508CF000E3EE309A100D61622AAB4A8A33B2483F11CB639C545B0E1508438C3D3C0361192846DB7ACD198DF186700D182920B914FC1063A36AFBEE8FBA03FFD3CC1D1F4FC9E151A2AF59F628C5B7821D83FDFD3489305080F2
311
EE04BF962195FB285E9D2DD352320A9E827AE357594914E42B1F5FE35F83688F60C4C91A6C946ED0668E8F244BC2EB0BA6E3BCCFC0B6A4B507F9F9F8D51EB315D9BA9E08D308E89F96931666E577837E2B4172199C68C4FE306156D47DF51C698C7B9D97FE5BEFE2190C3C38BB054E6E8163FB039CB4B993C80BF18D969203
311
116D6BBD26238B821F9BB909AD6D9C71B85BCD8C33D66FEA3D31B4BC0AD45BEA46BBEDDFEC0F504B03041400060808002249EE52E68DE2D351000000570000004700000045394646434135312D324339412D344237452D384246362D4437463232453434324342392F4173736574446174612F41737365745461626C654F66
311
436F6E74656E74732E62696E536160607036B73033327736D435B23435D235313235D075743134D63531313676763673313633341602AACB4D2C492DCA4CCC492C28484D2C4ACC4B4E050A82012F90744FCD03CA26072767A4E6260200504B03041400060808002249EE52C55C663656000000680000004500000045394646
311
434135312D324339412D344237452D384246362D4437463232453434324342392F4173736574446174612F53747265616D56657273696F6E5461626C652E696E665D8CBD0A80300C06F73E4B29FE6CDD8A2E82A083B8B7F209014925C9FBA3AEAEC7DD2555D896CB85E51C2A1BD834F6A1F56EC4494C4695278364ABB24ABD
311
2146F88CCEBB89D5321FF8F3F43D672A3B44DF3CB6A1710F504B03041400060808002249EE52B16719C436010000A20400003600000045394646434135312D324339412D344237452D384246362D4437463232453434324342392F4173736574446174612F636E782E786D6CCD944F4BC43010C5BF4A09786CD216C53FA459
311
442F7B5270F1E06D369DAE61D3A42453D16F6FB2DB83B2E2690F859C86DF4C5E1E7923579F832D3E3044E35DCB6A5EB1029DF69D71BB964DD49737AC582919BCA71F182B1C0CD8B25C664AEE829FC6B9D4610F93CD556BDC7E2EDEC788B481ADC5A7FEC13B42479115DA428C2D8BFA1D07E03091EF30EE790704BCE601A39F
311
82C63489CC80F3241D10083BA69AAAA9CBEABAAC2F37D5ED5D3E576F526452C9ADF776E64DBA2CF8F1A2A9F4F15EA62A2932A0E414CC4CE5D730F5974ABE354E8A442A19292457E60EFA1A53078CA3351A289927BC26A43241088314475849915DF8E5C523F6C699DCB24ED2807C784E023190C1057AF29FDAF37BB37691C0
311
695CB223A71ACFEFC3CBE117BD1E6379C8CDF2D272AA911BD79F212BE2B04E5274F27651DF504B03041400060808002249EE52D0410281E6000000600100006700000045394646434135312D324339412D344237452D384246362D4437463232453434324342392F5265736F75726365732F43373836323743312D32393532
311
2D343235302D414431332D3434333343433644333631332F7468756D626E61696C2F302F636E782E786D6C4D904D6AC4300C85AF12045D2676C294FEE0782ED15537C57534A919C732B65C3AB7AFDD7A31209078FA107A4F9D7F0E3F7C63CA8EC20AF32461C0606973615FA1F0657C86E1AC5522E23B0C86600E5CA1C9A0D5
311
9EA8C42E6D7831C537D5BB70EDE28E0193B31F31EC30586F725E21DB2F3CCC640AD386F93A6D86CD344F09339564B11E6077603F60131AC60DF4229779944FE37C7A932FAFAD1EDF9568A4569F44BEF32E30268A0F8BB454C750FF914A3440AB925CA79A09D077CF2951975A654ED57F87F8162B6462F4CE1AAE3109B28C3C
311
5608CDA1C43FAC95687E6BFB0BA3F6968DFE05504B03041400060808002249EE52A233C2345D000000800000006500000045394646434135312D324339412D344237452D384246362D4437463232453434324342392F5265736F75726365732F43373836323743312D323935322D343235302D414431332D34343333434336
311
44333631332F7468756D626E61696C2F636E782E786D6C4D8B490E80201004BF42E6EE76F3C0F216234B883063108CCF170C074F95AE5473F5C4C06E932E4F28601967600677D21E9D8092EDB002539227A2FCCB80E1168D80A6417297A89C5D6963B7129A0D1E8F2EE73AA7B62BBEB8B27DE50B504B030414000608080022
311
49EE52BE89762363000000880000005B00000045394646434135312D324339412D344237452D384246362D4437463232453434324342392F5265736F75726365732F43373836323743312D323935322D343235302D414431332D3434333343433644333631332F636E782E786D6C4DCC3B0E80201004D0AB90EDFD75167CCE
311
820A4A845D83603CBE602CAC26799919AEEEE0D965E2E908050C6D0FCCE04C8BC355404EB6198129C92351FAD580A10E464065907C8D948F8F166375F655BDC3FDC3B4E530A176BE7057BDC43B2A593FE403504B03041400060808002249EE522F9929E67D000000A30000003600000045394646434135312D324339412D34
311
4237452D384246362D4437463232453434324342392F5265736F75726365732F636E782E786D6C4D8CDF0A83201C465F457EF76EF9276BA0C6B017896521330D97638F3F1D5DECEA83C3778E1C3E9B476F9B5E2E0605E4D200B2E11167175605F958700F68D032C578FCDD008569B30A2A062DD714F37EA2D92E53F6957A17
311
9E27345D2F686708A6B796624EDB06DF47C230E78C19234626082BC6B52A657EBDB235AFBF504B03041400060808002249EE528EA1C99B09010000550300003400000045394646434135312D324339412D344237452D384246362D4437463232453434324342392F536368656D61732F636E782E786D6CCD933B4F04211485
311
FFCA84C4728099687C84610B0B2B1BB5B243B8BB9205EE8487D17F2FAC14BB899D169B50C0C9979B730E20369FDE0D1F1093C5B09089723240D0686CD82DA4E4ED7843868D1411311F616408CAC3429A4CA4D8452C6B970C6C55714D7536ECBB788FDE6378D6EFE01519B453292D241D8E54958C06D29E1A95159D68848425
311
6AA813B2F5D027E8082A832172E6F334F2EB71BA7CE1B7776D5DBD0AD64829DE105DE76DC81071BD98B9C6BA0DD51017AC015294683BD5521079EC8ED63E04AB841429C7DA4227F3D75A49B5AECE6A956B59EC00FE3052B016F624F2030488569F6BE6137BFF16FA098281F8586F2A5AE5CE35FB6F2EFF56013BFC80FA0CDA
311
8790DF504B03041400060808002249EE52E3603EBE7A000000C20000002C00000045394646434135312D324339412D344237452D384246362D4437463232453434324342392F636E782E786D6C6DCD410EC2201085E1AB90D9DBEACE05D09878023D01A1D34A8419C380F1F82DA68B9AB8FDFEC93C3D7C52546FCC12980C9C
311
BA232824CF63A0D9402DD3E10C6AB03A3397DD192872090D3406ABE7CCF5B5D18893ABB1690CF4DCF02282E5EA8A5BB96FFE536F285CB347F95BEFFE81C9ED5AFF9D5B1FB575BB00504B03041400060808002249EE525C45B3C87F000000A300000007000000636E782E786D6C4D8CD10E822018465F85FDF754324ADD0427
311
04EFE1121D13A191B41E3F685E74F56D67DF395DFFD91C7A9BF8B2C133A84E1740C63FC264FDC220ED336E00F5BC8B21EC7F37407EDC0C838281774B0CE979A0C9CC6372853AEBD703AA566B395C2B4C643B602A6A851BA16FF85E6B4214A5448A361BE7A2E4F9F5F2963CFF02504B03041400060808002249EE52CA1DF9C9
311
A900000073010000130000005B436F6E74656E745F54797065735D2E786D6CA590410EC2300C04BF12E5DEBA70400835E500FC800F84E0B411AD13252E2ABF27A55740421CEDDDD9B55CEFA7A117778CC979527255565220197F75D42A39B22DB652EC9BFAFC089844F65252B2630E3B80643A1C742A7D40CA8AF571D09CC7
311
D842D0E6A65B8475556DC07862242E78CE904D7D44ABC79EC569CAEBA537E3521C16DF5CA5A40EA17746733E0B6615DE7217475F386F18B9481C510F1F021CD9FF027EA0E1F5C4E609504B03041400060808002249EE523DEE336E64000000790000001B0000006175746F6465736B2D64657369676E2D7061636B6167652E
311
786D6C35CBC10E83200C00D05F21DCA56CA76D41FC96062B120735B69A7DBE268BB7777961F8D5AF396893C2ADB70FE7ADA196782C2DF776D7A97B5933C430F15651E5469C55D70F80A4992A3ADC954792C525AE70A1E4D6AD9816CC044FEFDF01FE3FDE907802504B03041400060808002249EE52AF51DF49F90000009601
311
00003700000045394646434135312D324339412D344237452D384246362D4437463232453434324342392F4173736574446174612F636F72652E786D6C8550D16E842010FC15B3EF28785AF5825CEEAAF7057DEA1B01CE923BC10834FDFCC26993F6A909C992D9D9D99DA1A7AFF9917DAAD5696B7A2039864C1961A536530F
311
C1DF500BD989D1D55AFF8B0699E1B3EA21C1C0E8B4DAB0EC90B0C62B935063A5DA41EE9CF2908947FCF4E0C4879A79CE838F0C77CF172EEE7C5239C9371EA32168B98F6A19D5F44DAB1518C143339E870EBDB6A44155870FE8325603EABA976B595FEBF17A6969918619F57AFED92E56C5BD92C04A5C12841B44AA37DC1DD3
311
ABDF6991988C3ABF46CFFBD2E40ED8395D3D70CF69B175FFA88645FEAF1AB4F1877257DD265CF4118F7C36182D524AB13C238C3525CABE01504B03041400060808002249EE52144732AFF40000008E0100006800000045394646434135312D324339412D344237452D384246362D4437463232453434324342392F5265736F
311
75726365732F43373836323743312D323935322D343235302D414431332D3434333343433644333631332F7468756D626E61696C2F302F636F72652E786D6C85505D6F842010FC2B66DF51F0B46A835C7A557F419FFA4690B3E44E307C34FDF985D326ED53139225B333B3BB43CF5FEB3DFB94D629A37B2039864C6A6166A5
311
971E82BFA216B233A3D618FF8B0699E6ABEC21C1C0E8624DD80E4818EDA54EA836B33C40EE9CF490897BFCF4E0C4875C79CE838F0C77CB372E6E7C9139C9771EA321A8F990AA39BAA9AB921618C14333BE0C1D7A6D4983AA0E9FD065AC06D4754F53594FF5385D5A5A2431A35EAD3FD38595DCCB1958894B82708348F586BB
311
E7F4EA775A2426A3CEDB78F331345D070CD36247FFB8856DFEDF2D28ED4FE5E1B62B5CDC3F2EF768305AA474627944176B4A927D03504B03041400060808002249EE52CF9FEE4BFA000000960100006600000045394646434135312D324339412D344237452D384246362D4437463232453434324342392F5265736F757263
311
65732F43373836323743312D323935322D343235302D414431332D3434333343433644333631332F7468756D626E61696C2F636F72652E786D6C85505D6F842010FC2B8677143CADDA20975ED55FD0A7BE51E03C720A868FA63FBF70DAA47D6A42B26476767667C8F96B5DB24F699D32BA07384720939A1BA1F4DC83E0AFB0
311
05D999126B8CFF45039966ABEC41820125B335613B206EB4973AA1DA087980CC39E941C697F8E981E337B9B29C051F19EE9E6F8CDFD92C739CEF3C4A4250E2185522AAA9AB9216508C86667C193AF8DAE206561D3AC1CB580DB0EB9EA6B29EEA71BAB4A448C39478B5FE6CE756322F05A0252A31440DC4D51BEA9ED3ABDF49
311
919894386FA3E763697207A8BF85F54333B59062EFFE510D9BF85F3528ED4FE5A1BA4FB8E8231EF9685052A494627944186B4A947E03504B03041400060808002249EE52A8ADB7D80C010000B10100005C00000045394646434135312D324339412D344237452D384246362D4437463232453434324342392F5265736F7572
311
6365732F43373836323743312D323935322D343235302D414431332D3434333343433644333631332F636F72652E786D6C8550C96EC32014FC158B3B368BD70813255EBEA0A7DE904D5C94182C03553FBF90B8527BAA84F4D030F3861976FE5A1FC9A7DCAD32BA05384520917A32B3D24B0BBCBBC11A2467CE7663DC2F1A48
311
B458650B220C385B76E3B7039A8C765247549B591EA0B0563A904C8F7069819D3EE42A52E15D60D87BBA89E92E1699E2F4C5E3CC7B351F5235876DEAA6E40E38467D355CFA067635AE60DE200AAF43DEC3A62947528CC5305E6B964531674EAD3FEED32E859333E004110C510571FE869A533CC53BCB229333EBF690F9308D
311
E900EFAABA24558721690A0273522078E93185794E69D7953D2D3165D94BF8C7D06FF3FF865E6947C961F852D81031FCFFF9C059160B0CE3D96E98B16CFE0D504B03041400060808002249EE523B0DB814FA000000960100003700000045394646434135312D324339412D344237452D384246362D44374632324534343243
311
42392F5265736F75726365732F636F72652E786D6C8550CB6E833010FC15E4BB01132821328E9A021F50F5D49B656FA89560233FAA7E7EED40A5F654C9D25AB3B3B33B43CF5FCB3DFB04EB94D13D22798932D0C248A5E71E057FC547949D19B5C6F85F349469BE408F128C189DAD09EB0E09A33DE8846A236107B973E05126
311
EEF1D323273E60E1390F3E32DC2D5FB9B8F11972926F3C464350721F5532AAA9AB028B182987767C1E3AFC72242DAEBBF2802F633DE0AE7B9AAA666AC6E972A4451A66D4ABE567BBB0C03D48C4AAB222B86C31A9DFCAEE945EF34E8BC464D4791B3DEF4B933BC45EC1996005385A6CDD3FAA6195FFAB06A5FDA1DA55B70917
311
7DC4231F0D468B94522C8F08634D89B26F504B03041400060808002249EE52191FEF8DF7000000940100003500000045394646434135312D324339412D344237452D384246362D4437463232453434324342392F536368656D61732F636F72652E786D6C85505D6F842010FC2B8677143CAD7A412EBDAA7FA07DEA1B01CE92
311
3BC1F0D1F4E717D426ED53139225B3B3B33B432E5FCB23FB94D629A37B80730432A9B9114ACF3D08FE065B905D28B1C6F85F349069B6C81E241850325B13D603E2467BA913AA8D9007C89C931E64FC113F3D70FC432E2C67C14786BBE72BE37736CB1CE73B8F921094384695886AEAA6A40514A3A1199F870EBEB4B8815587
311
4EF03A5603ECBAA7A9ACA77A9CAE2D29D230255E2D3FDBB995CC4B0168894A0C510371F586BA737AF53B29129312E76DF47C2C4DEE007DDDEE74A4D87B7F34C32AFED70C4AFB537968EE132EBA88276E0D4A8A94512C5B80B1A63CE937504B03041400060808002249EE52107AFDE503010000D80100002D00000045394646
311
434135312D324339412D344237452D384246362D4437463232453434324342392F636F72652E786D6C9591DD6E842010855FC5CC3DFEB05AD70DB259AD3E41AF7A4765D6925DC108367DFC42B5697BD7262490C37706CE0C3BBF4FF7E80D17AB8CAE218B5388500F462A3DD6B0BA2B394274E66C31C6FDC020D262C21A820C
311
9C8D8B59E75D1A8C76A883AA8DC45D14D6A28368B8FB430D7678C549C462759EB0B77816C34D8C1867F1C671E6D4F4651D16140E25709AD28CA425C9F2A7B43A85553CB324909CAD4ABB03DD1FC3E905656466E723012F0E2CD9AE3DB62AB9434AFA4FAAABC2057857F57D7B293242DBEA42F2A6ECC8B1E91FC863D953DAE5
311
396D9BCA17F166CEAC5B7C6BF622A1097FB56FC65FD1D659FE33DAE6B0C0B3EF5049E83367C9E710FC1E66C23F00504B03041400060808002249EE52281E2AE007010000B201000008000000636F72652E786D6C8D50D16E842010FC15C23B0A9ED6F3825C7A55BFA04F7DA3C059720A06F0D2FE7DE1B449FBD68464C9CCEC
311
CEECD2F3E73C81BB725E5BD3429261089411566A33B6700D577484E0CCA8B336FC924160F8AC5A9860C8E8E8ECBAEC90B02628935063A5DA41EEBD0A1088297E5AE8C5879A79C6D71015FE962D5CDCF8A832926D3A46839E7F5A85533C280959810B82708D48F98A9B537AD51BCD9392D175D572B7D232BAEBAB560E3282BB
311
BA7FEE1AF47224352A1B7C4097BEEC50D33C0D453554FD7039D23C3533EA838B3BEF4362CE003CBF275F9A6F14A3EFD64EBB208692C09AE90B324CF344FC09BD2EF21FA1B50987621FB875F89839067A10D1385D3096C779634DD766DF504B010214001400060808002249EE528CA2DDAA35010000A80100004F0000000000
311
00000000000000000000000045394646434135312D324339412D344237452D384246362D4437463232453434324342392F4173736574446174612F446566696E6974696F6E4974657261746F7250726F706572746965732E62696E504B010214001400060808002249EE52F6B7F04515010000300200004500000000000000
311
000000000000A201000045394646434135312D324339412D344237452D384246362D4437463232453434324342392F4173736574446174612F496E7374616E636550726F706572746965732E62696E504B010214001400060808002249EE5288E57597CD3F0000904100006B000000000000000000000000001A0300004539
311
4646434135312D324339412D344237452D384246362D4437463232453434324342392F5265736F75726365732F43373836323743312D323935322D343235302D414431332D3434333343433644333631332F7468756D626E61696C2F302F67656E657269635F706E67504B010214001400060808002249EE5228BB58AF8001
311
00009E0500003D000000000000000000000000007043000045394646434135312D324339412D344237452D384246362D4437463232453434324342392F536368656D61732F436F6D6D6F6E536368656D612E786D6C504B010214001400060808002249EE52E336299B9F040000341300003E00000000000000000000000000
311
4B45000045394646434135312D324339412D344237452D384246362D4437463232453434324342392F536368656D61732F47656E65726963536368656D612E786D6C504B010214001400060808002249EE528DFFFC99640100009B0300004500000000000000000000000000464A000045394646434135312D324339412D34
311
4237452D384246362D4437463232453434324342392F536368656D61732F52656E6465724D6174657269616C536368656D612E786D6C504B010214001400060808002249EE52E68DE2D3510000005700000047000000000000000000000000000D4C000045394646434135312D324339412D344237452D384246362D443746
311
3232453434324342392F4173736574446174612F41737365745461626C654F66436F6E74656E74732E62696E504B010214001400060808002249EE52C55C663656000000680000004500000000000000000000000000C34C000045394646434135312D324339412D344237452D384246362D4437463232453434324342392F
311
4173736574446174612F53747265616D56657273696F6E5461626C652E696E66504B010214001400060808002249EE52B16719C436010000A204000036000000000000000000000000007C4D000045394646434135312D324339412D344237452D384246362D4437463232453434324342392F4173736574446174612F636E
311
782E786D6C504B010214001400060808002249EE52D0410281E6000000600100006700000000000000000000000000064F000045394646434135312D324339412D344237452D384246362D4437463232453434324342392F5265736F75726365732F43373836323743312D323935322D343235302D414431332D3434333343
311
433644333631332F7468756D626E61696C2F302F636E782E786D6C504B010214001400060808002249EE52A233C2345D0000008000000065000000000000000000000000007150000045394646434135312D324339412D344237452D384246362D4437463232453434324342392F5265736F75726365732F43373836323743
311
312D323935322D343235302D414431332D3434333343433644333631332F7468756D626E61696C2F636E782E786D6C504B010214001400060808002249EE52BE89762363000000880000005B000000000000000000000000005151000045394646434135312D324339412D344237452D384246362D44374632324534343243
311
42392F5265736F75726365732F43373836323743312D323935322D343235302D414431332D3434333343433644333631332F636E782E786D6C504B010214001400060808002249EE522F9929E67D000000A300000036000000000000000000000000002D52000045394646434135312D324339412D344237452D384246362D
311
4437463232453434324342392F5265736F75726365732F636E782E786D6C504B010214001400060808002249EE528EA1C99B09010000550300003400000000000000000000000000FE52000045394646434135312D324339412D344237452D384246362D4437463232453434324342392F536368656D61732F636E782E786D
311
6C504B010214001400060808002249EE52E3603EBE7A000000C20000002C000000000000000000000000005954000045394646434135312D324339412D344237452D384246362D4437463232453434324342392F636E782E786D6C504B010214001400060808002249EE525C45B3C87F000000A30000000700000000000000
311
0000000000001D550000636E782E786D6C504B010214001400060808002249EE52CA1DF9C9A9000000730100001300000000000000000000000000C15500005B436F6E74656E745F54797065735D2E786D6C504B010214001400060808002249EE523DEE336E64000000790000001B000000000000000000000000009B5600
311
006175746F6465736B2D64657369676E2D7061636B6167652E786D6C504B010214001400060808002249EE52AF51DF49F90000009601000037000000000000000000000000003857000045394646434135312D324339412D344237452D384246362D4437463232453434324342392F4173736574446174612F636F72652E78
311
6D6C504B010214001400060808002249EE52144732AFF40000008E01000068000000000000000000000000008658000045394646434135312D324339412D344237452D384246362D4437463232453434324342392F5265736F75726365732F43373836323743312D323935322D343235302D414431332D3434333343433644
311
333631332F7468756D626E61696C2F302F636F72652E786D6C504B010214001400060808002249EE52CF9FEE4BFA000000960100006600000000000000000000000000005A000045394646434135312D324339412D344237452D384246362D4437463232453434324342392F5265736F75726365732F43373836323743312D
311
323935322D343235302D414431332D3434333343433644333631332F7468756D626E61696C2F636F72652E786D6C504B010214001400060808002249EE52A8ADB7D80C010000B10100005C000000000000000000000000007E5B000045394646434135312D324339412D344237452D384246362D4437463232453434324342
311
392F5265736F75726365732F43373836323743312D323935322D343235302D414431332D3434333343433644333631332F636F72652E786D6C504B010214001400060808002249EE523B0DB814FA000000960100003700000000000000000000000000045D000045394646434135312D324339412D344237452D384246362D
311
4437463232453434324342392F5265736F75726365732F636F72652E786D6C504B010214001400060808002249EE52191FEF8DF7000000940100003500000000000000000000000000535E000045394646434135312D324339412D344237452D384246362D4437463232453434324342392F536368656D61732F636F72652E
311
786D6C504B010214001400060808002249EE52107AFDE503010000D80100002D000000000000000000000000009D5F000045394646434135312D324339412D344237452D384246362D4437463232453434324342392F636F72652E786D6C504B010214001400060808002249EE52281E2AE007010000B20100000800000000
311
000000000000000000EB600000636F72652E786D6C504B0506000000001A001A00210B0000186200000000
310
504B03041400060808002249EE52000000000000000000000000370000006662782F37393734364338322D443732332D343845322D393730462D3733424132303635393837312F617474726962757465732E62696E504B03041400060808002249EE52000000000000000000000000350000006662782F3739373436433832
310
2D443732332D343845322D393730462D3733424132303635393837312F76657274696365732E62696E504B03041400060808002249EE52F270F1330600000004000000360000006662782F37393734364338322D443732332D343845322D393730462D3733424132303635393837312F747269616E676C65732E62696E6366
310
60600000504B03041400060808002249EE5288E57597CD3F000090410000420000006662782F37393734364338322D443732332D343845322D393730462D3733424132303635393837312F7265736F75726365732F322F305F67656E657269632E706E67355B773CD4FF1FBF73E71C0E67EF7576C9DEF3EC995D46C6A1EC50
310
46649CBDF79E192942562825CE965D8A868C2842C8DE9FDFD1F7E7F138F7078FCF6B3F5FCFD7EBFDFEC41B196891913091804020321D6D7513FC77D8C5070EC3FFEE51B21F068154CC75D455CC028A3EA68992803810109FDDE5D5CEC5521B28A1B422BF80741695D5B529DA1C2D058AD2388BDA9F476F7C2CADC939304173
310
DBF48A452BF8A700C0C70C3D121C1AA15A5270C22E2B9E28763651F7DA0D12CE11077B2ECD0D560B5E3DE2368B1E65C5E1C87384A4CC5F2D9FB8BE39E9B77C753783A37998F5CEF1B4FEE553463245C9712270880DF339E0B882A6BA713D865F6F384C842D440934EF264F4A304F8DE4EEFA1E2BF5E2D91F5ADD9613D6E31D
310
DB33ED31DB1D7916CAF091286EA3D31B9CFECB78BB0060245B943C4C040119FF780A74DD308BA9D028678674EB5504ECF284EE814DAED07440BAF649BE4B55DA2890F4D73E2D489A59EE54FDB0A85B59F2F52C4858A02705C4815A792B0C4A996A2023ECB195073E115E3E3647F64243A8338F2000BCB58DA5692C7E7C3D41
310
3F963FEDF3CF00FBB0F831A9D51360FECA43819F527B89FA260EB63C5DA676830AA3626A3693B23F1A17A0DFFCE3EE164E31B5365EDF0C89EF64D8E38AB0BA9A1117D7C3A0EC44F44F4023095E80BA610DE336D0F99593A88BFC5306E72DF98F7FD132ED95878DF2964EA7E43071359FD83B2BDF9C6B5BDF768F0F3C0FC351
310
199526F53D9460A34511F75D1B63E488178569472C91A94497807A3FD4A390C6558F26D416365C3656DE6E769DA9D8FC73774E1709812842DD8EF96AED1960F79D21B395CDDFE6F92CB4EB962A4668C76990E2EF29798C8941D67DA50F4A5F947872460F1F6FDB794E8A29FD7AC0C0D6E0714339CE258FB17AE8535221E346
310
4A10F29A0BE5EEECEFC5675926A89F49EB14E5711894F6586DB5754EB4D5DA9C6437EBA57DB97A24F8B8A8DB295FFD73266CF57E82694DF5166DDF93573AFE9C9C5EB05F8FEF8E89E0A8917B0B3724DB7BEBB53252581EFC3E38166BA131A3A5B42FE2AD00A769BBFA4458D2DE7822F8C4F63D0B8E21B285AE13325F3410A4
310
35C648C9D91FDEB109E73CEDA7BC796961AF79175E1A3CE4C5E8B0D009B0C9E29EFD98BC8E97554E3D8D838424E270F7685226E5AC268E021EDE3522D583E8F20C0BDE2959EF5BBFEEDAB32FE9A3ED0E39F211A86AA9DEBFC68182EDED132AB8BB794442D2D7EA9F4D8BFF52BC4D55BB165124EE90A42D101E67BBBB292FFB
310
4F66DE5BF2300E44546757DA7CEF8932BFC9F92A0707953491A55C5A5ACEDABD9FA1AEA01BAC3DC5A24E22E7C47213493996EFBC369D086ED9397C9BA6C7F9855C7BD5E15BFC8C53DB3D2A4C5901A57ACD2FBDF4D1676E95338B2C2BCE65FDA4C64F5FEFDC7D9CA5AA1FCF11E193F2FDABF0F4916BF13FB916A224380E6462
310
A9815F2300DC49CC4DF8D055CEF76462F4B7A7ACA7365C2707891370BC1D0AA6203C44CCAB47084FEC057F27FFCD57F89B8B9852459798A675C66BD7CE572CAF71FF7E6D7ECF7BF62CAB7B3F1107DCD04DC55A3F9961700286141C94A4F771FEB2BCDA2DDEE0CB0BAE402FF1DB0100F8E475DFFFC074DDB4498AB7D186A765
310
4DDB1CB680D703D47CEB4E72F8CB13D86A4AA68116E26387B93FD6738779B34FEDB8E517EDF2BAF28D9BE93A1D3A164320E07D42E514725C29515FF361754213EDE06B079A2E99EB1CA82A02019EADEEB87B9AF005BD04BBCECB14AACD6B24EFBE482194A97DD32400685FF1FEF1544D1B14EFB1E7F08E6D2CD2AF52DE757F
310
35F5E62332EE88EA26417AD5C3E0E319D68F25414E6D672BD4522B278C57D18F0113921C71D96527E091F00CEB15AE23D24667369BD3CEFA10C7549D930890BA4366F4EBC55F01F746109F98ABCDD5A3EE06619C6AD78AB33E48E4C9BD21BF7478B385EC05C4F8987E2C1BFA0A60EBEDAA0AE0B015C2720ECE180FB6F2DEFB
310
EB822D96338C9B63822183BBF52FB664A7AE57003AABCE512BF77E7E31BDA2E739AC4C131657DDFE5225E900FB56CC01CDE808FA4A9C9DA16AC679656BB64796283D89812B8F91136AE18EE5EBBAF47A73BE3C153EB5D4CD491B4BFB4FE690A4CF9ABA08C0D8AA64220C438C96EA6CA80B58FE5761E697B3A292EB9FBDA502
310
FA863E49FE694ADDFFF9D62C520BDD1A22014147A0903A05B9B729F54272EF83931FEEC057BFF8C8055C279EAC5C0011804828734024F6CFA319C9CC6867C727184465CD9BB7ED386AFFD96B294A85E3802FAE47244602D8273615952B98C4F23F7EAE4463D9D638EEE374A20959E0FE519C4CFB0FBFE5DD80C2AA3F9DB961
310
D1BDE57E67C9BB47B77FDD74EE3094F5DBBE3EBC1FBDB7393F5116263009E2EFE1AF9A221B2AE234C902BF70E9F280ED23E73908361565964333A3F01D0B006AF32FB21AA1316744B489D5A198E85299241735BE559675130955C902A8ED761FC0DBE337A9F91919AF5CE32AF902ADF9AB2615E00E8A94586BA1A90839B618
310
32FF1BFB76D2EFADE6DB1BA04CCAD3DA649E7E2A0219F592E22F2AD54847EEA8E42271011E9074F8F3DD9FBA6CDF88FFC9FC7E811AD1CA8F4557CE4AFC7BBEDCF0114A48689F20A584520C74DA8127124B767E2FB91A6B186246727BE63C9445BAE02088D58B8EFDC0F1072407CD9B89A13F6303B4A928F593AD489B58E686
310
9325790ADC406036C591729FE14021F94B7796BB11848D463536A092A26F077F94639F7CEEE2A724C66EC885F4A24F8B8A0AC321F8FD149BA529460FAA34E4663C02D41FDF80BCA222D42F0ABFF8490F4FA74C673807C2051D8E467B47B616072860069A9A303ABA9B319D58404461401B0A0F9BE5E1E151C14BC33B32ABE0
310
3DDE91708DFAEB15E7C0D593C86BB7D7EC17BE56E57975F077BFD5525F3A1A361D584A75E08CF29FC7B44B2B3085014F3A5A14517377C3F6B8F37E59514C3B12F8AACDEDDA4DFC49BE5710101534CD6FB6DE15B50F11A09472AABA727F0C49D9CB906B158030065F48EB3625E010CEC1D511D0053474B11E6A4F01C0D6EF1B
310
ED3A944FDEC70E0DDCDC756C86545910E0DAE3BE3AA9A404574C2995CD5CAF9549226BC94B4F4F0F5F9086F418F6B32346464610D8BC7391D3C3A3CCF04CFC1FB2A3A3170E369511868F14EEA4E5E438CC73DB1F3248AA94B6B2FF33B222FF3D1E7BF146CAD229770158063BCE4F5391964DF62F7E52A7BE0EEA829C9E13C4
310
C147D6F93FE59E111DAB5E4594D6F3CD1AD375EE039930EFE5AF2BB2D41C83C7DABD8C659BAFBE8FAB392CA634F3D15C1D945DB4588D2B0824A4EC928AAC565557CA2F0DAA588CA5BE30B3A8004F7BF005E96CBF891D7F18112A3619FDF530DC8AA64954258E1811789B5189B49B4EB53F5F89F7D37523894F3EB57B373763
310
C91E502F52CC99EB7BDDF933FC324C4FFC2561DFFA7339FAFDD0A4BFBE6D3A8FF9ED1FC49898139864602458968913181918F719CCF5A68B2EE9C1FF050E34E63107003B8120FA982C21B30A874E4F5E4B38D5A8290C4B8D9BE48A0BE31EA995BDC37AC6DE90BA17D259DEF53605D55922FEB1855D915B659FBEB350EE0DFB
310
2F9F766E1C84CC8964B75D08667445EAB966015F63A18A9E0A325C1B3DC628C0D3CB60F767FA93CC65F25458BD23C3B312716E5F40E5858AC06EBA9AB14F95DB99147B832069201541D09A0D856E12C629CF32683760EE855537D1901988D5EBC156676C7DD51D7207CF3267AF1D76C2AD867315E44618015313A98B19941C
310
696FED3461CAA9B5415F918556D7802EDACEFD6B2E45853A9735DFC9DBF7E440F9319F8B6805A973BCCDC76C069A9144E51F187EDCC12FC31B5DEAAF0A76137199B106EC84ADA6B6EE697D4E6A96E007417F4E880E8B1E89B4BCE9D81EF611E2ED8F0C1A6C25F620FAFAAB656A7C42D464880E8AFAB0E0FC8EA38CA9A8AEEA
310
EE3E4648BA4680270A89743CDD3E6C6CBF34B7B640EFA285ABC7EA0A1E28F3CC963D114A80123EE66D0AF7D5380EB41909B605AB4765B709B808590458157E69BA1378FEC4B48CAF6A730E3BE3C5EF2DD1A5EAF94B1DDE50CEB55DDFD7EE9A16747FA4B223359FB1FCC69E1194892BABB93A1D5C4E807AC0EA2E30180811E7
310
7A2291F6E7F7FAA5E0F60215BC6024E48DE436C511F0628B8CA189982D4D83CCA17D305A7E923C37941CFDFDCD93ACAF735EF5F0E61BBD3E6C41A59B242790D3A3BAC7064DCD89AA2E37214EC839820949D5CAA31E240D2948E48F690298974A96BA9A8432BC90F5071D6537C9666EA4564796B7AFFFA548077BEEA75F6308
310
3435074BA182F3699557397F71548383FDA8CA34D99B981E72835ECDA5DDDC151315173D05A21F651AAF8524E88209E2E7A737ED1045800CE3390050BCFB8BE588DF111617874C62575039CA588EEFDEFEFE319B739DE2EDC147092A262611E159650E787917885EF08F1F51B8F2D8A71D60B58B190FEF9541A1BE94BC19FE
310
A50784DA1419FE4B0FB51B8D36B5FF8E1286FD8AF42B91E59A5F1CC4D60174E764045FD8C57B18209B217F89A62252BD20BE0E63E12B8E8F029FE19E0E8D0870F58721A557082250D5424F7909369376E41666C0EE77CD87CB283F661D5FB6D0DA023CB67320A20DC7BE661E9E1BFE5463085C557DA1FF9BE835733766C3D1
310
39F2CF9E2208873AD0EB4814DE9E6BF2CAF81614D4D43906ED1C05A3265CABBFE192770FC2F64F940CB6B17B5F166F133C9AEEAD2641807C3E69515171DD74C4A85311513D6EC9530B3B601B6BA3EBFF3B5C3D2F7D69765141E345F75433953D013ADDF8F6AA7DC3F4A7563FE5C7D367937E2900D7EAD0F9FC9A4A1A9B5BDF
310
1FEF08532660C01C5D6DE22199AA774383E306DAB87E301ABB7D213887F9869D4942D0D71E94B27EDF216A318BD488D45DF84529EF575AF3C3938C0AAA0215B01994153E2054A0B894DA5C784980633AAD48576957CF4AEAEAFADC7C587368551C73DBE1E57C58AC713303A8BFC258BD04B51724459FF9E24C03A81E0E0679
310
CEB9B348C0DC998FEB9C6D6EFA77D247CC8F92D3848599ED89A23218D0636465AD1CEEB7DC140D7426F83491C4E8E8281C2FB35240918FFECE880CA2A42D70E8B20B34DF5221C7DB0CF90ECCB9C745B37A47E9B716FF7A97B7A252C1F3814DC7B1E1A7F72B8751D524EF7CAE45B0C73B3BE7D08ED39781B380DDFC9AA4A474
310
9C9493DB5BAD07A6EA6C092FBD0E85DB004DF06B8C9D3089C5320187E4CE1846158C7EA7DDAE8AD9AFFF21AA3A1026BB06A259845E8232DEE62811A4DA9CEAB3A4887320B76E2AE5615EAB7BDF738CBDD01F1E64064BC13D9EC53576751CA8CACD58B3CEB0E6CA585BD089B2A59B9FC101403387AADBDBE70586B93D64BF3A
310
D4453EF9C3B6A93817E8346991798601344F79A83C51F3D50F7BF2683A3605F51A72449489E0EE6169C749C60B1035651103AEE24D24E51A759C840DD3FC6504DA6FE107510E447B43461C79D22970B75DE5E1BD3007D1AFC619A4A4A69B5626AF5E9B8374E20677F77E2F8E73DF868E8BEC7EBA7B6A75EEF7205E1AB9486C
310
B642741D6E03FF13FCCEDB1C4AC129886268B01CDF4B124AF797CF784F3C6DEC97A17D4B558070A0F1C04DA4FF9BDBF34159AEFE958479824B3F58EBD1E19088A2AFDE501B6F2052368A3FD0E650A179EFAB1561E1D27527077136E652676C3670F42DCB3352F48F6BC86D2C3B0051727E41A0A4DC6CE2BE9D47F5CAA2935A
310
3C0539AF080665997194ABECD723B08129CC5B6B21D2E7D54CD4D12610E7E9FB8306771A89576C7A982002775ED44F3F744CF21EEBB27A631671D921938AAEE3EB0D19CD1E083727F607823E817BF599DCED5394E37EEBC2E88782E638920CA641EF74D4CDFCDEF06F4278ECB18E31E7E9876F2D783C8BF429C75395F57E98
310
C2B495A3DA077EB3AC3C158608B6B57FE3EA48484D9A480096FCEE0DE880950E7E5A5714131C5C41AAA29FD19AE81AC145FA1B9E85C7169A5AB837B213493DF7E9AA4B5FBF9CDEB36EBD21EF1181B7CF7366AB2A951D01E37AF4EB835D1BE8C117CFBE7625D2EBCDB0B20C5A4B45CED0BCDE3EE8DA9DA78C2E21DEAAFFD119
310
7E463C33CC6A80FB785669B856EFF7A8CCCA2841B5A5369173320B1170C368B2748D81062EA0296E5E2D95D7667A4A46D98A6FF475C76AAB0A8C8D45E226FAFC9FE0133EA9F60111F99CA81ACE03A1D14C89E8B0D69079C91464FA1D99E651D0EAF606F345C42A8A1AA9BA391031582B96D5B4176A77AADB01F12FD298A75D
310
EEBB2C82F0B8650E880722F8DDD90C56A7A058E5FDEF1AC93545BA27367C76F5D8F9690CB6F8DAE141EDD7971F0FB548A2AE435F224D6E5954CA155512F7332029D5A1230854B79F258EC5FFDB09F5F6343A8EB193229B7F7E79B3E48F8E183860B38C8269D1B53738FF1E0BACF6AADA6D4869E9DE708E79B5DADCC09B1BC7
310
6F649731CFAF59A83FD8BAE4C749D66FA87A3810D4D62FFE826FA400C0F325D2BC0F3CA35F5847B82A2ACC7961745C823E4D863D54460AF792CE6F79B5C7A33B25C3AEA6CDE15A919B6367D781E9D44F61BF828672594A3E1D9EDD6DF179A81F27EAC05B936575D73E05C209DDD2115CFB705DF9BBF3C911589B3640735E9E
310
618FC9C36A7326C82B2205E244C55D56FDB9D5DC93CE958D4BF8174D2B3DA54CB3C09F2C2A6DFF73D23B2197355761AD421EC581284A7EF8DE2CE3497C0C804D49B41DFD6A7360844E5BEFFB495CFCDB97A4595911CDBA623274CE852B5E278AF0BEB1770E9D37CD977B2766A7DED0E94B840E1E95E8C77DE5CB6354AF7871
310
427C28ADBEEF7BA0A28E19DE9ACD75F379FE373EAE6DDDAE3834692F9C2B03B4FCA8FCA9ABE8EEEBEBB725B88A7C90941E850682CA04061A7DF0CE82ED49BFAFFD42C309818FAE14755CAAE78B0F73243ECCCAD7DF58FCB9CDFAE7A4D3E6671A613639130D056C8383C8F4FCF4808C331E544DD26E4755D09EA05253B3049A
310
1E32587CC25D72E073E2CD96D04A71BBCB0038FEC3F53D254199C3CDC67CD66640269431860225392B2CB3ECD0B4498AAE78BA1994246AE1EE78F2EDFB79F6C6CB6B5E279C4D373FBC21CB2698C9ACBBEB6A4BB6B39E16AB0E421CCBFC7654D81ED86022F9BB522146F9F4772E2D0E4FA70120C95A85A417BF5078B232F475
310
4363EB1750B2AC2148EB46B1EA72AD9B4D23ADCBC589D70106C3EC2ABEEED84DFE28E718C6C83502C28E9FDD3B09DA0A6F6F7B72B706A31C9E2A331EE70DA56A083D2177BFD63C55B11D8D949FAFCF90B23A1E24B9B5018B9A17E99F2890EC302F330FE7936E2C23F0D237EC8916F5166AB84B62A21BB0B950146962D754F9
310
2CC2C8877BED8FC7B7B25726DD19545392570B3A2C66B58F027BEF412E552D12A588C4A3CC5C3193FCB3485EFFF700D0B9EEC077754A33DC1FB9E25AF814628F91DDFECB667D3F7690803F38D13F8AE39353523BB08FC6760144AFA2CE28236F65EDBB3D5F59A57D612B99E3D7E5F8A851666BF9B5A6658EFC96EEB37A378A
310
BB0EB3FDDF1303AF32C41BD1C8560745D7BD81066B0D6313359CF488563D3BA3F8E2185D1FAA3EBA1397C9D0E3DD232180A4DCADB6AF25DB3AC3CC26589C8239E66E81547BC7E2F328F9884764CA37EB5DBE390DFC03A5246B456A7C3684C4377D0EEF9A350680FA9A077E8B2957B489E09AB1AD41316944C2254B5984830F
310
691C93CAA767EECF976FA5647538830B5E63236A6F0365C1E0F3E327F24FE35EDDBD7360B0F7374837409F7A6311BECC12B7026D4FA1AE204FA3F5FE904B1F420C7A9044AE58E403E7C4848E7DA25DC9EDAC79DD756FAA26B9EA83ACE8A214A2612A22AFA19DAE7DBAC5F8CDE1292A485F98DAC731A29FE01A3966E96BCB9F
310
B5A4C8830E1B9AF0C54B87FBE221A097036E5D28D1F869F810C06A9BB0AC0612F69AEBAF893C6E7AD59460208BAB3A6B09CA4F6BDDAB8CF0D1F84B72487498395A70DCD754796E271099A567A55CF242BBED64696378BB6CF25EF0FCDB589F3A82F1116D010A9AB9FA4358809EE0C973A2B4229BAA876A70B03AB49CBA7FBE
310
71DB1832FFD32F9BF2C8E98075CACAFB36921235D0F552B6A67E94E094097A5D7DF681B40623DA535ADA7A9AD8E9A62407D7C9A5AE51D62A17A83A23728DE86BB56115804D3F2675F2C6B87541A0FC497BF0CA86420F558C9859EBE9FAD62747E323E3AADC03FDCDDFE7407B09DA90B44E3185723C5381EAEF589765E2F7A0
310
99BA46695BAD60CEF3491B8A171F5F56444F7CE9455312C3498C74173AEA0214EC029833B34B650CBB5A5508D5091665309642791708ECF27CF11DB3D797D6CFE474453BD4BFADB768094B2147814D81C7CBAF8228DCAF5564B5891F5EF6A860EB2E323CB82AB868D8EA048880D63B0DE5341F1B3D53297B928A11E15F25E5
310
148990F710747C3509ED14909C552EBE3973246FCE55D00564D8310BC3EBC5085D08D806799B77D6C57FDF5E55837F9E934F09C03C729271B64F12D0A9F9E938107CAF7BF1EC8CF1BB9B42363D33070F4CACB425E605DDB0A34A12BB936DE286B9887A4E2E558F0886498BFF49C311D96C277CF6A9FC0D75AD0ECC5226D7E0
310
E3572012E56D7FDE4410CEC7A6D0F997F225A2055B8B92E3956E875AE4993CB3D4C9063AF98FD45E1BAB165640A43439A2C9181A7C355B297C0A0CCFFAE19B6FA3C2BA238A885FBC98B8F6DAF4B94B97304878DF4D8BFF6A4AEDF79E90ED4E68F00CD7299F4E0D83E35601AF0CBEF18C1E870E74758FA91F5131075004DB3C
310
FCF09AE1DABC11957FD9808C92E8A678CE9DBE40DDA0E0D1D505AAFBCBA208232BFB6FB3704E8985E61ADE53DE74152F5C7DE74B1DEDCD37DC3E8FB30D7EBA8B9EFFC3606BF90B8D438279CB7709FC7C00D327F41817EEA71CD9E49FE9C8C9A81C70915D9F0F15958EC5AA4C3BBFAF46986B90F188BDB24B89DE3C6F29EC3E
310
6F66D84856EE96A35E657CA41B41EFD8DBFA16AD6E91439EA92B40B21C053249F51AE50EB0B24C770FFAF40DF12C8436366819C48E36547D4E7B72FE2BBF10828583057814A668BDF183F6B2E58DFB151103E56303E63D00F39C27C4661605DB644D19175D02E3F0241E8FC3458D17AAAADB117CE9EEA690D0DB01E634878C
310
04C2C9310B69FCAB831151E3AD293BEF6E46B0ABCECB50F5939B39C613D41E81FAE8D34CAE3C4566B761D37185FE864AC32FCB71AEF39DAA5BAB88609BB980CD2F07A8F941653B529567726E2B2A58D079DD57E1E5E31426CF184A04D7B03B985F276D47406AF276FE32E3328BA866EB1FD39BEF57863A317634AA5FE46740
310
9B3873F5069EF0D71AF00AD189D17BA1974ECDB2D623E9E14086386A6AAB5807825C37B015BFE892AFD154920EC437EB945D958E18622E1E0FE2FA06557CE4BB9BBD05A2D40E774DA2B65473791E314B7D6C886820B2FCFE4AA272B3B8B15E7344A145E8AF919B5454D89D36D413E87211186BF6F645E5EC94DCCE8E1C7990
310
22E4EC9BC86D7A0F2AFB1FC4B2CE48F84B3F49ECE65BAD24CADCC07EFF39AB06BE9E6B27A059938EA7208838455383DDBCFCD967DDE4650EF92A14FF933C975DB20BD7FEEBC4487576485963D757D16340D9599FEB362F775F38CA4185A86F74B629C81B133644A3B18FD056E997E0734F9BE26D11C0AAFC669E2AC9FC41D2
310
81F8B2E1C35AE27BCE05F3DA295488096688719D974DF1B5D182DB7792288697F8763CFB43562C1CDEE11C4AABD5C22B6E33F6F389CFC3477C5919DC0D533F8A7A1846B7ADB60ABDC26C43D0CFC8910B7C15EE22675BD02702ED39DB77A87A192CA7A543E6205B979B9F5A6B512A3CA799E198B2D5797C0AF8D1D872CA455D
310
4D431A7879D4DD76110B5FF7F4176B54477A9EB5E4A5D11214FDA585F0382751D8E2582BA5D2075053298FEB8F1537304E32CB22C2E2B693DC0A760B1DFCA751BDC445AFDCBB12820ED85F6D5298933C7EF1211E9E057684056CDA3FEF3BB6052355E162DF27C59E965A8DDB7F9437EB72CDDA3A090DE65A5B2F50326247B7
310
EC67B73ACC7047FC9B353D6EE990F772207C6EC52B39DC2F3C0754821DAB559F7C1809C7D0DD5B0499D0442E0A6E391B3D5DB46D11E731E6794EC77523FBDAA242ED67F9FA1FB684255671F63C9BCFE6E7E896D51001A6113EF2298BA494E0B0980D1FA5B9D60796554C02256B1E0345FB7C6186B6A19D2DCA270416262845
310
FA4F42DB5D9B0A0B6F07FCA2E56C242522E001E0CEB734AF310FC8BFB57E38E03AACE93B3326A2197891E68452B26A6307FDABFEE0223D3C03C3C73D2D5BC054C8311F12004CAE488E5C29287F8156A2CAA4AD0D7BE6B97264E4139F437CE73ADF52E5134C52B819777C18B323A5924E4F67AFD13B1CDC3A61793A79FAF5C0
310
CEB718E441071E797C6DCCB9EFCF7E4A1E9F3DF3C2F9C9E8294E9586868788C972857FB0556D7A26941A7EEB9B580AD78EC40B85DC906B4120A563CA3B87797ED612D3B035962BB75F6515A393F4CB057F564CDF54F2E5A024514E6A1F901DB80C7E70B1FC05E356A7E72FABF4775B3E3FB8F70A2A8E7B6A94542BB3041579
310
78CCC999E707A29CC795E67A59CC546A5D47B368954CA7B6E75EC9E1F6FC73CE3B4F71F8CB1A6B15923D61EAAEB14626AAA9D04A26EB9C66CD1BE86CA31A5D8703DE04CD1EBCE4F5CCB62F93909AD11E55799A781A956ED27D3E738F4538CB04ADABC7DAEF20BC35BA6A90BCC1DC61BA05F20D8832FFB9BC9B15E2DB838A0A
310
FBB7E0C82A562127E0446894F427794C3037186F622BF24DE1B00AA10A23BFA47B2A180D6DA5AD6F7326FEB8C100C2D7142EB2A0B2A9D1008A09BA343D70E054AB69E2A7EDB783CBD92537FAF4A44D1296AC2792729104B3276C276C951D0CF3CF3F1E6B017720A7B8505A5FF9589365979678C36F1BAF759EAF57C60F1FF5
310
FE9DCF5F8E764FF25A2D06CF25117A8FED51884C13B2B750DB0E4F5E3D64124FCF11F0AD8F1CC3B3DA4B38ED22BF1CB2585EE6BFEBBA63FBFD44F9537B9B37BDD6B358720F98A8125AED4349CCFEB0E135F19E208A04CA7E2B10711185D72E381F448036EF57C9F874E54A971CA37A639E986AC0226DC5AA00D5B14FEA9192
310
234B3DE617814FC221C92F33F1D392F297731B567FD98FD91D989379AF567A65B8ADF177591DB90FBEA99BF4ED11B16E50A0AB1DBF1156D034BBE04D69D08F939D8E92BF525A1DDAFF80ECBC95D8F45D3FDD289FD23F7D8B452F8EBB34EC082DEEE68E18EDDF072060FAD2AB1504DD4879BF67099FC58F6E9DEFBF645D1633
310
4A3E9A127C6F1AF6132CF287E433B43A0EE93812B4AA0B194E03EE3FF91EF9C6ED0074A2F6EB18A96A7C9890B1FCDA1F2095E944DB911ED54C60DF16FB74C8CE9BDC7C54C4F14078CF73C2FFF1F1BBCCD7CF64F71407EA1683DBC410D226627F66E509060D5C0AFD611DE681D509DB8DD12FB1265B03C6F5C55FF4C30BD941
310
87FF692B4F152982502F193098A789526A038AB529A52BC0DC4FB6285CBAC10A8B8DB75DCD9BDABBB221E27D1F8DA9F5EE5926A1C8AA9BA9BC09239C6A7F12914EA3B59EFF7AAEC3FFCCE56F1C5C2980AD072793527565E774F4631DB178CEEC691B1F367BEA0CF2907E1D6B854D527065979DDEF002D8B2ACEA7CE21AE297
310
737EDE1D45B31233B73FEA35BCFDD0B09721FDBAF6432681F2FD10C3E9EFB246FD6E854B344ACC9D8A0EEF876A7314B49B6A499FC650B099D650DBFEC7638ADFD245E2B7839DA5AC5F7D5623FC0ECEEC8653FC9B2BDD1AD4D00A566FBA7186DD3C9CD26512551637498CADB950FEC71ADB9A5524285DE328B8EC7EC75D2345
310
AEC6A27C42AF6D9B92155315C80DBFCABBB7DA0FAE425C4FB896B15C9BFAC4FE67DF5A23D30C93DA4D8F36FB15D100050DA6062E22AEC5F4DAC4F6FEEF97AE05DE63C6D38F9E068A20BC5E3B6BCD75320C5090924E7F93640A7735B1A43451C2D91EE62C6238B797349E59890AF3A520DF4A87095F3ABEC2E61F0593416CE4
310
6CDCBE0E00E2523FCCD04408588B5B6C9DB6459C786CE378770B54F51DA3A5E1DF2A3349BEAAC234A6CF8993B598B3B25B4B113E353A4D750FA7534749430F3EBF2512E7EA3FD43C6AB9A1F765A58463B306721A15D224FAFE8C6F5E3432D57EE697DA0DD5A9D4866A8BCCAAA9DFF1F06047851408FEC060471D0E3EB86BFA
310
F46E4B5E60311DC3E3CEA147C75CF971BE74689507154FF2D2E92F15CDB2B9182B11459FD8ACAC5A85F174BC94A7F4EE4C4F5CAFA7C02E37BF0BC77B7DCD0C047BC316F562A01A441AFA7931CC84A28CB9F4AA367EB515778F29BFE61195FA671F4352E5E46E3A64773F1F76EE5EB36D7BCE9BCEAD837A4D77F8DB8C92AEEF
310
6711920D7C7D0F76B0FD0EB7AB83724CD35BCA7D36DDDF5FBB7FF6F04A91F3E2BB3B8F1A43CD659639507FF6331C5F697BCC782AE57D757A27D97F1AB9E0AEDB43F92F1B2AACDF5FEC8ADBAF9F814E2027003BA2F9E144B1938A7A04050AE5D953B82C45619165C813A10E76DD6906B3C16438064D14CDA713AEC420034613
310
E1AC7241904A49FBF87409AFB1FCB9B72FE7933A87D8FBEDACECE4EDCF6A4FE9FB94D5DEB74FAB7CFEAE17EE965DF980DCCA2D04134994F9A2E94D2265DA4FE6AA7B7AC15FACAC2B5ABBCD7DFF542C5314FDAB2E1B9D8B65220B8E2B638BE008E8DCA22678C820C5053664D15E89F2D735B51A84955E81A443545E9FF787BE
310
0FA700A76D136C27DA179A7C6E8939E01BE756E19CB292798063D8B97F44E8A27BCF3A614FEB8BE974A718E86F7EC99B53CA35FA24F61F2B07266684623A3D4CF073E511F3A10A8FDAFAF0078C577F4DF9D339FE7862E5FA47CF4344209E5BF76D783B1B48E152AD281B15FCB934DCDA49CEC5706B1EE8B460F435324A5CAD
310
154725E21AB8044B75A557A79F6C807B9340AA3D92503E866F4274412926C8C504E4D5EF8C0E68DD0B028781A6B4054F11CF18941F101C57CCC796773ABC8DED9CD91FE5788806C05E548895354AEAC96546D55B0E94A59F148D061F42AA398D822CDECA4CDE79E13469BDCC44FDC990F366BA5978C15F97ED80CBFD73B0CD
310
9B8B83A4F6845BDFBFAF034019473FB9A63BD55D3A4A7284757071574029A4D016DCCBE95DD679EF3C4880BF169422F8C89B68A988D2B13793CAED4F74DE7486C72DC94DF46B8E93D8E02EFCB1FF9B3BA10C8AE7F653DF94F4AF466CDDCEF5776687F7C4C14B63E4EED1719DC2EC482D7DBCC7AE518CDE3D5FF86D39000EC3
310
673C0044E1D308BF05F74D1B5F033A7D1BE7F74BC55BBE3E4A20F920946CA0271EB17BD2B80E5660ACB8A29A79F5E4BBA49D4D945B6EEF4A7EFEAA65E5555BBB57A7E15D2F83C69F30BBB978D2B39F1F26FC097424D39BB33CA3D87ABF64E307938B685BAD44F71556A30B7E712CA4FE600613C3E554B69ADE949A7CFE214D
310
F1FFF05CB82151EC6FC31950239F94CF7AD39DC473F6EA356E5EC2C4EFA04383CEFE985A127484366FBEE3C0EC4FEA363E4F6632AE781392FD45D67B63FB8DF70E82734F431FD3443172A0E30A83D60982D55FA6A2CF86DBA8382502ACC6CDEF3B907982EED1160E14863FA242F9757347E1544275CCDCF71ECD5F8621CBEA
310
326B8BA884AD7F825781923E66971F04010D574C541D8427A438A37EEF8AF88240EED7362C953F5A81DE2D56109CDE2524EA0F5D2F87308C0C47BD97AD605878AB8589E17CA83930CB5E0DCCD75853D68B1AB136594926DE426C367428E9334AFAFF90ECE221BB5DC9E5BB53D2CDEF954EAA9CD814F0E5725F1965DD458E5F
310
8487683AD86B9D0076BE3EE91EB1CECC5331A67A3F79D8B27587C12EC2A6A70474749F27B4C0BBAFB94B34189E88DC18964BE4121B9137FD516C7755356E50D6714E31ACD222621EBBCD1CFF81D87479056A9DA0E0B8EA19D24CF937DA89F78E8650CCBDC110AAB6C4E46DCBFD0446BA9E2060E81F314AC2031E88135E5476
310
AC0160EF5C0DD2EEF1B8B5CB2D198BE9A554A9093B5F7D7E4B5407DDFCA1D9C152FD97F55BFFFDFE802954DFEC8995B983E28AC92F1971E28F531DC407A1280EB125F64A72E617EFB27DFBCEDCDA2D6F2BDADA36873EE46B9BE1782998C63DA7182BC383FB6FD15DA472B175D7E8B4FC88F38D6E07FEAA3FA3CBB8F6B449EC
310
F14D2175E5C5CCA3A42ABF24CA6C9395AF74535F4DDB38CB84F56614B0FD32D7E19CA5CF988DB4449C40E23DF2B16772594554579094450F56F253CD25EA7F77366FB1CFE79696C428BB64D5A41E986189427E5E4D7E2DAE3D5BB4972B3DC44EAABDDDD63A2264ECFA5C786EB0EE1FDC5BE34FA0F08376869FD1E61EA06CAE
310
15191135445EE8F0394161C3266A596AA035572BB0C8876180D8B9C77D307DF9DCDF7365ABDA6F3A2366436457A4DFC1F259666569A9E4A79C817BDD5610E5200FCE894A358EC72858D50EF67545DA81C6FACE3D457BAF70367E1E6BDD9A952FB4F56247F58F523B97E640246051A72F79BE42FFA0B3187F63097F91C48B86
310
8586F714B0EBD5A00A8412C1236E1298F60C72BE6C96B82B404CADAA304AE9F303176B14BA53FBC2D5E86377E35542019E24D97B96A49B2C0E5006E7795954DEAF5DA58958839043C6C70BD3B1B33B6DC5C31316D8A6923F142E26F6711A2258AF977DDF1F970ECC4F1F2B434B96D81BEB6E89BF3BBB3C7C8CC80505070723
310
D6D7D7D3C8CA27CA164A26024FED94B12A86031867241DA53D929636DA600F050BC40CE48B8BA03D69224720DEE2ED2127390BDF5E6EA64527BBD4C4C63FA76BB801FEEC0E61218EC98A8A86CD8313781617877E66692839B9468CF4DB8E50A73986E558E309C0D6F676F921BE02F1185454DC75B111572FF9D27D85EA14C0
310
5AD7271225B391C4275659CA4A43759D0BA44639BE4C30A84DB7F67A41399FB95CBF923B1B1672ABC807C1590557FB18D811983FA97F5E609516D62281D38B1281F68FC75528C35E4CD7DF0F7DBB5E5DD69C414EBEA2F4A5B241B996BA77AE6C772E367408C633EA3E438B68563EA8BE7667F3A4C4FDEEA52ABD78A2820F44
310
3B7914A15F180018D231E64519C56A12F6CA7C8DAE18F06F6B769DBF92329EF6A5D18FBCE600F36BD8E8198DE5CDAA96181F3A756EBA5501CEE58F497EA4F418A2B82565B9BCC611713C0B708CCA1F398B78C5F7D03B3437CC18F13061F55C7BEDADD5ACB1DB0E36D3CE47FF6EA1A563A57E9649EA5D14D1A50EAA45746338
310
1C073777EF1600607BAF6428A7DDC079D47A204EF1E1F1F0589FB054D45E02CE623B3823C317C601E589E22B1E88B448524B86A82828E32345EC18AE17214B42F8C41C6D428016D9BA31DDCB47572561E5A402E5BA4FCE55F78AF7268524AA04130F3A20BA5D1E9F9948EA48FC8F5314FDB35E21898198060034ACE5E3E2BB
310
CA34092518F275190AF65F45867FF0900AA4B81F25427414C372BF51DC29AA855C5428EE1EEDD6B849AD60F6E73475C2D2523F8A2772C840A478DED18A8C5C91B085F255DC4F54EA7AA8947354FD17ECF8FB3B4A0DE7B483CAF3A1165EE05BBA413E5C1FEF3DE1D6B8F2F3F3251C17D9FCAB48A9AAF63AC773A0E413BBC46A
310
9ADF84A566FC920E4D8C52C9769EE3301CADEEEDD92B312E02E2A7E35B7F1E7D203FE5A7D75578B06E99D0E46FFADB8FDA17ED8880390DA29094202D6F645F76F6F96409CDA05495A96E84B04A00D1A6C6C81D7F3DE9376E828CCF144EE50E364ACCE7237EA0BFB5607ED1AC3CFE73794E5B61739D14DF1743441B1AC98F00
310
ECEDE9E7301FA29755FBEFA68C91EF2B314CF510537EF1ABFC9A762496280B546F5EDAAF8A5B387D469FC9A878A92828C88608453ACEC6094DCA54111E7AD5B2663DFE2DD151B7F123B9F4FEF8EE36AB125FD7AD52A59B1B765B3E3F73E3F73DEA93875004D2AFFE3CDE9493B87A9904DD052028949041A91DC0E1BA47BA71
310
4343FD5B25E0A6A09503AFC17C790058A836A324FE31D7893512E28230332F153181C1E018E1124EBE1BA262AA428A518237D1EA7275E48C5C561BD19ED6912EDD8367DA0F31E40EEAE9683DA9257525AEA7B632B97119E17145A90231768A4F3B9120FF32E8319B015E3CBE26F1A754177D8185345817C096B0CE443A955D
310
13AC15E1FB5DEEA0239EC32A3C92241A237B0B02FFCB4F93CF2B02570C8D192E2F2A68CEEB42F12E6F8CEEFF46C251E22B4341C56FB08CCE550E7A9D6F4D6564B9EA52A83D5BF2C6E03FA19D2775E15A8A7ACF30A13C259EE7F5EF2AC3BA354F1500E1A07FC63FB4686E2F12EC69719F9ECF5FE3F35598DF2CE944008CE78F
310
0911BA5BE5D0A34E0098FF038669C26030BA9B300303039852A8F6F496341737CA7E0D2E3AAA36DE0A70AA7D9CA0D54D9AD84B18A44C9E625475E1C97B93BEBB38DCE7D227E67A2D00F531436136355F243D1FC0D712C5765754FA22FCFFAE97919161F46D6E61ACB37D83777B385889770B50765B127768443A5C4D3A4E35
310
A3151111F146B7CA116F918A049F1C272F2CD7976C69A0068773451659A97E0F4A08FE604C3FF6CE7385DB19F4D3ABC8A0D80DA8A42096AC377DB49382B36E270B6FA7570188B4B7D1DDDDA82ACA487CCA5D38BD3BD039ADBAFA4ACFF27809239B722081E2EB9F145320553D183F28471C388BC8814E5045676767AB58A8E7
310
2D1CED2CA731379515D2E533E4CF0B39DFC625F97AC4836831A4DE330E87A8126FA17EBE583D614E71E22A8DBF2825599743E0640037303E8E1B1E8EA4E1ABFA4F62907B5E4E0E5DCFDAB417C36C6848A2B8D15F1E505434C0707E16B1CFC2A1C36A42BBF55734F8F4301DDC2A5110CEE8C0747F69519265012A2174BF4E95
310
5ECD4FDE095A3ABC70536B7AD0B9D7892F81287D667C108703C9B66A221E9A0929D030008F77FF6F5D2108EF5706FC87A3069B976F7C9FC3239D13D283CDEA83597461079FEEE049B0F392889898B7D87D31F8D60ED7B56B91823A8E4EDDB36C6172ECEE42BD42B12CD67994FA0F0DFAE9389356F4CD4425A4B8AA55CBF7EC
310
D585C6A2C2316791E43D5C06841ADBB226A87FD61515FFBB0167B74E56BD7F3E90A57A97FEDCBDF483A0D6699A8C0849CAEB4947FAA90D8E332D9DEBD9F4738C37DA0CAF9CF3DAA68BCB67C420459C7A64498D6E848E5CADE92BB6901F607AA331104A67F7CD650EE169B1DAE94D2C31C2F993632259B6957E246EFE4C5481
310
107B07118607700040E5812A2A2A38DA0076875258C753F60E0F2662C748EDD5F3F3686B8FC3BD6FE631ECCAA1E8B1C1E565AD117E54893E79F4672E32F9E46B2A183DFDCF3EECB4D4D077DBEA0DA254D256045109670050129E9B9B1A9E4A11344D61497A992778095151510C4BB7EF2009B63AA4360635312E4CF668B7E0
310
D3D85A8688E2BD83B569439892ADB63461930D428E0DE42E4AC57CE48DA5CC1449530D8BD3D6A0F08DF20C8E8F570F2CFFFCEA286E30969B4654D498A58D9DA782E19FE3F002181838925592C4A1EF0B332D88B61A92C644547BED490D3A42CFFAB70E36D961F694F6307F72FF15A1C79D5B1B5CEFD353D9E2B52566DEC8F8
310
F09CB3E8359C0F68EBBB7898243E34E12A015B2685AB303C04D3A9E00671FF3DFF0A184E4A2ABEB2B666AF5B3A209C73D8EF29DCDB069C9F391EEE9DD0F74C7BCDE16F8F02E3B8816122BBEB50665775B600549D8BB33A54A6BF940C028118BC6878C79958D6784F9DEAA6E26748386FFAF8D0D0101E2847B6563F5D8DC1D7
310
8F787BE00E2C941AE12148D4A81599FE8F68D4DA5CDED75530ADE138240300EE13B0FC13A1687FED6774662C05A2B7DFB186732F0D7A93545D8B0A6390AE5054D9CB582DA846D7A061B3358B45E2B52DDE63E114397EDB7E09233A579155D795BE76102CF277F4DF8B188C4F2879BEAE3C08347124BF9ED23B128259FE107D
310
31E34A652F090B30B39E0D9AF917B76A2806135621A8A60681F16AF216514BBD02711585B5B1AE823F4B2D0369EA5B6BCB863072727FFC871CA6C9AB79A814D989057E9470A3D238BC87CBB4A0EA49AFE2B86F22E499793CAA9047080450166BDC357524561E258C77CB697F1ABB32562CF87C3B7AA12F911EF19FB3E5C022
310
22E887D08202A60A17151F5E053A86B437771088B4FEE14D652C43E8D939995D34545E12E2FF93D4E366EAD25F10CB7DED141563C3D0C447AF06078A91135FD4B9611583CB4BF3BD167F2399CEAB0E0100F8FFC305F00F1711717173138B4B48C83022295DE657EFEDD97F238ECA80F528AFB4F8D67AD4E2594B9A3AA86D74
310
87EFC313BA95745C186F0CDD84CC12DC9CB0424B42203D351FD9C0A3AF10CC7F388E0329279087386421F194F4A29464C1DEF7EF8BE515E4A199DCD5B909342598D8FE6A231F71336248D5CEC5454455C7BE383B3BC7B260FED27F703FDC39A170F3827239102F59D4DEE7FEF82EAA1A5E4BA94DCC4CC44E7E2EDE20F24244
310
E4454369D2E87C3F823F193FD4FD27E1C23984B01898D15ABC20711A8A558054951A6AE280096BA36CBA439603B7B0B4C45F248C14B2383B4B5CD8ECECE4FF859AD4A6CA2326D020EF090F4041D28DB66E5256B56232CC52829DE8060BAE6BBF37D4B7469B822454FE93210A3E8D15E69FFCF01123222611C51C4FD0A041A0
310
CFA2471CF6BE38D2B20FA4C3525B5B8B586759475CF80ADFE67A284AC24651E52B8E683D24C2622642F27E7C3C22783BCF63648BC398BD6CD0D9C97E7E7E3EACB6126DB7A6C1FD9F1031302EE67ED96F22B77C7CA0239BB324207559B105E4693EB26EC46182A92C9C0DBD24F29B31C5C5AC1F84300E0E17CEEAC15F5736FA
310
4A98971E2F1423BFCD68D4BBD5F86E74B40A369F39507C88FCDB35D2DD8DEBEA4AF999E23CF2816D204200DF6E611781B9884C1AC8888B4DE397320472959434323A5A36B22A8E1F721A270DF3BD65E4A31C11FF048AFB0D8B7B6881423793963A23CFCE935FC189ED36FAE35C46DA3574C979E4394BE52084F3081837BE03
310
3396D2EBD80F1F691B273F660D2B32FA27A33B1DE4ADA5F0FA4651511102DFA410DDA86E065272CA314D5249DF91B06BB92807B28EFD54F08F7B525252782CD276DD02E6B0319B13DF87B1F6361AD6B28FC0D711CF445429B9E5A433CD493051C49A9E03DDB1B147D880253514A5DED88009018620EE229101C041950E2D8A
310
A8E1F5F5438E0C0C0C60EEDEE9E3E0C051948C69F84BB7B2A48A1F3C8EB9E6864687F4F4F6F6E2FA87608ADAF9C5E117B7C1A737E710769DA1D15ECE6A84502AA855398712D5FB51BE92E4EF824969CE18278798AC303C2C7980DD2500ADF8FB1E6D6C2FAAFF9987178923334A244758BAA01A9A1B70FA5097D01E1CC2A58D
310
AD0EC94CE6430AA9B0C10D75E3C6BAC670EFBADEE1607739CE0FC18A2587E3EC3058562014C64219C69BC269082D5C2F4A659278D585755912176D78A1B641719C2A394CED495A1AC5D583FD2F5EDD93308EA7EAE8A6DD396598BDBD3D4CFED62D18A5BDFDE0DD5C80D1A89BA62697B131AE7CE9A6594138582F1B37D68F17
310
49AC7CB67A70695D48A4A056AC1FBD4E82358CEAE38F54B95A9016F9000F9879C0D9D131768635CA798895F27D6F1614F11F2838A83611AA51C9A3DDB539D42979C29F10465655C17BEC3E2760B80DCBF609198C7B171A531905F3EC218D696025975E986C6B4C666666787271F202805577DD5A3EF0CAFAF91B62DC4B2DB4
310
217A7606282F31D8DDBC290593BAA93EA6353AFA9939B877978481E15CFC9F2755CDC00C538F63A4BA3E80AE009B73CA0185687D339A507D165B74290D6EE46D5C58148F020C3668ABE9EF2F7549170DC80DB41FFC1D678FF19AEB10C7133832B104B80F691B3138F97A92D26E551F1F110400D45AC71A9B9AC41A1A1B1DAE
310
ED0B0810638EFFB511D46B121C6FEA0F38CD00E03CFFEB9713FE1F9C263E4DDEC160D0497FA9A132BA608584057FB15380825DE6C7FC3C667EE947D488A09898D8E939C4953BF4EC9836344D2CC6B2971B2A21A572B06096F4982D2CC7232D46E8EA69DC83722E267754D777F97F96D5DA74E1E75178084D0E70F12AD33E5F
310
71EF2AFA599B2BEBF60A5BE475F444F240CBFE8143C334E7ED9150FEEFEF7EB020C4DBED388DD1D6A167A76F3CBF119B578AE8CFA7736ACAFA4440A1C47185638A0D2F3EB5BDDEFDA958FB13CE4AA4923D5BF840392D45544329525749734866684BF7F8D9D54D892E19BCA9F829A0F8BFCBEEA6CFDFC61D74EA1A645ED7A1
310
FF241739F15694BD835B66FEC5677E40FE69BD3F91AE402F036537218A401CB0828604AD189E575015C6F3F6BBC8AC79CF6C70653847254B31551EFCBEB5978B9DB85D58D0FA41A9DFE9C624834AA04949D24B5AE6D299E072D152D12097920F14AA92C31C3B97E28B6C2E6E9C23D63043ECBBC0A60FDF5BD0C33C127EA8A3
310
308B8B6AFFEB28B4455BF6E7AF4FC6222728357EB8E46E85053E6A8843AB23295BF838ABDA94658FEF3F832F147046B4ACD6F7D48E8FCC9618582961C898D1C7A253C91BFECBDA6BA18A1FCF70755DCCEE2222F41B76D23CA98D0CB3D95F0CF66D57FFF65E2A90F5DF40FC3187621E981BD0BC1D992787212688976B94A8F0
310
C6EF646624B570B78E068826F87CE27041A95C9A4871FF65CC17FCB1639629AD6A9517000D63AC231F3D741CB8430777E7ECF80CE7A3F73C0F162F7E56AA71F4DA80A33CD6ACEE78E2C11FAC03DAFCE929B106F8F6B3ED2DC71FF994BD9CEF4E9A94896EF1B6E2B7B4978168BCF0847A3D2A4F1B0500B926E634B174548E9F
310
BAD27153FB5FC36799B1E6C7C38A94E1F9E996796D7B485E635D5287A2AE76FBD11A341DB3F8F810385BB7296391973DC6C37C452A9305AEBBE0CDB6C566DB59FE60C8E94B1FD090354BF51439FFD1B48D725228FFA88C84F686F547107A7A235665A4593B7C34D748C1AC8D56DD5DA861EEFBADDECBBD65117E65851F9035
310
1AEB65F0EFCFF4BCFEF24CB7A5879699FAC437A7AF9099186CF006BB923A59E37D7A36A29FD8D2CBB914A5E9D0A8FD212FBF796AE9A67958FF1D5D8B85F78F96219D4714EB919929241B6C018AAE0C02069F8D919961EC5DDFBFB7573E3AC8E08BFB7C8534BE6DE045B3CD63DBD71F7638BA2309CAE398EA3A7D8F98BBBC7A
310
EB367EFA5CFA27A9F8F2F52FE878058E6209C026453F8E7E8A237DFC389E9590F6059B397CFD65183BBF936E86896612A5B5FEE49DAC8455D026218AFEBEC12B3523A45B57B82C9C97E02ACFA1184DB18E48CF615DBF39C3CC6F0B4AE6BBEEA2E39D944E290302FA3DE33FA7E40296E2EF7BF1CD855BBECFAD0FD622BEE974
310
6FC4FDFDE545AE6E3BC234CADF83A0FB76DFB145BF3828AE3436368AC24989454F8FF70A177672C711CAA1A76107218CF948CA01F873520E7A2B118EBB161ABAD432932029628B6761590C98AB590C8C8C79798CE9F715BA696E839E9131A4BB68BE923F1747FBFF165331FFDD4D05997ACD168F12CA75348DAC04C7F509FE
310
83898A8B421181AF492861CE81E4A2DD0A30850CFA95E05F097FF70F9E777310D584A75BA7018922E271DAB1D785671157685B7D383D3E074DDB4F1E44EF04B07BAAC75A062077C54B9752C738C9D804D402E02851F3F89605AF189738C18C021D2139EAF72513824E10DDD3047BACC8521ED7E98B257D1166903B1B08FA6F
310
918FD7E162913FEC7D0EF4787E29C35FBA8C6E2C9C20E9AB30AE42CA2A01A090E7D010C1B5BF9CEE2A304BF3A987FB40D836979B79E18D70F257DA61E808472DD85B82761825779D6B90CAEB0F23360C6F80A7D7D77545E95B3DFF0CF96A827F9B5BCECD2C9698718417EF80FEEDEE938AFF55859D0D540B7FE09435583A6F
310
04874A0C7E8CF234DF4879722000167F5872CEC6BF3EF7E5A8CC8121E6A359227C8A29C95212F9F735BC72A887D56B8F309FC525BFB4FD767AAEC4AEFF249CFBBD2DE1AB9969A6155C7D8DABC307E47324C1F916C7BCFF40ABA5644E9FFB9238D19ADADA49D9610F01ABBA57E4DFCBDCCBB2B93C8953206C91DE01B0E2651A
310
6D6C31721915B31F7B7CBCE55466F6D70402788FA91D73BE4ADCBA99A35F17D6B83383704917D6833F0FA3CD45C926ADB8BC17999A4A0AFBCE2541F7B8CF4C2F5FBA611B3E626D64407CB32C122DFF4EF8674D6EDBB86C8F7C6A16D50FA685E2CCA34F8F7D1D8265BB0042E9D7F1F666F7BE5FAA5184DF58E12122A42EF02F
310
461B3F369AC746F96528AD208512AB56844CF75B97F352DF7995024FB02855385854F3798670D01CAC771AC3E1889EC25F61A20C1F8CAB46898817F9C47E2CDA1F286BF2F358298709FE567C91133E2638C8B53975E753EA8BFD3578B5F7186B7BF084EBA3F77BAC3132A5779902EC22AF2D2E79F42D324E083386DAEE9810
310
D1B44A5DAA54513C7A71E52A4AB9257D975B621308FE4D2141CC3DCFE946C154A3C1DFCCA7629EC69ACFA831634ADDA93C0388D2A9A2DDAFCF957C6995BCE7FBB6DC4EBAE79E63EB08E9A25F52F67076F7093CA545CA3053B5BF576DEAD4E0017143C5F759F32B2D6F145B52B67B48909B7C7FCA6586EE385A2189C16932CB
310
6DDFD9152AE317C430492A578ED27B72D85D40C7C93C097939E1B50F4D67F05334FE9DC362C30B7FF561B95259138ECFD9274C8D695C31B14D4EAA9F3D7FA8DDF652F8C5DEFA23284C799B7D94416DEE81E05A866302DC70192A5368EA65E1CED8BF107A1E2D3119A71E85DC1A7B0C1E93274CE04DD0F2ABC8AC7C987FDB00
310
2B6F81757B43502EF7A0D92E416494FAEEA4C9C090CD9557AA4D532F4996A272B94355C5A0E4974EEA9627476F30809B94D8D8D860062E02204643BEC7D0438AF800FC7E2B26955D595421E83C69E1A07E0E3122285835F014AD538188CF9737CE76D464A353FA55A001AB2526B84E985083693BC76FE211CA1D000679C889
310
E3C009832C87E1AC2EDD05C302557422DF0800E316FCAC86978A371F025A6C7DAA9F333E7BD160403A1A06EA75AA9888FF01504B03041400060808002249EE5251464CB48900000043010000360000006662782F37393734364338322D443732332D343845322D393730462D3733424132303635393837312F646972656374
310
6F72792E786D6C9D8F310EC2300C45AF127987122606C71DD918B841D4B851A43646695A717C52A85029031293A5A76FBF6FACEF7DA7264E43906840EF0FA03836E242F406C6DCEE4EA06AC22492573150D1F66C60C640E8938CB705396EEDD86DE9B5042FE27813D640EA63BB001C722AF6E55CB61E4863F58284D5D3F53D
310
D715CE1C3985E63FD7F1B7EBDD617E9F1E504B03041400060808002249EE52BA6A0EA03E070000541C0000340000006662782F37393734364338322D443732332D343845322D393730462D3733424132303635393837312F6F626A656374732E786D6CDD59DB6EDB3810FD1542FBB2FB605D7D2D141789DD144691B6A8D1C5
310
BE09B44439DCE8064A4A9CFDFA1D52A42C29B2AD645BA0D804481C861ACE9C9939331CB9EF0F71841E09CB699A5C69966E6A88247E1AD0647FA59545389A6BE8FD12B92C4D8BC63E0D253826571A5FD696EE9EA56526970212E232EAAEDEDEFC85729F2444437E84F3FC4ACBFD7B12631D97451A90FC410F7081F57D78D02D
310
BDDAD816BB6738BBEF1C95614692025485F504A4480DACF69F6092B1740DBEA1B5CD1EB6CD39B3CD1086B715A5495EE0C47FA155478E3D4C2BC71AAF3FD893C568321E3BA3F1D4B64637B737EB913573CCD574B55A5C7F586868E9EED234AA1D909124002F3E6B4BCB35F87F6AF3250A7D7AFB6992105FA2D9B72120522E25
310
79179316B09630ADE190CAD6C68233D0F813DB0681D252A985B6324EFD6E466FBAFB1B40C8874429CB098FF2BC60E06B897D950FA66B54AB2DBFD01CC5B8208CE2084574C7300307C1D6CA412D313C5BB828C431135E54F29ABA42605FCEA53E2DC3328A78FE6A4B91691EE4232972A119FD87B0A3F6CDD34027B0B6A44931
310
97C616CF198858B88658ACFEE7D8F29F1590288CF01EA205CCE49B1CBB83D78A73C166AD2D3FDDEE0E5BCE0FFD87672CCD082B78E489649679A73CD8082D08BE01A054B8B67D7744E51B40FF1990AF75412E788ED1C3F83056B6339CE461CA62F00E32D1C8841F26E21F5F7C728DFAE125422DAE3C8529A4ED0FC2B46546EB
310
EC06A44BF711823E658E346EEBE30862FA8E263CCF21505094C212F07DB83B68CB0D90292CC2533802EBE1DB35F84704BF2A39C0371D0FF5D1EF0047A984E9E6D9D1571F216618F56B57B56C3C85EFE487E07BBDDE7EDA962CC43EB99389BD26214D6801C5B45FA116E8AD94FFBEF92C32F2853DAD5D3E9CB34F3971F4F865
310
2BFD82846340155E872BD788953B0AE91E4538216999CBF53EA2F2D32865DEEED9AB72B8F7AC3F55105487417EF308E82533A8EE3EA31907455B4AF36A26D48F38711E9401B8AF9CEAEDB0FFC0E1F57C60ACB7E801518B59576819671E8ED332E1F4FD32BCBBA6E98E29BE2C6B619B0B7BBE984C64C083EEE200953F8A1C6A
310
F5F94931CE4E1CB36AF94BF28602B2CAA431F0659F0D3E744D65E1A519F669D11F0D1D3306AA1CD0302C73A0F55E603A1AEB8E35A9B0513F6D1B99AF58AD953A6FAD54CAA331DE132FC4BC26F6EAD702B416AE9CD48BE43E4AF39C2624173DCD0BAEEBA068EA401D55A42BA93D614B732F26057E4BC48A22D9095846C2C883
310
EEABE0FDEFE578550ACA7A7B4A22EFF5D2C413F63F7B398EB3A8EAEB2E6160D99D137A71E54AF3231E213E3D5C786640449B7E497ACD240ADF41D2176F167F021E867F3A3CEA080ACD3A54D5CB9EB5F489B5E05F73A0A1E9C472A6B3DA1597D0528715BC6F894AE8B4FC67EF89D0FDFD3012542E3F7B4E4EA2D0A35154C65E
310
55430A1243DB868B920DCAD829B049F720C90C9D94689C14D2089AEAC1342BFA15D5B1C061A2613945B38D63C0289AC0BD6E90212FACE80D62E10B7187E557B5CBFE7FBDD4FFCC98CDBBCD03797E4A59D0AB69BBF5505D9B6A323861CA9A58BB57485EBACDF48BC565E7320E632544325C75B39011C2C823E5C30C716BEABD
310
73E44FB8F0814AB7E2F7E806322220C1B10F698993A3116D09872A69AAB76DDE8E80EE780169356B1B4EA9314C283067DA3BFE21FA86C1D5D02DE686EC848C6A7DC34B9B0EC398A31E67647DF9B8ED488195C14F7FE51891A78E04B9BAE2CDDF1951DF37C71EB723415AF47D73E6F1E2BE8C7709A6BC36F2B0C041F6EEBDB8
310
7F5E1970B930668BD978BA9ADBA3F5CC8679C7FC833D5ACCCCDBD1CCB9B9B6CDE964319F590623795A329FE4866D989EEAB6B264AF02A3826EC82D04261197AF8B2A9EBB0EFE1FDF42A274874FC5E2AF7A09A91B3EDE92757271E825A497A877AFBB31582F88BABF88BDAAD7AEE60B2AC0CF972D202355EF8737174AB4AAF0
310
FD3A372AE22B0BEFC9FBCD4FAF312D42EFAD0FAD1D7D94DFE6629857F55429752316BCB69ACDA7F66C658DECC5C41E8DED8939BA5E5BC06863C759ADA66B676A3935E2B2160EAD2BBF04872A651BA3379820E7694461904F02B42729DC81605231805F594C7271B78106409671F51661C0D38FD51CB6C0BB483DEDDF631866
310
47B222973E0C52E1DE71A5C975F41B8C4EF9F4520CB4F407283C32DA3554327AA541081414EA8BBE83119818380AE99D1127B80D277B7E6BAA9EAAFF3E3EC6D1815839DA55EF19828BB4AC159D304EC8C4BB05603BD590BCDD74A50EC2057CDC95456DCC71E1688D0441BD44A88C8349E18384F700C473DE2E4B177B5A900C
310
9AE69F8D834AEAA8C06C2F46F20DBCAFD75F0D3E4DDF7C415954EEB93BCFD5FB96A411EF33A2B21A5CB91018D2CC0CF39BF8EA9DF195A5F05A2A46B7148200FD7E984FFF3056691CA749B5645CCB975B687B0FAFAA02438D09A17131ADB921FA1EF92A00665D39D171903FC002B896513E4FAD206E05404D4F8D00501EE1BE
310
80C75AFB376B248B40A3856DB6AE1C1EF11E004122F1F73F3C6D9A1B1A434BC805D0AA9AEDD61FD4826B30189C2FFF05504B03041400060808002249EE520CF9957FDF000000550100003C0000006662782F37393734364338322D443732332D343845322D393730462D3733424132303635393837312F7265736F75726365
310
732F322F636E782E786D6C4D90DB6A042110447F45843C8E3A43422E38EE4FE4292F8BD15E23ABF6E025247F1FDD1808082D5587A6BAE4E92B06F209B9784C3B5D99A0049241EB93DB69AB97E58992939219B1FEC328493AC24E874C957419DB31250B17DDC250834FD7298AB38304D99BF3911C2526E852765ACC0744CD74
310
AB68A15C99D555B3956528D8B281BEA2FA087385C9A02B58AA36B1AD8B785CD6FB57F1FC32DEC39BE48354F21D314CDEA70A198FBB4D18ECDFD41309C907A064CB7E52E38C6EFCC5633D9EE4DD56B2D4DC3B9858FD3E3AE6A376C06FC8AFAB241F47F6716BA0CF5188FA01504B03041400060808002249EE52FF15A4A45D00
310
0000800000003A0000006662782F37393734364338322D443732332D343845322D393730462D3733424132303635393837312F7265736F75726365732F636E782E786D6C4D8B3B0E80201005AF42B6F75B59F0390B113044D83508C6E30BC6C26AF226F3B8BA6360974DA7271430F523308B2B198F9B80925DB700539227A2
310
FCCB80A18E5640D320F996A81C9F32D6E9129A0D1EF74FCE750E6D57BC7165FBCA07504B03041400060808002249EE526B05C63D4101000056050000300000006662782F37393734364338322D443732332D343845322D393730462D3733424132303635393837312F636E782E786D6CCD94CD6A032114855F6510BA1C9D09
310
2DFDC131D0459FA08BD29DE3DC4E6D1C1DF45A9AB7AFA6266929A15D04127021D74F38E77ABC7CF93199EA1D7CD0CE76A4A50DA9C02A37683B7624E24B7D43AAA5E0DE39FC8691CACA093A92CB44F0D1BB3897D2002F329A5C35DAAE4A51227ADD4784402A6564081D09EA1526496544374058D141A2A42DF5105CF40AD27D
310
D41394FBCA8344188858348BB66EAEEBF6F2B1B9BDCBEBEA99B34C0ADE3B670AAF2D8277F3C5A2512E6D6D92D3709601C1A3D785CA1E88D86BA3BDB69CA573C143D26BC7C2E17ACEDC3C1BAD24A64631A710B04E10C889B32F5870961DFFF0FD70FFB4D7907683F6A0D0F9F5C9DAD01E6AC34E1A4D89F85F1736E05FE65DFF
310
962C9FEEDD0F1A2EC28E66779BDC90A2FB3B09294FD28EE61C3FC04EDAF1F39F060B6A758EA6B7CA8EE4996D46607AF83C11C527504B03041400060808002249EE52E3EDAD237F000000A30000000B0000006662782F636E782E786D6C4D8CCB0E832014057F85DC3D2DA2F56202983EFFC35434A4080D95A69F5F685C7475
310
92C99991FD6771E46DE2CB06AFA0DA3120C6DFC368FDAC20AD1315407A2D6308EBDF0D881F16A3A060D0728E213D37349A6948AE5067FD6383D861D39E05A717E4356DC495D30ED98D627D3A72D61E3A815536F645C9F3EBE52D79FD05504B03041400060808002249EE52A6D797065F0000008200000007000000636E782E
310
786D6C4DCB3B0E80201045D1AD90E9FD7516806B51190811670C8A61F982B1B0BAC9C97B72CA7B1037C6D3332918DA1E04D2CAC69353902EDB8C20262D23F3F59B81A079470595414B17391D1F19B4730A5583A7ED43BBE4025D9592775E5ADFFA01504B03041400060808002249EE52ECFD112DA800000026010000130000
310
005B436F6E74656E745F54797065735D2E786D6C7D4F4B0EC22010BD0A61DF525D18634ABB506FE00510A79458060253536F2FD89D5197F3FED3F68B9BD80362B21E25DFD40D6780DADF2C1AC9671AAA3D677DD75E9E0112CB5A4C928F44E12044D22338956A1F003333F8E814E5331A1194BE2B0362DB343BA13D12205554
310
3278D79E6050F344ECBC6478EDCD76CE8EABAE5449AE4298AC56946789C28AAFBEABC53F3EAF09A84A1441B91F0101CD4780756578C173A578FFDDBD00504B03041400060808002249EE523DEE336E64000000790000001B0000006175746F6465736B2D64657369676E2D7061636B6167652E786D6C35CBC10E83200C00D0
310
5F21DCA56CA76D41FC96062B120735B69A7DBE268BB7777961F8D5AF396893C2ADB70FE7ADA196782C2DF776D7A97B5933C430F15651E5469C55D70F80A4992A3ADC954792C525AE70A1E4D6AD9816CC044FEFDF01FE3FDE907802504B03041400060808002249EE52216C69D6F40000008E0100003D0000006662782F3739
310
3734364338322D443732332D343845322D393730462D3733424132303635393837312F7265736F75726365732F322F636F72652E786D6C8550CB6EC32010FC156BEFD8063B8E5D61A2B471BFA0A7DE10101725068B47D5CF2FC4AED49E2AADB4AB6166961D7AFA5AEEC5A7725E5B33022E6B289411566A338F10C315F5509C
310
1875D6865F34280C5FD4081906466767E3BA43C29AA04C468D956A07B9F72A4021EE6918C18B0FB5F092C79018FE56AE5CDCF8AC4A5C6E3C4663D472976A99DCF4552B076CE82E1DA95F7B743976136A87F68086EEA5416742DA7E9A9E277C6E6895C58C06BDFC6C174EF1A0243052138CEA23C2ED5B3D3CE53ABCD32A3319
310
F5C1A59BF7A5F9BA44A7D586FE718BABFCDF2D6A131AB2BB6D0A0F0CA7CF3D1E18AD723AA93DA24B3D27C9BE01504B03041400060808002249EE520F457FADF9000000960100003B0000006662782F37393734364338322D443732332D343845322D393730462D3733424132303635393837312F7265736F75726365732F63
310
6F72652E786D6C8550CB6E833010FC15B477F3308440651CA50DFD829E7AB3CC865A0936F2A3EAE7D70E546A4F952CAD353B33BB3BECF4B5DCB34FB44E193D40959790A19666527A1E20F82BE9203B71668DF1BF689069B1E0000906CE666BC2BA43D2688F3AA1DA4CB883C239F490C97BFC0CE0E4072E2217C14786BBE5AB
310
903731635EE51B8FB310D4B44BD514DDD455A105DEB7979696AF1DB91CDB91347D73207DFB529333A54D378ECF6375AE5991C49C79B5FC4C971685C709382D6945CA23A99AB7B27F4AEFF0CE8AC4E4CC791B6FDE87A6EB805B742658898E155BF78F6B58A7FF5D83D2BEA6BBEBA670C0ABB8E4A3C15991528AE51161AC2951
310
FE0D504B03041400060808002249EE5204FF1050EF000000B1010000310000006662782F37393734364338322D443732332D343845322D393730462D3733424132303635393837312F636F72652E786D6C8D504B6EC32014BC8AF5F6D8183BC1AE3051BF27E8AA3B04C44589C1E253F5F885D895DA5D24A487861966DEB0D3
310
F772ADBEB40FC6D909DA1A43A5AD74CAD8798214CF6880EAC499772EFEA14165C5A227283070367B97D61D92CE466D0B6A9DD23B2842D0112A79CD970982FCD48BA8458A99112EF52AE445CCBA6EEB8DC75934CBAF547A2DA256C009262DC214B5FD3B1E1FCA397CB0A630394BC9A8DDCAA8EC6ECE467BE074A4FDF17920E8
310
85920EF5C32B4123C56F88764F8F041F0FE3405BD614316721FABCF3FE49D9EE5EF926FC9739ADEA8ECCC6C68EEC869B22002F796E0F9C35A5C03C6EEDE659CAE63F504B03041400060808002249EE52DD88B87753010000DD0200000C0000006662782F636F72652E786D6C8D52CB6E833010FC15E4BB7985905019476943
310
BFA0A7DE1CDBA156C046C646F9FCDA3C443934AD40D89ADD99DD19814E8FB60906AE7BA164099230060197543121EB1258738347109C30D24A991F6D2090A4E525F030C0A8D6CA76334495345C7A542AC66790F43D3720A08DBB94A0A75FBC2521B1C675F4F7B023F44E6A1E26E1D48791B582CD54C19C9AB809AE012EF24B
310
9EC6EF477839E415CC8A6C0F8BFC6D07CF699A1DABEAB54ACE3B1479324646B4CB74AA39319C019CC66902E3034CB28FB878F1EFFE1345BE13A3DE68E7791EEADD017CBB3E5034E11B3DDBB1BFF5AC906697CE7A13A3073871EB8D058C229F8F3BC6F0B619BAC12E3F43AECD62E1EEA08153A374E62A4CD9B53490C672271D
310
07E383A2A9EA944781DF74D2273ACF355C5044D66E3562DCF56A8D9FBEDDA9E31A0EE61148A55BD2ACCB4D2BAEDF75D0C6D242A7AA51FA3FECC5EA1266E47F4CFC0D504B03041400060808002249EE52359598C008010000B201000008000000636F72652E786D6C8D50416EC32010FC0ADA3BB6C18E134798286DDC17F4D4
310
1B05E2A2D860191CB5BF2FC4AED4DE2A212D9A99DD995D76FA1C0774D7B337CEB640B20290B6D22963FB169670C5074027CE66E7C22F19202B46DD428281B37E76CBB441D2D9A06D42AD537A0385F73A009243FCB4E0E5871E4526961015FE964D42DE44AF3392AD3ACE82197F5AE5AC45D00A382D28C1C51E93EAB5688EE9
310
EDDE589E949C2D8B519B9551D1DD5C8D9E8137F5A5A6C5CB015FF67587ABA6DAE1A67E2EF199D2EAD0754F1D39972C4FCD9CF930C79DB7213167405EDC932FCB578AB377E7864D104329E4ECF005BC607922FE845E26F58FD0C686926E03D70E0F9CC4400F221AA70BC6F2386FACE9DAFC1B504B0102140014000608080022
310
49EE520000000000000000000000003700000000000000000000000000000000006662782F37393734364338322D443732332D343845322D393730462D3733424132303635393837312F617474726962757465732E62696E504B010214001400060808002249EE520000000000000000000000003500000000000000000000
310
000000550000006662782F37393734364338322D443732332D343845322D393730462D3733424132303635393837312F76657274696365732E62696E504B010214001400060808002249EE52F270F13306000000040000003600000000000000000000000000A80000006662782F37393734364338322D443732332D343845
310
322D393730462D3733424132303635393837312F747269616E676C65732E62696E504B010214001400060808002249EE5288E57597CD3F0000904100004200000000000000000000000000020100006662782F37393734364338322D443732332D343845322D393730462D3733424132303635393837312F7265736F757263
310
65732F322F305F67656E657269632E706E67504B010214001400060808002249EE5251464CB4890000004301000036000000000000000000000000002F4100006662782F37393734364338322D443732332D343845322D393730462D3733424132303635393837312F6469726563746F72792E786D6C504B01021400140006
310
0808002249EE52BA6A0EA03E070000541C000034000000000000000000000000000C4200006662782F37393734364338322D443732332D343845322D393730462D3733424132303635393837312F6F626A656374732E786D6C504B010214001400060808002249EE520CF9957FDF000000550100003C000000000000000000
310
000000009C4900006662782F37393734364338322D443732332D343845322D393730462D3733424132303635393837312F7265736F75726365732F322F636E782E786D6C504B010214001400060808002249EE52FF15A4A45D000000800000003A00000000000000000000000000D54A00006662782F37393734364338322D
310
443732332D343845322D393730462D3733424132303635393837312F7265736F75726365732F636E782E786D6C504B010214001400060808002249EE526B05C63D410100005605000030000000000000000000000000008A4B00006662782F37393734364338322D443732332D343845322D393730462D3733424132303635
310
393837312F636E782E786D6C504B010214001400060808002249EE52E3EDAD237F000000A30000000B00000000000000000000000000194D00006662782F636E782E786D6C504B010214001400060808002249EE52A6D797065F000000820000000700000000000000000000000000C14D0000636E782E786D6C504B010214
310
001400060808002249EE52ECFD112DA8000000260100001300000000000000000000000000454E00005B436F6E74656E745F54797065735D2E786D6C504B010214001400060808002249EE523DEE336E64000000790000001B000000000000000000000000001E4F00006175746F6465736B2D64657369676E2D7061636B61
310
67652E786D6C504B010214001400060808002249EE52216C69D6F40000008E0100003D00000000000000000000000000BB4F00006662782F37393734364338322D443732332D343845322D393730462D3733424132303635393837312F7265736F75726365732F322F636F72652E786D6C504B010214001400060808002249
310
EE520F457FADF9000000960100003B000000000000000000000000000A5100006662782F37393734364338322D443732332D343845322D393730462D3733424132303635393837312F7265736F75726365732F636F72652E786D6C504B010214001400060808002249EE5204FF1050EF000000B10100003100000000000000
310
0000000000005C5200006662782F37393734364338322D443732332D343845322D393730462D3733424132303635393837312F636F72652E786D6C504B010214001400060808002249EE52DD88B87753010000DD0200000C000000000000000000000000009A5300006662782F636F72652E786D6C504B0102140014000608
310
08002249EE52359598C008010000B2010000080000000000000000000000000017550000636F72652E786D6C504B050600000000120012002D060000455600000000
  0
XRECORD
  5
1E5
102
{ACAD_REACTORS
330
1E0
102
}
330
1E0
100
AcDbXrecord
280
     1
270
     1
271
     1
  0
XRECORD
  5
1E4
102
{ACAD_REACTORS
330
1E0
102
}
330
1E0
100
AcDbXrecord
280
     1
270
     1
271
     1
  0
XRECORD
  5
1E6
102
{ACAD_REACTORS
330
1E0
102
}
330
1E0
100
AcDbXrecord
280
     1
270
     1
271
     1
  0
XRECORD
  5
1E3
102
{ACAD_REACTORS
330
1E0
102
}
330
1E0
100
AcDbXrecord
280
     1
270
     1
271
     1
  0
CELLSTYLEMAP
  5
50F7
102
{ACAD_REACTORS
330
50F6
102
}
330
50F6
100
AcDbCellStyleMap
 90
        3
300
CELLSTYLE
  1
TABLEFORMAT_BEGIN
 90
        5
170
     1
 91
        0
 92
    32768
 62
   257
 93
        1
300
CONTENTFORMAT
  1
CONTENTFORMAT_BEGIN
 90
        0
 91
        0
 92
      512
 93
        0
300

 40
0.0
140
1.0
 94
        5
 62
     0
340
A
144
0.25
309
CONTENTFORMAT_END
171
     0
 94
        0
309
TABLEFORMAT_END
  1
CELLSTYLE_BEGIN
 90
        1
 91
        1
300
_TITLE
309
CELLSTYLE_END
300
CELLSTYLE
  1
TABLEFORMAT_BEGIN
 90
        5
170
     1
 91
        0
 92
        0
 62
   257
 93
        1
300
CONTENTFORMAT
  1
CONTENTFORMAT_BEGIN
 90
        0
 91
        0
 92
      512
 93
        0
300

 40
0.0
140
1.0
 94
        5
 62
     0
340
A
144
0.18
309
CONTENTFORMAT_END
171
     0
 94
        0
309
TABLEFORMAT_END
  1
CELLSTYLE_BEGIN
 90
        2
 91
        1
300
_HEADER
309
CELLSTYLE_END
300
CELLSTYLE
  1
TABLEFORMAT_BEGIN
 90
        5
170
     1
 91
        0
 92
        0
 62
   257
 93
        1
300
CONTENTFORMAT
  1
CONTENTFORMAT_BEGIN
 90
        0
 91
        0
 92
      512
 93
        0
300

 40
0.0
140
1.0
 94
        2
 62
     0
340
A
144
0.18
309
CONTENTFORMAT_END
171
     0
 94
        0
309
TABLEFORMAT_END
  1
CELLSTYLE_BEGIN
 90
        3
 91
        2
300
_DATA
309
CELLSTYLE_END
  0
ENDSEC
  0
SECTION
  2
ACDSDATA
 70
     2
 71
     8
  0
ACDSSCHEMA
 90
        0
  1
AcDb_Thumbnail_Schema
  2
AcDbDs::ID
280
    10
 91
        8
  2
Thumbnail_Data
280
    15
 91
        0
101
ACDSRECORD
 95
        0
 90
        1
  2
AcDbDs::TreatedAsObjectData
280
     1
291
     1
101
ACDSRECORD
 95
        0
 90
        2
  2
AcDbDs::Legacy
280
     1
291
     1
101
ACDSRECORD
  1
AcDbDs::ID
 90
        3
  2
AcDs:Indexable
280
     1
291
     1
101
ACDSRECORD
  1
AcDbDs::ID
 90
        4
  2
AcDbDs::HandleAttribute
280
     7
282
     1
  0
ACDSSCHEMA
 90
        1
  1
AcDbDs::TreatedAsObjectDataSchema
  2
AcDbDs::TreatedAsObjectData
280
     1
 91
        0
  0
ACDSSCHEMA
 90
        2
  1
AcDbDs::LegacySchema
  2
AcDbDs::Legacy
280
     1
 91
        0
  0
ACDSSCHEMA
 90
        3
  1
AcDbDs::IndexedPropertySchema
  2
AcDs:Indexable
280
     1
 91
        0
  0
ACDSSCHEMA
 90
        4
  1
AcDbDs::HandleAttributeSchema
  2
AcDbDs::HandleAttribute
280
     7
 91
        1
284
     1
  0
ACDSRECORD
 90
        0
  2
AcDbDs::ID
280
    10
320
21D
  2
Thumbnail_Data
280
    15
 94
     1563
310
89504E470D0A1A0A0000000D49484452000001000000006C0803000000B2ED9CC100000300504C5445FFFFFFFFFFFFFFFFFF0000000000000000000000000000000000000000000000000000330000660000990000CC0000FF0033000033330033660033990033CC0033FF0066000066330066660066990066CC0066FF0099
310
000099330099660099990099CC0099FF00CC0000CC3300CC6600CC9900CCCC00CCFF00FF0000FF3300FF6600FF9900FFCC00FFFF3300003300333300663300993300CC3300FF3333003333333333663333993333CC3333FF3366003366333366663366993366CC3366FF3399003399333399663399993399CC3399FF33CC00
310
33CC3333CC6633CC9933CCCC33CCFF33FF0033FF3333FF6633FF9933FFCC33FFFF6600006600336600666600996600CC6600FF6633006633336633666633996633CC6633FF6666006666336666666666996666CC6666FF6699006699336699666699996699CC6699FF66CC0066CC3366CC6666CC9966CCCC66CCFF66FF0066
310
FF3366FF6666FF9966FFCC66FFFF9900009900339900669900999900CC9900FF9933009933339933669933999933CC9933FF9966009966339966669966999966CC9966FF9999009999339999669999999999CC9999FF99CC0099CC3399CC6699CC9999CCCC99CCFF99FF0099FF3399FF6699FF9999FFCC99FFFFCC0000CC00
310
33CC0066CC0099CC00CCCC00FFCC3300CC3333CC3366CC3399CC33CCCC33FFCC6600CC6633CC6666CC6699CC66CCCC66FFCC9900CC9933CC9966CC9999CC99CCCC99FFCCCC00CCCC33CCCC66CCCC99CCCCCCCCCCFFCCFF00CCFF33CCFF66CCFF99CCFFCCCCFFFFFF0000FF0033FF0066FF0099FF00CCFF00FFFF3300FF3333
310
FF3366FF3399FF33CCFF33FFFF6600FF6633FF6666FF6699FF66CCFF66FFFF9900FF9933FF9966FF9999FF99CCFF99FFFFCC00FFCC33FFCC66FFCC99FFCCCCFFCCFFFFFF00FFFF33FFFF66FFFF99FFFFCCFFFFFF0000000D0D0D1A1A1A2828283535354343435050505D5D5D6B6B6B787878868686939393A1A1A1AEAEAEBB
310
BBBBC9C9C9D6D6D6E4E4E4F1F1F1FFFFFF000000000000000000000000000000000000000000000000000000000000AD4AB4E4000000F64944415478DAEDDB4B0E82401045D1DAFF326B2546499406121C480CFDCE499C28132FD57CFC5401005CA7BF3769800BB6144000010410E076014E4F760208307980E5111DE0B9FF
310
2D010104C80C707ED79B12C0A5B00002082080EB80D5061D13E0F05EE0F3CCFC3743AFF7DFBBF71F3D01BDBE544A9C80A8004707C1AC00C74BA0C397409B000741A74113E018E02C60021C039C054C40C00454F8042CDF0F6F5FCC0A50026407A8E425D0B50DD02540457F26D8C3CFA63203842F8121C9F45F8EEEAF84B326
310
60D9E1E36B4913B0ECFFA1C1FBA99400BD0FD039017EB9A500020820C07D02A4FF7516000000000000000000F88F074B46F0346B745B680000000049454E44AE4260820000F4E503C6488D670E5EAE2C0000000049454E44AE42608217E71DAE119812921F0000000049454E44AE426082207DFDFCF7005E736A5FDDCA60F3
310
47F58A93562184104208218410420821841042C8A907E7B018F2A57AF6790000000049454E44AE426082643A7E53E2598C0000000049454E44AE42608200000000C0EAB1EA0BB88AA19EA1B53EFA07C08662D150FCAB9664FB53FBC38685F4647DB54437965B64042855CCB19ABD56D3D5FC8C725E4C01CA9B698018AB4E9A
310
067B14406DF119400B00B58A1D40EBD1B932200550E58F2622B60CB818C0D21FF0DE0D609CD2FAD1683A0B54735C354BAE039420351E939C0487E8864D3BCBD1EDCF8098CF01EFFB55540025A05780F23A9901319B03363C82620058EC6503C0F83335C91A33C0A7311E0DB0FE333839A64E895B00CCEF70DE02D487BD0094
310
1B2123804A782BD1FD00A6660934EB07B1AA0000000049454E44AE4260820057968713401C00F2FA243864FE1B5D037EF10285FB9940B5E7210020AF83187BD3F47883300080014C0069FE9F03784308ED045300D913C65396FEC505F0EAE2FC8DF14681D6C3DE9F69B18A29522ED0F0CE95C01A7000C0EC1495DA0C940D4E
310
AB15E84611002C0E70E050F86BBCF39F3EE00F08DADDC7433100DF0000000049454E44AE426082
  0
ACDSRECORD
 90
        0
  2
AcDbDs::ID
280
    10
320
2933
  2
Thumbnail_Data
280
    15
 94
     1788
310
89504E470D0A1A0A0000000D49484452000000B40000010008030000002D3FACD700000300504C5445FFFFFFFFFFFFFFFFFF0000000000000000000000000000000000000000000000000000330000660000990000CC0000FF0033000033330033660033990033CC0033FF0066000066330066660066990066CC0066FF0099
310
000099330099660099990099CC0099FF00CC0000CC3300CC6600CC9900CCCC00CCFF00FF0000FF3300FF6600FF9900FFCC00FFFF3300003300333300663300993300CC3300FF3333003333333333663333993333CC3333FF3366003366333366663366993366CC3366FF3399003399333399663399993399CC3399FF33CC00
310
33CC3333CC6633CC9933CCCC33CCFF33FF0033FF3333FF6633FF9933FFCC33FFFF6600006600336600666600996600CC6600FF6633006633336633666633996633CC6633FF6666006666336666666666996666CC6666FF6699006699336699666699996699CC6699FF66CC0066CC3366CC6666CC9966CCCC66CCFF66FF0066
310
FF3366FF6666FF9966FFCC66FFFF9900009900339900669900999900CC9900FF9933009933339933669933999933CC9933FF9966009966339966669966999966CC9966FF9999009999339999669999999999CC9999FF99CC0099CC3399CC6699CC9999CCCC99CCFF99FF0099FF3399FF6699FF9999FFCC99FFFFCC0000CC00
310
33CC0066CC0099CC00CCCC00FFCC3300CC3333CC3366CC3399CC33CCCC33FFCC6600CC6633CC6666CC6699CC66CCCC66FFCC9900CC9933CC9966CC9999CC99CCCC99FFCCCC00CCCC33CCCC66CCCC99CCCCCCCCCCFFCCFF00CCFF33CCFF66CCFF99CCFFCCCCFFFFFF0000FF0033FF0066FF0099FF00CCFF00FFFF3300FF3333
310
FF3366FF3399FF33CCFF33FFFF6600FF6633FF6666FF6699FF66CCFF66FFFF9900FF9933FF9966FF9999FF99CCFF99FFFFCC00FFCC33FFCC66FFCC99FFCCCCFFCCFFFFFF00FFFF33FFFF66FFFF99FFFFCCFFFFFF0000000D0D0D1A1A1A2828283535354343435050505D5D5D6B6B6B787878868686939393A1A1A1AEAEAEBB
310
BBBBC9C9C9D6D6D6E4E4E4F1F1F1FFFFFF000000000000000000000000000000000000000000000000000000000000AD4AB4E4000002E74944415478DAEDDD517A82301085D1D9FF32EF4AFAD0004900051931577F1EFA8135E1388D090C94840C97F04487E1021A3468D0A04183060D1A3468D0A04183060D1A34E8AF42F7
310
79CBE8B70744EB095A0EE88D9CF188E8EDB7ABFF3DE89F6E1EBB9F09F44FA369D3A0BF1ABD6AC40668F5E564826E0A1AA0B57AC927D28668C9BDF7A09FE680890326D0B4E9715208F3AD7CD5EAF8790FC57A9DE691851E6C010DFA17D1F3CDE15517577A8CFE1703A18BADEA97A348A7158D18E9E662CB12E098023D6EA4A5
310
36D2D35A38A219114183060D1A3468D0A04183060D1A3468D0BEE8A777F5667DF663951D467785DE7341BFE434ADD0E5961D2BF49C684B472B5617E692D0D5F5C96474C94A47BB9D819E92AF4E912E3963AB36AD2A1C5668B74857F7FAD9A0DB7B153DD05DE51668851F7AF5BF33066805E85EA5F548303CBABA9EDF8D0244
310
9A360D1A3468D0A02DD0E967E337A0F3F31EEE91F639B1554D961D3A1CD18E91B66CD30C2EA04193F720D27C114183060D1A346892356F4AD6F8DCA442DE83BC07790FD0A04193AC215943B206F46FA1531F11AA000DFAD3686D1CBC2BCD0CBA39F9ECEC63A35575D14AC97BDC1469B545AF455A714F9BD6BA2868D01BB995
310
CB680568D0A776FE96A4FA4661D0A0B7DEAE4B680568D09F466BBBF86B680568D067F79C8DD64E79D0A093D18A7BD0DAAB0034E85CB4E21EF4EE08061A742E5AFBDB99E8DCF95C1E3C8824117D34973354A4DF8C0ED0F7B469220DDA1F7DE90BA2CB918957A673B923D28FDF9779340DDA12FDE85832317F908D565AD7711F
310
7A3E51549D94566A6AFA6810CEED326D5E445DFA869CDC6BD6139CAF1D7BF1A46FD0A02DD07B533A4E4F849F1EDE7E6298EA67CD5BD5F6C475A45354370BA2AA691EFF9F1B7D6A5EC705ADE69552B51409E82992E5C73291A3E6CB00A7A648AC2A5C86D9586A5B3612225DCFCA5CA3E37968B62A8CAD481F9B24F24574D528
310
A7BFC14974B4CDA39BF9547479A04183060D1A3468D0A04183060D1AF45868C3C512FD07B50878E26572EA670000000049454E44AE426082B6DAEF1A911F7A2A71579B2E2C1E7A2D97B9F53DAA1F31105D9D80EDCE3218ED53A4C3E56C827A2EA041C746CF03B30E83D06627BF55EA786DA1C30D5B77AB26AB317BAF858EB7
310
4D649BEF9F9FC76E953ABEAA99AC7D2DDF8EAAC96A0DA9A64D1DE6B9C8EE2E68B6149EAECF0BA79AC9DABC2069199DB5AD9CFB24D2F316F603BE0E415BD056AF1A5CAB997CAF0071FB4BA4F32D854B91E0F5726EBB6AF0BABD5DF9E1E344D8518098210F3468D0A04183060D1A741474C22525FA1FE32F45D46AF528BE0000
310
000049454E44AE426082
  0
ENDSEC
  0
EOF
