  0
SECTION
  2
HEADER
  9
$ACADVER
  1
AC1015
  9
$ACADMAINTVER
 70
    20
  9
$DWGCODEPAGE
  3
ANSI_1252
  9
$INSBASE
 10
0.0
 20
0.0
 30
0.0
  9
$EXTMIN
 10
0.1431770500114569
 20
0.1562401024855315
 30
-0.0000000349181948
  9
$EXTMAX
 10
2.007879589759521
 20
2.66736710235831
 30
0.0000000814935746
  9
$LIMMIN
 10
0.0
 20
0.0
  9
$LIMMAX
 10
0.0
 20
0.0
  9
$ORTHOMODE
 70
     1
  9
$REGENMODE
 70
     1
  9
$FILLMODE
 70
     1
  9
$QTEXTMODE
 70
     0
  9
$MIRRTEXT
 70
     1
  9
$LTSCALE
 40
1.0
  9
$ATTMODE
 70
     1
  9
$TEXTSIZE
 40
0.2
  9
$TRACEWID
 40
0.05
  9
$TEXTSTYLE
  7
Standard
  9
$CLAYER
  8
0
  9
$CELTYPE
  6
ByLayer
  9
$CECOLOR
 62
   256
  9
$CELTSCALE
 40
1.0
  9
$DISPSILH
 70
     0
  9
$DIMSCALE
 40
1.0
  9
$DIMASZ
 40
0.0505574544
  9
$DIMEXO
 40
0.05
  9
$DIMDLI
 40
0.38
  9
$DIMRND
 40
0.0
  9
$DIMDLE
 40
0.0
  9
$DIMEXE
 40
0.0625
  9
$DIMTP
 40
0.0
  9
$DIMTM
 40
0.0
  9
$DIMTXT
 40
0.0694444444
  9
$DIMCEN
 40
0.09
  9
$DIMTSZ
 40
0.0
  9
$DIMTOL
 70
     0
  9
$DIMLIM
 70
     0
  9
$DIMTIH
 70
     1
  9
$DIMTOH
 70
     1
  9
$DIMSE1
 70
     0
  9
$DIMSE2
 70
     0
  9
$DIMTAD
 70
     0
  9
$DIMZIN
 70
     0
  9
$DIMBLK
  1

  9
$DIMASO
 70
     1
  9
$DIMSHO
 70
     1
  9
$DIMPOST
  1

  9
$DIMAPOST
  1

  9
$DIMALT
 70
     0
  9
$DIMALTD
 70
     2
  9
$DIMALTF
 40
25.4
  9
$DIMLFAC
 40
2.0
  9
$DIMTOFL
 70
     0
  9
$DIMTVP
 40
0.0
  9
$DIMTIX
 70
     0
  9
$DIMSOXD
 70
     0
  9
$DIMSAH
 70
     0
  9
$DIMBLK1
  1

  9
$DIMBLK2
  1

  9
$DIMSTYLE
  2
Standard
  9
$DIMCLRD
 70
     0
  9
$DIMCLRE
 70
     0
  9
$DIMCLRT
 70
     0
  9
$DIMTFAC
 40
1.0
  9
$DIMGAP
 40
0.06
  9
$DIMJUST
 70
     0
  9
$DIMSD1
 70
     0
  9
$DIMSD2
 70
     0
  9
$DIMTOLJ
 70
     1
  9
$DIMTZIN
 70
     0
  9
$DIMALTZ
 70
     0
  9
$DIMALTTZ
 70
     0
  9
$DIMUPT
 70
     0
  9
$DIMDEC
 70
     4
  9
$DIMTDEC
 70
     4
  9
$DIMALTU
 70
     2
  9
$DIMALTTD
 70
     2
  9
$DIMTXSTY
  7
Standard
  9
$DIMAUNIT
 70
     0
  9
$DIMADEC
 70
     0
  9
$DIMALTRND
 40
0.0
  9
$DIMAZIN
 70
     0
  9
$DIMDSEP
 70
    46
  9
$DIMATFIT
 70
     3
  9
$DIMFRAC
 70
     0
  9
$DIMLDRBLK
  1

  9
$DIMLUNIT
 70
     2
  9
$DIMLWD
 70
    -2
  9
$DIMLWE
 70
    -2
  9
$DIMTMOVE
 70
     0
  9
$LUNITS
 70
     2
  9
$LUPREC
 70
     4
  9
$SKETCHINC
 40
0.1
  9
$FILLETRAD
 40
0.5
  9
$AUNITS
 70
     0
  9
$AUPREC
 70
     0
  9
$MENU
  1
.
  9
$ELEVATION
 40
0.0
  9
$PELEVATION
 40
0.0
  9
$THICKNESS
 40
0.0
  9
$LIMCHECK
 70
     0
  9
$CHAMFERA
 40
0.5
  9
$CHAMFERB
 40
0.5
  9
$CHAMFERC
 40
1.0
  9
$CHAMFERD
 40
0.0
  9
$SKPOLY
 70
     0
  9
$TDCREATE
 40
2454755.643279977
  9
$TDUCREATE
 40
2454755.893279977
  9
$TDUPDATE
 40
2454769.376029005
  9
$TDUUPDATE
 40
2454769.626029005
  9
$TDINDWG
 40
0.0055929514
  9
$TDUSRTIMER
 40
0.0055927662
  9
$USRTIMER
 70
     1
  9
$ANGBASE
 50
0.0
  9
$ANGDIR
 70
     0
  9
$PDMODE
 70
     0
  9
$PDSIZE
 40
-1.0
  9
$PLINEWID
 40
0.0
  9
$SPLFRAME
 70
     0
  9
$SPLINETYPE
 70
     6
  9
$SPLINESEGS
 70
     8
  9
$HANDSEED
  5
F8
  9
$SURFTAB1
 70
     6
  9
$SURFTAB2
 70
     6
  9
$SURFTYPE
 70
     6
  9
$SURFU
 70
     6
  9
$SURFV
 70
     6
  9
$UCSBASE
  2

  9
$UCSNAME
  2

  9
$UCSORG
 10
0.0
 20
0.0
 30
0.0
  9
$UCSXDIR
 10
1.0
 20
0.0
 30
0.0
  9
$UCSYDIR
 10
0.0
 20
1.0
 30
0.0
  9
$UCSORTHOREF
  2

  9
$UCSORTHOVIEW
 70
     0
  9
$UCSORGTOP
 10
0.0
 20
0.0
 30
0.0
  9
$UCSORGBOTTOM
 10
0.0
 20
0.0
 30
0.0
  9
$UCSORGLEFT
 10
0.0
 20
0.0
 30
0.0
  9
$UCSORGRIGHT
 10
0.0
 20
0.0
 30
0.0
  9
$UCSORGFRONT
 10
0.0
 20
0.0
 30
0.0
  9
$UCSORGBACK
 10
0.0
 20
0.0
 30
0.0
  9
$PUCSBASE
  2

  9
$PUCSNAME
  2

  9
$PUCSORG
 10
0.0
 20
0.0
 30
0.0
  9
$PUCSXDIR
 10
1.0
 20
0.0
 30
0.0
  9
$PUCSYDIR
 10
0.0
 20
1.0
 30
0.0
  9
$PUCSORTHOREF
  2

  9
$PUCSORTHOVIEW
 70
     0
  9
$PUCSORGTOP
 10
0.0
 20
0.0
 30
0.0
  9
$PUCSORGBOTTOM
 10
0.0
 20
0.0
 30
0.0
  9
$PUCSORGLEFT
 10
0.0
 20
0.0
 30
0.0
  9
$PUCSORGRIGHT
 10
0.0
 20
0.0
 30
0.0
  9
$PUCSORGFRONT
 10
0.0
 20
0.0
 30
0.0
  9
$PUCSORGBACK
 10
0.0
 20
0.0
 30
0.0
  9
$USERI1
 70
     0
  9
$USERI2
 70
     0
  9
$USERI3
 70
     0
  9
$USERI4
 70
     0
  9
$USERI5
 70
     0
  9
$USERR1
 40
0.0
  9
$USERR2
 40
0.0
  9
$USERR3
 40
0.0
  9
$USERR4
 40
0.0
  9
$USERR5
 40
0.0
  9
$WORLDVIEW
 70
     1
  9
$SHADEDGE
 70
     3
  9
$SHADEDIF
 70
    70
  9
$TILEMODE
 70
     1
  9
$MAXACTVP
 70
    64
  9
$PINSBASE
 10
0.0
 20
0.0
 30
0.0
  9
$PLIMCHECK
 70
     0
  9
$PEXTMIN
 10
1.000000000000000E+20
 20
1.000000000000000E+20
 30
1.000000000000000E+20
  9
$PEXTMAX
 10
-1.000000000000000E+20
 20
-1.000000000000000E+20
 30
-1.000000000000000E+20
  9
$PLIMMIN
 10
0.0
 20
0.0
  9
$PLIMMAX
 10
12.0
 20
9.0
  9
$UNITMODE
 70
     0
  9
$VISRETAIN
 70
     1
  9
$PLINEGEN
 70
     0
  9
$PSLTSCALE
 70
     1
  9
$TREEDEPTH
 70
  3020
  9
$CMLSTYLE
  2
Standard
  9
$CMLJUST
 70
     0
  9
$CMLSCALE
 40
1.0
  9
$PROXYGRAPHICS
 70
     1
  9
$MEASUREMENT
 70
     0
  9
$CELWEIGHT
370
    -1
  9
$ENDCAPS
280
     0
  9
$JOINSTYLE
280
     0
  9
$LWDISPLAY
290
     1
  9
$INSUNITS
 70
     1
  9
$HYPERLINKBASE
  1

  9
$STYLESHEET
  1

  9
$XEDIT
290
     1
  9
$CEPSNTYPE
380
     0
  9
$PSTYLEMODE
290
     1
  9
$FINGERPRINTGUID
  2
{2BF35989-EB9D-4AB2-9FDA-4AF987F92555}
  9
$VERSIONGUID
  2
{C5BA7880-204A-49A4-9A6C-271E81D48A81}
  9
$EXTNAMES
290
     1
  9
$PSVPSCALE
 40
0.0
  9
$OLESTARTUP
290
     0
  0
ENDSEC
  0
SECTION
  2
CLASSES
  0
CLASS
  1
ACDBDICTIONARYWDFLT
  2
AcDbDictionaryWithDefault
  3
ObjectDBX Classes
 90
        0
280
     0
281
     0
  0
CLASS
  1
ACDBPLACEHOLDER
  2
AcDbPlaceHolder
  3
ObjectDBX Classes
 90
        0
280
     0
281
     0
  0
CLASS
  1
LAYOUT
  2
AcDbLayout
  3
ObjectDBX Classes
 90
        0
280
     0
281
     0
  0
CLASS
  1
DICTIONARYVAR
  2
AcDbDictionaryVar
  3
ObjectDBX Classes
 90
        0
280
     0
281
     0
  0
ENDSEC
  0
SECTION
  2
TABLES
  0
TABLE
  2
VPORT
  5
8
330
0
100
AcDbSymbolTable
 70
     2
  0
VPORT
  5
EE
330
8
100
AcDbSymbolTableRecord
100
AcDbViewportTableRecord
  2
*Active
 70
     0
 10
0.0
 20
0.0
 11
1.0
 21
1.0
 12
1.075528319885489
 22
1.411803602421921
 13
0.0
 23
0.0
 14
0.5
 24
0.5
 15
0.5
 25
0.5
 16
0.0
 26
0.0
 36
1.0
 17
0.0
 27
0.0
 37
0.0
 40
2.530247256216988
 41
1.532401524777636
 42
50.0
 43
0.0
 44
0.0
 50
0.0
 51
0.0
 71
     0
 72
  2000
 73
     1
 74
     3
 75
     0
 76
     0
 77
     0
 78
     0
281
     0
 65
     1
110
0.0
120
0.0
130
0.0
111
1.0
121
0.0
131
0.0
112
0.0
122
1.0
132
0.0
 79
     0
146
0.0
  0
ENDTAB
  0
TABLE
  2
LTYPE
  5
5
330
0
100
AcDbSymbolTable
 70
     6
  0
LTYPE
  5
14
330
5
100
AcDbSymbolTableRecord
100
AcDbLinetypeTableRecord
  2
ByBlock
 70
     0
  3

 72
    65
 73
     0
 40
0.0
  0
LTYPE
  5
15
330
5
100
AcDbSymbolTableRecord
100
AcDbLinetypeTableRecord
  2
ByLayer
 70
     0
  3

 72
    65
 73
     0
 40
0.0
  0
LTYPE
  5
16
330
5
100
AcDbSymbolTableRecord
100
AcDbLinetypeTableRecord
  2
Continuous
 70
     0
  3
Solid line
 72
    65
 73
     0
 40
0.0
  0
LTYPE
  5
2A
330
5
100
AcDbSymbolTableRecord
100
AcDbLinetypeTableRecord
  2
HIDDEN
 70
     0
  3
Hidden __ __ __ __ __ __ __ __ __ __ __ __ __ __
 72
    65
 73
     2
 40
0.075
 49
0.05
 74
     0
 49
-0.025
 74
     0
  0
LTYPE
  5
2B
330
5
100
AcDbSymbolTableRecord
100
AcDbLinetypeTableRecord
  2
PHANTOM
 70
     0
  3
Phantom ______  __  __  ______  __  __  ______
 72
    65
 73
     6
 40
0.5
 49
0.25
 74
     0
 49
-0.05
 74
     0
 49
0.05
 74
     0
 49
-0.05
 74
     0
 49
0.05
 74
     0
 49
-0.05
 74
     0
  0
LTYPE
  5
2C
330
5
100
AcDbSymbolTableRecord
100
AcDbLinetypeTableRecord
  2
CENTER
 70
     0
  3
Center ____ _ ____ _ ____ _ ____ _ ____ _ ____
 72
    65
 73
     4
 40
0.4
 49
0.25
 74
     0
 49
-0.05
 74
     0
 49
0.05
 74
     0
 49
-0.05
 74
     0
  0
LTYPE
  5
2D
330
5
100
AcDbSymbolTableRecord
100
AcDbLinetypeTableRecord
  2
CENTERX2
 70
     0
  3
Center (2x) ________  __  ________  __  _____
 72
    65
 73
     4
 40
0.8
 49
0.5
 74
     0
 49
-0.1
 74
     0
 49
0.1
 74
     0
 49
-0.1
 74
     0
  0
LTYPE
  5
2E
330
5
100
AcDbSymbolTableRecord
100
AcDbLinetypeTableRecord
  2
DOT2
 70
     0
  3
Dot (.5x) ........................................
 72
    65
 73
     2
 40
0.025
 49
0.0
 74
     0
 49
-0.025
 74
     0
  0
ENDTAB
  0
TABLE
  2
LAYER
  5
2
330
0
100
AcDbSymbolTable
 70
    22
  0
LAYER
  5
10
330
2
100
AcDbSymbolTableRecord
100
AcDbLayerTableRecord
  2
0
 70
     0
 62
     7
  6
Continuous
370
    -3
390
F
  0
LAYER
  5
2F
330
2
100
AcDbSymbolTableRecord
100
AcDbLayerTableRecord
  2
SLD-0
 70
     0
 62
   179
  6
Continuous
370
    -3
390
F
  0
LAYER
  5
30
330
2
100
AcDbSymbolTableRecord
100
AcDbLayerTableRecord
  2
DIM
 70
     0
 62
     3
  6
Continuous
370
    -3
390
F
  0
LAYER
  5
31
330
2
100
AcDbSymbolTableRecord
100
AcDbLayerTableRecord
  2
BORDER
 70
     0
 62
   179
  6
Continuous
370
    -3
390
F
  0
LAYER
  5
32
330
2
100
AcDbSymbolTableRecord
100
AcDbLayerTableRecord
  2
SLD-DEFPOINTS
 70
     0
 62
   179
  6
Continuous
370
    -3
390
F
  0
LAYER
  5
33
330
2
100
AcDbSymbolTableRecord
100
AcDbLayerTableRecord
  2
OBJ
 70
     0
 62
   179
  6
Continuous
370
    -3
390
F
  0
LAYER
  5
34
330
2
100
AcDbSymbolTableRecord
100
AcDbLayerTableRecord
  2
FORMAT
 70
     0
 62
     7
  6
Continuous
370
    -3
390
F
  0
LAYER
  5
35
330
2
100
AcDbSymbolTableRecord
100
AcDbLayerTableRecord
  2
REV-1
 70
     0
 62
    -7
  6
Continuous
370
    -3
390
F
  0
LAYER
  5
36
330
2
100
AcDbSymbolTableRecord
100
AcDbLayerTableRecord
  2
REV-2
 70
     0
 62
    -7
  6
Continuous
370
    -3
390
F
  0
LAYER
  5
37
330
2
100
AcDbSymbolTableRecord
100
AcDbLayerTableRecord
  2
REV-3
 70
     0
 62
    -7
  6
Continuous
370
    -3
390
F
  0
LAYER
  5
38
330
2
100
AcDbSymbolTableRecord
100
AcDbLayerTableRecord
  2
PAINT
 70
     0
 62
    -7
  6
Continuous
370
    -3
390
F
  0
LAYER
  5
39
330
2
100
AcDbSymbolTableRecord
100
AcDbLayerTableRecord
  2
STAMP-AREA
 70
     0
 62
    -7
  6
Continuous
370
    -3
390
F
  0
LAYER
  5
3A
330
2
100
AcDbSymbolTableRecord
100
AcDbLayerTableRecord
  2
TOLERANCES
 70
     0
 62
     7
  6
Continuous
370
    -3
390
F
  0
LAYER
  5
3B
330
2
100
AcDbSymbolTableRecord
100
AcDbLayerTableRecord
  2
BLANK-SIZE-1
 70
     0
 62
    -7
  6
Continuous
370
    -3
390
F
  0
LAYER
  5
3C
330
2
100
AcDbSymbolTableRecord
100
AcDbLayerTableRecord
  2
BLANK-SIZE-2
 70
     0
 62
    -7
  6
Continuous
370
    -3
390
F
  0
LAYER
  5
3D
330
2
100
AcDbSymbolTableRecord
100
AcDbLayerTableRecord
  2
BLANK-SIZE-3
 70
     0
 62
    -7
  6
Continuous
370
    -3
390
F
  0
LAYER
  5
3E
330
2
100
AcDbSymbolTableRecord
100
AcDbLayerTableRecord
  2
BLANK-SIZE-4
 70
     0
 62
    -7
  6
Continuous
370
    -3
390
F
  0
LAYER
  5
3F
330
2
100
AcDbSymbolTableRecord
100
AcDbLayerTableRecord
  2
BLANK-SIZE-5
 70
     0
 62
    -7
  6
Continuous
370
    -3
390
F
  0
LAYER
  5
40
330
2
100
AcDbSymbolTableRecord
100
AcDbLayerTableRecord
  2
HDG
 70
     0
 62
    -7
  6
Continuous
370
    -3
390
F
  0
LAYER
  5
41
330
2
100
AcDbSymbolTableRecord
100
AcDbLayerTableRecord
  2
FAX-NOTE
 70
     0
 62
    -7
  6
Continuous
370
    -3
390
F
  0
LAYER
  5
42
330
2
100
AcDbSymbolTableRecord
100
AcDbLayerTableRecord
  2
TOP_MOUNT_PAINT
 70
     0
 62
    -7
  6
Continuous
370
    -3
390
F
  0
LAYER
  5
43
330
2
100
AcDbSymbolTableRecord
100
AcDbLayerTableRecord
  2
QTY-BLANK-SIZE-1
 70
     0
 62
     7
  6
Continuous
370
    -3
390
F
  0
ENDTAB
  0
TABLE
  2
STYLE
  5
3
330
0
100
AcDbSymbolTable
 70
     4
  0
STYLE
  5
11
330
3
100
AcDbSymbolTableRecord
100
AcDbTextStyleTableRecord
  2
Standard
 70
     0
 40
0.0
 41
1.0
 50
0.0
 71
     0
 42
0.2
  3
txt
  4

  0
STYLE
  5
86
330
3
100
AcDbSymbolTableRecord
100
AcDbTextStyleTableRecord
  2
SLDTEXTSTYLE0
 70
     0
 40
0.0
 41
0.5617857143000001
 50
0.0
 71
     0
 42
0.2
  3
TXT
  4

  0
STYLE
  5
A3
330
3
100
AcDbSymbolTableRecord
100
AcDbTextStyleTableRecord
  2
SLDTEXTSTYLE1
 70
     0
 40
0.0
 41
0.5545833333
 50
0.0
 71
     0
 42
0.2
  3
TXT
  4

  0
STYLE
  5
B1
330
3
100
AcDbSymbolTableRecord
100
AcDbTextStyleTableRecord
  2
SLDTEXTSTYLE2
 70
     0
 40
0.0
 41
0.5584615385000001
 50
0.0
 71
     0
 42
0.2
  3
TXT
  4

  0
ENDTAB
  0
TABLE
  2
VIEW
  5
6
330
0
100
AcDbSymbolTable
 70
     0
  0
ENDTAB
  0
TABLE
  2
UCS
  5
7
330
0
100
AcDbSymbolTable
 70
     0
  0
ENDTAB
  0
TABLE
  2
APPID
  5
9
330
0
100
AcDbSymbolTable
 70
     1
  0
APPID
  5
12
330
9
100
AcDbSymbolTableRecord
100
AcDbRegAppTableRecord
  2
ACAD
 70
     0
  0
ENDTAB
  0
TABLE
  2
DIMSTYLE
  5
A
330
0
100
AcDbSymbolTable
 70
     1
100
AcDbDimStyleTable
 71
     0
  0
DIMSTYLE
105
27
330
A
100
AcDbSymbolTableRecord
100
AcDbDimStyleTableRecord
  2
Standard
 70
     0
340
11
  0
ENDTAB
  0
TABLE
  2
BLOCK_RECORD
  5
1
330
0
100
AcDbSymbolTable
 70
     1
  0
BLOCK_RECORD
  5
1F
330
1
100
AcDbSymbolTableRecord
100
AcDbBlockTableRecord
  2
*Model_Space
340
22
  0
BLOCK_RECORD
  5
1B
330
1
100
AcDbSymbolTableRecord
100
AcDbBlockTableRecord
  2
*Paper_Space
340
1E
  0
BLOCK_RECORD
  5
23
330
1
100
AcDbSymbolTableRecord
100
AcDbBlockTableRecord
  2
*Paper_Space0
340
26
  0
ENDTAB
  0
ENDSEC
  0
SECTION
  2
BLOCKS
  0
BLOCK
  5
20
330
1F
100
AcDbEntity
  8
0
100
AcDbBlockBegin
  2
*Model_Space
 70
     0
 10
0.0
 20
0.0
 30
0.0
  3
*Model_Space
  1

  0
ENDBLK
  5
21
330
1F
100
AcDbEntity
  8
0
100
AcDbBlockEnd
  0
BLOCK
  5
1C
330
1B
100
AcDbEntity
 67
     1
  8
0
100
AcDbBlockBegin
  2
*Paper_Space
 70
     0
 10
0.0
 20
0.0
 30
0.0
  3
*Paper_Space
  1

  0
ENDBLK
  5
1D
330
1B
100
AcDbEntity
 67
     1
  8
0
100
AcDbBlockEnd
  0
BLOCK
  5
24
330
23
100
AcDbEntity
  8
0
100
AcDbBlockBegin
  2
*Paper_Space0
 70
     0
 10
0.0
 20
0.0
 30
0.0
  3
*Paper_Space0
  1

  0
ENDBLK
  5
25
330
23
100
AcDbEntity
  8
0
100
AcDbBlockEnd
  0
ENDSEC
  0
SECTION
  2
ENTITIES
  0
LINE
  5
44
330
1F
100
AcDbEntity
  8
0
  6
Continuous
 62
     7
370
    15
100
AcDbLine
 10
1.96215136117466
 20
0.4284678647
 30
0.0
 11
1.96215136117466
 21
0.4659678647000001
 31
0.0
  0
LINE
  5
45
330
1F
100
AcDbEntity
  8
0
  6
Continuous
 62
     7
370
    15
100
AcDbLine
 10
1.71215136117466
 20
0.4284678647
 30
0.0
 11
1.96215136117466
 21
0.4284678647
 31
0.0
  0
LINE
  5
46
330
1F
100
AcDbEntity
  8
0
  6
Continuous
 62
     7
370
    15
100
AcDbLine
 10
1.71215136117466
 20
0.4284678647
 30
0.0
 11
1.71215136117466
 21
0.4659678647000001
 31
0.0
  0
LINE
  5
47
330
1F
100
AcDbEntity
  8
0
  6
Continuous
 62
     7
370
    15
100
AcDbLine
 10
1.71215136117466
 20
0.4659678647000001
 30
0.0
 11
1.96215136117466
 21
0.4659678647000001
 31
0.0
  0
LINE
  5
48
330
1F
100
AcDbEntity
  8
0
  6
Continuous
 62
     7
370
    15
100
AcDbLine
 10
1.71215136117466
 20
1.610513906399998
 30
0.0
 11
1.71215136117466
 21
0.5409678647
 31
0.0
  0
LINE
  5
49
330
1F
100
AcDbEntity
  8
0
  6
Continuous
 62
     7
370
    15
100
AcDbLine
 10
1.69870136117466
 20
0.5409678647
 30
0.0
 11
1.71215136117466
 21
0.5409678647
 31
0.0
  0
LINE
  5
4A
330
1F
100
AcDbEntity
  8
0
  6
Continuous
 62
     7
370
    15
100
AcDbLine
 10
1.69870136117466
 20
1.610513906399998
 30
0.0
 11
1.69870136117466
 21
0.5409678647
 31
0.0
  0
SPLINE
  5
4B
330
1F
100
AcDbEntity
  8
0
  6
Continuous
 62
     7
370
    15
100
AcDbSpline
210
0.0
220
0.0
230
1.0
 70
    24
 71
     1
 72
     4
 73
     2
 74
     0
 42
0.0000000001
 43
0.0000000001
 40
0.0
 40
0.0
 40
1.0
 40
1.0
 10
1.698701361113788
 20
1.61051390636359
 30
0.0
 10
1.712151361189387
 20
1.61051390636359
 30
0.0
  0
LINE
  5
4C
330
1F
100
AcDbEntity
  8
0
  6
Continuous
 62
     7
370
    15
100
AcDbLine
 10
1.975601361174659
 20
0.5409678647
 30
0.0
 11
1.975601361174659
 21
1.610513906399998
 31
0.0
  0
LINE
  5
4D
330
1F
100
AcDbEntity
  8
0
  6
Continuous
 62
     7
370
    15
100
AcDbLine
 10
1.975601361174659
 20
0.5409678647
 30
0.0
 11
1.96215136117466
 21
0.5409678647
 31
0.0
  0
LINE
  5
4E
330
1F
100
AcDbEntity
  8
0
  6
Continuous
 62
     7
370
    15
100
AcDbLine
 10
1.96215136117466
 20
0.5409678647
 30
0.0
 11
1.96215136117466
 21
1.610513906399998
 31
0.0
  0
SPLINE
  5
4F
330
1F
100
AcDbEntity
  8
0
  6
Continuous
 62
     7
370
    15
100
AcDbSpline
210
0.0
220
0.0
230
1.0
 70
    24
 71
     1
 72
     4
 73
     2
 74
     0
 42
0.0000000001
 43
0.0000000001
 40
0.0
 40
0.0
 40
1.0
 40
1.0
 10
1.962151361189388
 20
1.61051390636359
 30
0.0
 10
1.975601361189387
 20
1.61051390636359
 30
0.0
  0
LINE
  5
50
330
1F
100
AcDbEntity
  8
0
  6
Continuous
 62
     7
370
    15
100
AcDbLine
 10
1.69870136117466
 20
0.3909678647
 30
0.0
 11
1.71215136117466
 21
0.3909678647
 31
0.0
  0
LINE
  5
51
330
1F
100
AcDbEntity
  8
0
  6
Continuous
 62
     7
370
    15
100
AcDbLine
 10
1.71215136117466
 20
0.5409678647
 30
0.0
 11
1.71215136117466
 21
0.3909678647
 31
0.0
  0
LINE
  5
52
330
1F
100
AcDbEntity
  8
0
  6
Continuous
 62
     7
370
    15
100
AcDbLine
 10
1.69870136117466
 20
0.5409678647
 30
0.0
 11
1.69870136117466
 21
0.3909678647
 31
0.0
  0
LINE
  5
53
330
1F
100
AcDbEntity
  8
0
  6
Continuous
 62
     7
370
    15
100
AcDbLine
 10
1.975601361174659
 20
0.3909678647
 30
0.0
 11
1.96215136117466
 21
0.3909678647
 31
0.0
  0
LINE
  5
54
330
1F
100
AcDbEntity
  8
0
  6
Continuous
 62
     7
370
    15
100
AcDbLine
 10
1.96215136117466
 20
0.3909678647
 30
0.0
 11
1.96215136117466
 21
0.5409678647
 31
0.0
  0
LINE
  5
55
330
1F
100
AcDbEntity
  8
0
  6
Continuous
 62
     7
370
    15
100
AcDbLine
 10
1.975601361174659
 20
0.3909678647
 30
0.0
 11
1.975601361174659
 21
0.5409678647
 31
0.0
  0
SPLINE
  5
56
330
1F
100
AcDbEntity
  8
0
  6
Continuous
 62
     7
370
    15
100
AcDbSpline
210
0.0
220
0.0
230
1.0
 70
     8
 71
     3
 72
    19
 73
    15
 74
     0
 42
0.0000000001
 43
0.0000000001
 40
0.0
 40
0.0
 40
0.0
 40
0.0
 40
0.0823899954000753
 40
0.1661717389621959
 40
0.2513490474940369
 40
0.3219465507878413
 40
0.4048279944073079
 40
0.5000002805123211
 40
0.6094681304694918
 40
0.6923495740889622
 40
0.7486539606670345
 40
0.8317945471663776
 40
0.9155762907284987
 40
1.0
 40
1.0
 40
1.0
 40
1.0
 10
1.698701361113788
 20
1.61051390636359
 30
0.0
 10
1.698742380197636
 20
1.613384649421881
 30
0.0
 10
1.698825111267839
 20
1.619174628700235
 30
0.0
 10
1.699476219234356
 20
1.62796549464549
 30
0.0
 10
1.70044305510498
 20
1.636359187206345
 30
0.0
 10
1.7017095690784
 20
1.644759021941075
 30
0.0
 10
1.703287047118189
 20
1.65354966396259
 30
0.0
 10
1.705426340003131
 20
1.663747706472194
 30
0.0
 10
1.707935737328045
 20
1.673947213226578
 30
0.0
 10
1.710423062974496
 20
1.682744867726551
 30
0.0
 10
1.712932791110049
 20
1.690553348008561
 30
0.0
 10
1.715755701466985
 20
1.698330213367889
 30
0.0
 10
1.719036040019212
 20
1.707122910255428
 30
0.0
 10
1.721326912618203
 20
1.713012054465956
 30
0.0
 10
1.7224767205407
 20
1.715967864698693
 30
0.0
  0
SPLINE
  5
57
330
1F
100
AcDbEntity
  8
0
  6
Continuous
 62
     7
370
    15
100
AcDbSpline
210
0.0
220
0.0
230
1.0
 70
    24
 71
     1
 72
     4
 73
     2
 74
     0
 42
0.0000000001
 43
0.0000000001
 40
0.0
 40
0.0
 40
1.0
 40
1.0
 10
1.725424960819911
 20
1.715967864698693
 30
0.0
 10
1.7224767205407
 20
1.715967864698693
 30
0.0
  0
SPLINE
  5
58
330
1F
100
AcDbEntity
  8
0
  6
Continuous
 62
     7
370
    15
100
AcDbSpline
210
0.0
220
0.0
230
1.0
 70
     8
 71
     3
 72
    17
 73
    13
 74
     0
 42
0.0000000001
 43
0.0000000001
 40
0.0
 40
0.0
 40
0.0
 40
0.0
 40
0.1104941288314408
 40
0.2237667736980725
 40
0.3235845308664076
 40
0.4388093408694926
 40
0.5819735211689834
 40
0.6769723473103385
 40
0.7419627358102967
 40
0.8230094798882705
 40
0.9111098030774735
 40
1.0
 40
1.0
 40
1.0
 40
1.0
 10
1.712151361113788
 20
1.61051390636359
 30
0.0
 10
1.712192931935277
 20
1.61438671592309
 30
0.0
 10
1.712277118929671
 20
1.622229721786314
 30
0.0
 10
1.712905326816637
 20
1.633588965548459
 30
0.0
 10
1.713843441350311
 20
1.645130187446864
 30
0.0
 10
1.715158326970062
 20
1.657751100314236
 30
0.0
 10
1.716751630174768
 20
1.670216499412155
 30
0.0
 10
1.718388799425415
 20
1.680898361907613
 30
0.0
 10
1.719863496106773
 20
1.6893760319955
 30
0.0
 10
1.721519799519735
 20
1.697579414533497
 30
0.0
 10
1.723398307193532
 20
1.706634799361409
 30
0.0
 10
1.72474740269553
 20
1.7128476007511
 30
0.0
 10
1.725424960819911
 20
1.715967864698693
 30
0.0
  0
LINE
  5
59
330
1F
100
AcDbEntity
  8
0
  6
Continuous
 62
     7
370
    15
100
AcDbLine
 10
1.72247672057466
 20
1.7159678647
 30
0.0
 11
1.72247672057466
 21
2.0034678647
 31
0.0
  0
LINE
  5
5A
330
1F
100
AcDbEntity
  8
0
  6
Continuous
 62
     7
370
    15
100
AcDbLine
 10
1.72915136117466
 20
0.3909678647
 30
0.0
 11
1.71215136117466
 21
0.3909678647
 31
0.0
  0
LINE
  5
5B
330
1F
100
AcDbEntity
  8
0
  6
Continuous
 62
     7
370
    15
100
AcDbLine
 10
1.72542496077466
 20
1.7159678647
 30
0.0
 11
1.72542496077466
 21
2.0034678647
 31
0.0
  0
LINE
  5
5C
330
1F
100
AcDbEntity
  8
0
  6
Continuous
 62
     7
370
    15
100
AcDbLine
 10
1.72542496077466
 20
2.0034678647
 30
0.0
 11
1.72915136117466
 21
2.0034678647
 31
0.0
  0
SPLINE
  5
5D
330
1F
100
AcDbEntity
  8
0
  6
Continuous
 62
     7
370
    15
100
AcDbSpline
210
0.0
220
0.0
230
1.0
 70
     8
 71
     3
 72
    19
 73
    15
 74
     0
 42
0.0000000001
 43
0.0000000001
 40
0.0
 40
0.0
 40
0.0
 40
0.0
 40
0.0823899950291314
 40
0.1661717382140436
 40
0.2513490463624002
 40
0.3219465493383563
 40
0.4048279925846728
 40
0.5000002782611918
 40
0.6094744374409621
 40
0.6923558806872784
 40
0.7486539585224987
 40
0.8317932480689938
 40
0.9155749912539071
 40
1.0
 40
1.0
 40
1.0
 40
1.0
 10
1.951826001838075
 20
1.715967864698693
 30
0.0
 10
1.95298089502567
 20
1.7130971216404
 30
0.0
 10
1.955310190085908
 20
1.70730714236205
 30
0.0
 10
1.958591598688116
 20
1.698516276416786
 30
0.0
 10
1.961517265342106
 20
1.690122583855956
 30
0.0
 10
1.964158739243592
 20
1.681722749121149
 30
0.0
 10
1.966622033159349
 20
1.672932107099969
 30
0.0
 10
1.969106927339414
 20
1.66273384079085
 30
0.0
 10
1.971217938096662
 20
1.652534110167394
 30
0.0
 10
1.97273597667275
 20
1.643736451832379
 30
0.0
 10
1.973908078848505
 20
1.635928246806813
 30
0.0
 10
1.974840049953928
 20
1.62815167713386
 30
0.0
 10
1.975481001343037
 20
1.619358977795344
 30
0.0
 10
1.975561139135212
 20
1.613469770784534
 30
0.0
 10
1.975601361264987
 20
1.61051390636359
 30
0.0
  0
LINE
  5
5E
330
1F
100
AcDbEntity
  8
0
  6
Continuous
 62
     7
370
    15
100
AcDbLine
 10
1.951826001874659
 20
2.0034678647
 30
0.0
 11
1.951826001874659
 21
1.7159678647
 31
0.0
  0
SPLINE
  5
5F
330
1F
100
AcDbEntity
  8
0
  6
Continuous
 62
     7
370
    15
100
AcDbSpline
210
0.0
220
0.0
230
1.0
 70
     8
 71
     3
 72
    17
 73
    13
 74
     0
 42
0.0000000001
 43
0.0000000001
 40
0.0
 40
0.0
 40
0.0
 40
0.0
 40
0.110494128653251
 40
0.223766773337208
 40
0.3235845303445762
 40
0.4388093401618418
 40
0.5819787326875866
 40
0.6769792487306111
 40
0.7419642453364591
 40
0.823008135747697
 40
0.9111083316826668
 40
1.0
 40
1.0
 40
1.0
 40
1.0
 10
1.948877761558865
 20
1.715967864698693
 30
0.0
 10
1.949742955362283
 20
1.712095055139436
 30
0.0
 10
1.951495099372664
 20
1.704252049276711
 30
0.0
 10
1.953780157089418
 20
1.692892805510925
 30
0.0
 10
1.955851251832069
 20
1.681351583625465
 30
0.0
 10
1.957765424460838
 20
1.668730487045622
 30
0.0
 10
1.959308885335969
 20
1.65626484442659
 30
0.0
 10
1.960388784626019
 20
1.6455829279021
 30
0.0
 10
1.961114338187139
 20
1.637105488958299
 30
0.0
 10
1.96168813840528
 20
1.628902412047705
 30
0.0
 10
1.962076343308544
 20
1.619847079831337
 30
0.0
 10
1.962126280842602
 20
1.613634225069398
 30
0.0
 10
1.962151361264987
 20
1.61051390636359
 30
0.0
  0
SPLINE
  5
60
330
1F
100
AcDbEntity
  8
0
  6
Continuous
 62
     7
370
    15
100
AcDbSpline
210
0.0
220
0.0
230
1.0
 70
    24
 71
     1
 72
     4
 73
     2
 74
     0
 42
0.0000000001
 43
0.0000000001
 40
0.0
 40
0.0
 40
1.0
 40
1.0
 10
1.948877761558865
 20
1.715967864698693
 30
0.0
 10
1.951826001838075
 20
1.715967864698693
 30
0.0
  0
LINE
  5
61
330
1F
100
AcDbEntity
  8
0
  6
Continuous
 62
     7
370
    15
100
AcDbLine
 10
1.948877761574659
 20
2.0034678647
 30
0.0
 11
1.948877761574659
 21
1.7159678647
 31
0.0
  0
LINE
  5
62
330
1F
100
AcDbEntity
  8
0
  6
Continuous
 62
     7
370
    15
100
AcDbLine
 10
1.96215136117466
 20
0.3909678647
 30
0.0
 11
1.945151361174659
 21
0.3909678647
 31
0.0
  0
LINE
  5
63
330
1F
100
AcDbEntity
  8
0
  6
Continuous
 62
     7
370
    15
100
AcDbLine
 10
1.945151361174659
 20
2.0034678647
 30
0.0
 11
1.948877761574659
 21
2.0034678647
 31
0.0
  0
LINE
  5
64
330
1F
100
AcDbEntity
  8
0
  6
Continuous
 62
     7
370
    15
100
AcDbLine
 10
1.72542496077466
 20
2.0034678647
 30
0.0
 11
1.72247672057466
 21
2.0034678647
 31
0.0
  0
LINE
  5
65
330
1F
100
AcDbEntity
  8
0
  6
Continuous
 62
     7
370
    15
100
AcDbLine
 10
1.948877761574659
 20
2.0034678647
 30
0.0
 11
1.951826001874659
 21
2.0034678647
 31
0.0
  0
CIRCLE
  5
66
330
1F
100
AcDbEntity
  8
0
  6
Continuous
 62
     7
370
    15
100
AcDbCircle
 10
1.76215136117466
 20
0.8409678646999998
 30
0.0
 40
0.0097500000000001
  0
CIRCLE
  5
67
330
1F
100
AcDbEntity
  8
0
  6
Continuous
 62
     7
370
    15
100
AcDbCircle
 10
1.76215136117466
 20
0.9659678646999999
 30
0.0
 40
0.00975
  0
CIRCLE
  5
68
330
1F
100
AcDbEntity
  8
0
  6
Continuous
 62
     7
370
    15
100
AcDbCircle
 10
1.76215136117466
 20
1.0909678647
 30
0.0
 40
0.0097500000000001
  0
CIRCLE
  5
69
330
1F
100
AcDbEntity
  8
0
  6
Continuous
 62
     7
370
    15
100
AcDbCircle
 10
1.76215136117466
 20
1.2159678647
 30
0.0
 40
0.0097500000000001
  0
CIRCLE
  5
6A
330
1F
100
AcDbEntity
  8
0
  6
Continuous
 62
     7
370
    15
100
AcDbCircle
 10
1.76215136117466
 20
1.3409678647
 30
0.0
 40
0.0097499999999999
  0
CIRCLE
  5
6B
330
1F
100
AcDbEntity
  8
0
  6
Continuous
 62
     7
370
    15
100
AcDbCircle
 10
1.76215136117466
 20
1.4659678647
 30
0.0
 40
0.0097500000000001
  0
CIRCLE
  5
6C
330
1F
100
AcDbEntity
  8
0
  6
Continuous
 62
     7
370
    15
100
AcDbCircle
 10
1.76215136117466
 20
1.5909678647
 30
0.0
 40
0.0097500000000001
  0
CIRCLE
  5
6D
330
1F
100
AcDbEntity
  8
0
  6
Continuous
 62
     7
370
    15
100
AcDbCircle
 10
1.76215136117466
 20
1.7159678647
 30
0.0
 40
0.0097499999999997
  0
CIRCLE
  5
6E
330
1F
100
AcDbEntity
  8
0
  6
Continuous
 62
     7
370
    15
100
AcDbCircle
 10
1.83715136117466
 20
0.7784678647
 30
0.0
 40
0.00975
  0
CIRCLE
  5
6F
330
1F
100
AcDbEntity
  8
0
  6
Continuous
 62
     7
370
    15
100
AcDbCircle
 10
1.83715136117466
 20
0.9034678646999999
 30
0.0
 40
0.00975
  0
CIRCLE
  5
70
330
1F
100
AcDbEntity
  8
0
  6
Continuous
 62
     7
370
    15
100
AcDbCircle
 10
1.83715136117466
 20
1.0284678647
 30
0.0
 40
0.0097499999999999
  0
CIRCLE
  5
71
330
1F
100
AcDbEntity
  8
0
  6
Continuous
 62
     7
370
    15
100
AcDbCircle
 10
1.83715136117466
 20
1.1534678647
 30
0.0
 40
0.0097499999999999
  0
CIRCLE
  5
72
330
1F
100
AcDbEntity
  8
0
  6
Continuous
 62
     7
370
    15
100
AcDbCircle
 10
1.83715136117466
 20
1.2784678647
 30
0.0
 40
0.0097500000000001
  0
CIRCLE
  5
73
330
1F
100
AcDbEntity
  8
0
  6
Continuous
 62
     7
370
    15
100
AcDbCircle
 10
1.83715136117466
 20
1.4034678647
 30
0.0
 40
0.0097499999999999
  0
CIRCLE
  5
74
330
1F
100
AcDbEntity
  8
0
  6
Continuous
 62
     7
370
    15
100
AcDbCircle
 10
1.83715136117466
 20
1.5284678647
 30
0.0
 40
0.0097500000000001
  0
CIRCLE
  5
75
330
1F
100
AcDbEntity
  8
0
  6
Continuous
 62
     7
370
    15
100
AcDbCircle
 10
1.83715136117466
 20
1.6534678647
 30
0.0
 40
0.0097499999999999
  0
CIRCLE
  5
76
330
1F
100
AcDbEntity
  8
0
  6
Continuous
 62
     7
370
    15
100
AcDbCircle
 10
1.912151361174659
 20
0.8409678646999998
 30
0.0
 40
0.0097500000000001
  0
CIRCLE
  5
77
330
1F
100
AcDbEntity
  8
0
  6
Continuous
 62
     7
370
    15
100
AcDbCircle
 10
1.912151361174659
 20
0.9659678646999999
 30
0.0
 40
0.00975
  0
CIRCLE
  5
78
330
1F
100
AcDbEntity
  8
0
  6
Continuous
 62
     7
370
    15
100
AcDbCircle
 10
1.912151361174659
 20
1.0909678647
 30
0.0
 40
0.0097500000000001
  0
CIRCLE
  5
79
330
1F
100
AcDbEntity
  8
0
  6
Continuous
 62
     7
370
    15
100
AcDbCircle
 10
1.912151361174659
 20
1.2159678647
 30
0.0
 40
0.0097500000000001
  0
CIRCLE
  5
7A
330
1F
100
AcDbEntity
  8
0
  6
Continuous
 62
     7
370
    15
100
AcDbCircle
 10
1.912151361174659
 20
1.3409678647
 30
0.0
 40
0.0097499999999999
  0
CIRCLE
  5
7B
330
1F
100
AcDbEntity
  8
0
  6
Continuous
 62
     7
370
    15
100
AcDbCircle
 10
1.912151361174659
 20
1.4659678647
 30
0.0
 40
0.0097500000000001
  0
CIRCLE
  5
7C
330
1F
100
AcDbEntity
  8
0
  6
Continuous
 62
     7
370
    15
100
AcDbCircle
 10
1.912151361174659
 20
1.5909678647
 30
0.0
 40
0.0097500000000001
  0
CIRCLE
  5
7D
330
1F
100
AcDbEntity
  8
0
  6
Continuous
 62
     7
370
    15
100
AcDbCircle
 10
1.912151361174659
 20
1.7159678647
 30
0.0
 40
0.0097499999999997
  0
CIRCLE
  5
7E
330
1F
100
AcDbEntity
  8
0
  6
Continuous
 62
     7
370
    15
100
AcDbCircle
 10
1.83715136117466
 20
1.903467864699999
 30
0.0
 40
0.0097500000000001
  0
CIRCLE
  5
7F
330
1F
100
AcDbEntity
  8
0
  6
Continuous
 62
     7
370
    15
100
AcDbCircle
 10
1.76215136117466
 20
1.965967864699999
 30
0.0
 40
0.0097499999999999
  0
CIRCLE
  5
80
330
1F
100
AcDbEntity
  8
0
  6
Continuous
 62
     7
370
    15
100
AcDbCircle
 10
1.912151361174659
 20
1.965967864699999
 30
0.0
 40
0.0097499999999999
  0
CIRCLE
  5
81
330
1F
100
AcDbEntity
  8
0
  6
Continuous
 62
     7
370
    15
100
AcDbCircle
 10
1.912151361174659
 20
1.840967864699999
 30
0.0
 40
0.0097499999999999
  0
CIRCLE
  5
82
330
1F
100
AcDbEntity
  8
0
  6
Continuous
 62
     7
370
    15
100
AcDbCircle
 10
1.83715136117466
 20
1.7784678647
 30
0.0
 40
0.0097499999999999
  0
CIRCLE
  5
83
330
1F
100
AcDbEntity
  8
0
  6
Continuous
 62
     7
370
    15
100
AcDbCircle
 10
1.76215136117466
 20
1.840967864699999
 30
0.0
 40
0.0097499999999999
  0
LINE
  5
84
330
1F
100
AcDbEntity
  8
0
  6
Continuous
 62
     7
370
    15
100
AcDbLine
 10
1.945151361174659
 20
2.0034678647
 30
0.0
 11
1.72915136117466
 21
2.0034678647
 31
0.0
  0
LINE
  5
85
330
1F
100
AcDbEntity
  8
0
  6
Continuous
 62
     7
370
    15
100
AcDbLine
 10
1.72915136117466
 20
0.3909678647
 30
0.0
 11
1.945151361174659
 21
0.3909678647
 31
0.0
  0
MTEXT
  5
87
330
1F
100
AcDbEntity
  8
0
100
AcDbMText
 10
1.46355479557466
 20
0.2433393156
 30
0.0
 40
0.0625
 41
0.0
 71
     1
 72
     1
  1
TD10S-FRONT-VIEW
  7
SLDTEXTSTYLE0
 73
     1
 44
1.0
1001
ACAD
1000
MTEXTBEGIN
1070
    73
1070
     1
1070
    44
1040
1.0
1070
    74
1070
     0
1000
MTEXTEND
  0
LINE
  5
88
330
1F
100
AcDbEntity
  8
0
  6
Continuous
 62
     7
370
    15
100
AcDbLine
 10
1.71215136117466
 20
2.3578337612
 30
0.0
 11
1.96215136117466
 21
2.3578337612
 31
0.0
  0
LINE
  5
89
330
1F
100
AcDbEntity
  8
0
  6
Continuous
 62
     7
370
    15
100
AcDbLine
 10
1.79027636117466
 20
2.488923421099999
 30
0.0
 11
1.79027636117466
 21
2.520173421099999
 31
0.0
  0
ARC
  5
8A
330
1F
100
AcDbEntity
  8
0
  6
Continuous
 62
     7
370
    15
100
AcDbCircle
 10
1.83715136117466
 20
2.488923421099999
 30
0.0
 40
0.0468750000000001
100
AcDbArc
 50
180.0
 51
0.0
  0
LINE
  5
8B
330
1F
100
AcDbEntity
  8
0
  6
Continuous
 62
     7
370
    15
100
AcDbLine
 10
1.88402636117466
 20
2.520173421099999
 30
0.0
 11
1.88402636117466
 21
2.488923421099999
 31
0.0
  0
ARC
  5
8C
330
1F
100
AcDbEntity
  8
0
  6
Continuous
 62
     7
370
    15
100
AcDbCircle
 10
1.83715136117466
 20
2.520173421099999
 30
0.0
 40
0.0468750000000001
100
AcDbArc
 50
0.0
 51
179.9999999973
  0
LINE
  5
8D
330
1F
100
AcDbEntity
  8
0
  6
Continuous
 62
     7
370
    15
100
AcDbLine
 10
1.73715136117466
 20
2.6535984211
 30
0.0
 11
1.71215136117466
 21
2.628598421099999
 31
0.0
  0
LINE
  5
8E
330
1F
100
AcDbEntity
  8
0
  6
Continuous
 62
     7
370
    15
100
AcDbLine
 10
1.96215136117466
 20
2.628598421099999
 30
0.0
 11
1.93715136117466
 21
2.6535984211
 31
0.0
  0
ARC
  5
8F
330
1F
100
AcDbEntity
  8
0
  6
Continuous
 62
     7
370
    15
100
AcDbCircle
 10
1.72915136117466
 20
2.636598420999999
 30
0.0
 40
0.0170000000755993
100
AcDbArc
 50
90.0
 51
102.6620507211
  0
LINE
  5
90
330
1F
100
AcDbEntity
  8
0
  6
Continuous
 62
     7
370
    15
100
AcDbLine
 10
1.72542496077466
 20
2.653184980099998
 30
0.0
 11
1.72247672057466
 21
2.666307875399998
 31
0.0
  0
ARC
  5
91
330
1F
100
AcDbEntity
  8
0
  6
Continuous
 62
     7
370
    15
100
AcDbCircle
 10
1.72915136117466
 20
2.636598420899999
 30
0.0
 40
0.030450000150279
100
AcDbArc
 50
90.0
 51
102.6620506899
  0
LINE
  5
92
330
1F
100
AcDbEntity
  8
0
  6
Continuous
 62
     7
370
    15
100
AcDbLine
 10
1.945151361174659
 20
2.6535984211
 30
0.0
 11
1.72915136117466
 21
2.653598420999998
 31
0.0
  0
LINE
  5
93
330
1F
100
AcDbEntity
  8
0
  6
Continuous
 62
     7
370
    15
100
AcDbLine
 10
1.945151361174659
 20
2.6670484211
 30
0.0
 11
1.72915136117466
 21
2.6670484211
 31
0.0
  0
ARC
  5
94
330
1F
100
AcDbEntity
  8
0
  6
Continuous
 62
     7
370
    15
100
AcDbCircle
 10
1.945151361174659
 20
2.636598420999999
 30
0.0
 40
0.017000000075599
100
AcDbArc
 50
77.3379492789
 51
90.0
  0
LINE
  5
95
330
1F
100
AcDbEntity
  8
0
  6
Continuous
 62
     7
370
    15
100
AcDbLine
 10
1.948877761574659
 20
2.653184980099998
 30
0.0
 11
1.951826001874659
 21
2.666307875399998
 31
0.0
  0
ARC
  5
96
330
1F
100
AcDbEntity
  8
0
  6
Continuous
 62
     7
370
    15
100
AcDbCircle
 10
1.945151361174659
 20
2.636598420899999
 30
0.0
 40
0.0304500001511987
100
AcDbArc
 50
77.3379493101
 51
90.0
  0
SPLINE
  5
97
330
1F
100
AcDbEntity
  8
0
  6
Continuous
 62
     7
370
    15
100
AcDbSpline
210
0.0
220
0.0
230
1.0
 70
    24
 71
     1
 72
     4
 73
     2
 74
     0
 42
0.0000000001
 43
0.0000000001
 40
0.0
 40
0.0
 40
1.0
 40
1.0
 10
1.962151361189388
 20
2.636598421024154
 30
0.0
 10
1.975601361189387
 20
2.636598421024154
 30
0.0
  0
SPLINE
  5
98
330
1F
100
AcDbEntity
  8
0
  6
Continuous
 62
     7
370
    15
100
AcDbSpline
210
0.0
220
0.0
230
1.0
 70
     8
 71
     3
 72
    17
 73
    13
 74
     0
 42
0.0000000001
 43
0.0000000001
 40
0.0
 40
0.0
 40
0.0
 40
0.0
 40
0.1104941286532509
 40
0.2237667733372079
 40
0.3235845303445761
 40
0.4388093401618415
 40
0.5819787326875866
 40
0.6769792487306111
 40
0.7419642453364591
 40
0.8230081357476969
 40
0.9111083316826663
 40
1.0
 40
1.0
 40
1.0
 40
1.0
 10
1.948877761558865
 20
2.653184980126535
 30
0.0
 10
1.949742955362283
 20
2.652947995320189
 30
0.0
 10
1.951495099372664
 20
2.652468066421771
 30
0.0
 10
1.953780157089418
 20
2.651310829792079
 30
0.0
 10
1.955851251832069
 20
2.649884031367539
 30
0.0
 10
1.957765424460838
 20
2.648106305825033
 30
0.0
 10
1.959308885335969
 20
2.646126488437537
 30
0.0
 10
1.960388784626019
 20
2.644205879415758
 30
0.0
 10
1.961114338187139
 20
2.642531451843955
 30
0.0
 10
1.96168813840528
 20
2.64070496328617
 30
0.0
 10
1.962076343308544
 20
2.638692426401544
 30
0.0
 10
1.962126280842602
 20
2.637298500602844
 30
0.0
 10
1.962151361264987
 20
2.636598421024154
 30
0.0
  0
SPLINE
  5
99
330
1F
100
AcDbEntity
  8
0
  6
Continuous
 62
     7
370
    15
100
AcDbSpline
210
0.0
220
0.0
230
1.0
 70
     8
 71
     3
 72
    19
 73
    15
 74
     0
 42
0.0000000001
 43
0.0000000001
 40
0.0
 40
0.0
 40
0.0
 40
0.0
 40
0.0823899950291314
 40
0.1661717382140436
 40
0.2513490463624002
 40
0.3219465493383563
 40
0.4048279925846728
 40
0.5000002782611918
 40
0.6094744374409621
 40
0.6923558806872784
 40
0.7486539585224987
 40
0.8317932480689938
 40
0.9155749912539071
 40
1.0
 40
1.0
 40
1.0
 40
1.0
 10
1.951826001838075
 20
2.666307875358
 30
0.0
 10
1.95298089502567
 20
2.666006371061701
 30
0.0
 10
1.955310190085908
 20
2.665398269398659
 30
0.0
 10
1.958591598688116
 20
2.663993717824553
 30
0.0
 10
1.961517265342106
 20
2.662345490784386
 30
0.0
 10
1.964158739243592
 20
2.660453963636745
 30
0.0
 10
1.966622033159349
 20
2.658283751807878
 30
0.0
 10
1.969106927339414
 20
2.655532820479431
 30
0.0
 10
1.971217938096662
 20
2.652486536604824
 30
0.0
 10
1.97273597667275
 20
2.649596153708428
 30
0.0
 10
1.973908078848505
 20
2.646760602462233
 30
0.0
 10
1.974840049953928
 20
2.643657978870062
 30
0.0
 10
1.975481001343037
 20
2.640151877644784
 30
0.0
 10
1.975561139135212
 20
2.637785922569771
 30
0.0
 10
1.975601361264987
 20
2.636598421024154
 30
0.0
  0
SPLINE
  5
9A
330
1F
100
AcDbEntity
  8
0
  6
Continuous
 62
     7
370
    15
100
AcDbSpline
210
0.0
220
0.0
230
1.0
 70
    24
 71
     1
 72
     4
 73
     2
 74
     0
 42
0.0000000001
 43
0.0000000001
 40
0.0
 40
0.0
 40
1.0
 40
1.0
 10
1.698701361113788
 20
2.636598421024154
 30
0.0
 10
1.712151361189387
 20
2.636598421024154
 30
0.0
  0
SPLINE
  5
9B
330
1F
100
AcDbEntity
  8
0
  6
Continuous
 62
     7
370
    15
100
AcDbSpline
210
0.0
220
0.0
230
1.0
 70
     8
 71
     3
 72
    17
 73
    13
 74
     0
 42
0.0000000001
 43
0.0000000001
 40
0.0
 40
0.0
 40
0.0
 40
0.0
 40
0.1104941288314409
 40
0.2237667736980726
 40
0.3235845308664076
 40
0.4388093408694926
 40
0.5819735211689835
 40
0.6769723473103385
 40
0.7419627358102968
 40
0.8230094798882706
 40
0.9111098030774735
 40
1.0
 40
1.0
 40
1.0
 40
1.0
 10
1.712151361113788
 20
2.636598421024154
 30
0.0
 10
1.712192931935277
 20
2.637494520338054
 30
0.0
 10
1.712277118929671
 20
2.639309252527946
 30
0.0
 10
1.712905326816637
 20
2.641792403822319
 30
0.0
 10
1.713843441350311
 20
2.644125883600611
 30
0.0
 10
1.715158326970062
 20
2.646383148371513
 30
0.0
 10
1.716751630174768
 20
2.648323014845529
 30
0.0
 10
1.718388799425414
 20
2.649797656243267
 30
0.0
 10
1.719863496106773
 20
2.65087263322876
 30
0.0
 10
1.721519799519735
 20
2.651832853739088
 30
0.0
 10
1.723398307193532
 20
2.652652774984392
 30
0.0
 10
1.724747402695531
 20
2.653007051390609
 30
0.0
 10
1.725424960819911
 20
2.653184980126534
 30
0.0
  0
SPLINE
  5
9C
330
1F
100
AcDbEntity
  8
0
  6
Continuous
 62
     7
370
    15
100
AcDbSpline
210
0.0
220
0.0
230
1.0
 70
     8
 71
     3
 72
    19
 73
    15
 74
     0
 42
0.0000000001
 43
0.0000000001
 40
0.0
 40
0.0
 40
0.0
 40
0.0
 40
0.0823899954000753
 40
0.1661717389621959
 40
0.2513490474940368
 40
0.3219465507878412
 40
0.4048279944073079
 40
0.5000002805123211
 40
0.6094681304694917
 40
0.6923495740889622
 40
0.7486539606670343
 40
0.8317945471663772
 40
0.9155762907284987
 40
1.0
 40
1.0
 40
1.0
 40
1.0
 10
1.698701361113788
 20
2.636598421024154
 30
0.0
 10
1.698742380197636
 20
2.637791316891451
 30
0.0
 10
1.698825111267839
 20
2.640197259259904
 30
0.0
 10
1.699476219234356
 20
2.6437067415515
 30
0.0
 10
1.70044305510498
 20
2.646922547227096
 30
0.0
 10
1.7017095690784
 20
2.649914403121123
 30
0.0
 10
1.703287047118188
 20
2.652793500071661
 30
0.0
 10
1.705426340003131
 20
2.655820899224643
 30
0.0
 10
1.707935737328044
 20
2.658548265071599
 30
0.0
 10
1.710423062974497
 20
2.660662982672727
 30
0.0
 10
1.712932791110049
 20
2.662428189741897
 30
0.0
 10
1.715755701466985
 20
2.664017608093563
 30
0.0
 10
1.719036040019213
 20
2.665411516697711
 30
0.0
 10
1.721326912618203
 20
2.666008329880714
 30
0.0
 10
1.7224767205407
 20
2.666307875358
 30
0.0
  0
LINE
  5
9D
330
1F
100
AcDbEntity
  8
0
  6
Continuous
 62
     7
370
    15
100
AcDbLine
 10
1.975601361174659
 20
2.3578337612
 30
0.0
 11
1.975601361174659
 21
2.636598420999999
 31
0.0
  0
LINE
  5
9E
330
1F
100
AcDbEntity
  8
0
  6
Continuous
 62
     7
370
    15
100
AcDbLine
 10
1.975601361174659
 20
2.3578337612
 30
0.0
 11
1.96215136117466
 21
2.3578337612
 31
0.0
  0
LINE
  5
9F
330
1F
100
AcDbEntity
  8
0
  6
Continuous
 62
     7
370
    15
100
AcDbLine
 10
1.96215136117466
 20
2.3578337612
 30
0.0
 11
1.96215136117466
 21
2.636598420999999
 31
0.0
  0
LINE
  5
A0
330
1F
100
AcDbEntity
  8
0
  6
Continuous
 62
     7
370
    15
100
AcDbLine
 10
1.71215136117466
 20
2.636598420999999
 30
0.0
 11
1.71215136117466
 21
2.3578337612
 31
0.0
  0
LINE
  5
A1
330
1F
100
AcDbEntity
  8
0
  6
Continuous
 62
     7
370
    15
100
AcDbLine
 10
1.69870136117466
 20
2.3578337612
 30
0.0
 11
1.71215136117466
 21
2.3578337612
 31
0.0
  0
LINE
  5
A2
330
1F
100
AcDbEntity
  8
0
  6
Continuous
 62
     7
370
    15
100
AcDbLine
 10
1.69870136117466
 20
2.636598420999999
 30
0.0
 11
1.69870136117466
 21
2.3578337612
 31
0.0
  0
MTEXT
  5
A4
330
1F
100
AcDbEntity
  8
0
100
AcDbMText
 10
1.50163815617466
 20
2.223490469553641
 30
0.0
 40
0.0625
 41
0.0
 71
     1
 72
     1
  1
TD10S-TOP-VIEW
  7
SLDTEXTSTYLE1
 73
     1
 44
1.0
1001
ACAD
1000
MTEXTBEGIN
1070
    73
1070
     1
1070
    44
1040
1.0
1070
    74
1070
     0
1000
MTEXTEND
  0
LINE
  5
A5
330
1F
100
AcDbEntity
  8
0
  6
Continuous
 62
     7
370
    15
100
AcDbLine
 10
0.7059108042255411
 20
0.3909678647
 30
0.0
 11
0.4271461444255409
 21
0.3909678647
 31
0.0
  0
LINE
  5
A6
330
1F
100
AcDbEntity
  8
0
  6
Continuous
 62
     7
370
    15
100
AcDbLine
 10
0.4271461444255409
 20
0.3909678647
 30
0.0
 11
0.4271461444255409
 21
0.5409678647
 31
0.0
  0
LINE
  5
A7
330
1F
100
AcDbEntity
  8
0
  6
Continuous
 62
     7
370
    15
100
AcDbLine
 10
0.4271461444255409
 20
0.5409678647
 30
0.0
 11
0.7059108042255411
 21
1.610513906399998
 31
0.0
  0
LINE
  5
A8
330
1F
100
AcDbEntity
  8
0
  6
Continuous
 62
     7
370
    15
100
AcDbLine
 10
0.7363608043255399
 20
2.0034678647
 30
0.0
 11
0.7363608043255399
 21
0.3909678647
 31
0.0
  0
LINE
  5
A9
330
1F
100
AcDbEntity
  8
0
  6
Continuous
 62
     7
370
    15
100
AcDbLine
 10
0.7059108042255411
 20
0.3909678647
 30
0.0
 11
0.7363608043255399
 21
0.3909678647
 31
0.0
  0
SPLINE
  5
AA
330
1F
100
AcDbEntity
  8
0
  6
Continuous
 62
     7
370
    15
100
AcDbSpline
210
0.0
220
0.0
230
1.0
 70
     8
 71
     3
 72
    19
 73
    15
 74
     0
 42
0.0000000001
 43
0.0000000001
 40
0.0
 40
0.0
 40
0.0
 40
0.0
 40
0.0823899950291314
 40
0.1661717382140436
 40
0.2513490463624002
 40
0.3219465493383563
 40
0.4048279925846728
 40
0.5000002782611918
 40
0.6094744374409621
 40
0.6923558806872784
 40
0.7486539585224987
 40
0.8317932480689938
 40
0.9155749912539071
 40
1.0
 40
1.0
 40
1.0
 40
1.0
 10
0.7356202586030549
 20
1.715967864698693
 30
0.0
 10
0.7353187543067539
 20
1.7130971216404
 30
0.0
 10
0.7347106526437118
 20
1.70730714236205
 30
0.0
 10
0.733306101069605
 20
1.698516276416786
 30
0.0
 10
0.7316578740294406
 20
1.690122583855956
 30
0.0
 10
0.729766346881799
 20
1.681722749121149
 30
0.0
 10
0.7275961350529299
 20
1.672932107099969
 30
0.0
 10
0.7248452037244842
 20
1.66273384079085
 30
0.0
 10
0.7217989198498769
 20
1.652534110167394
 30
0.0
 10
0.7189085369534798
 20
1.643736451832379
 30
0.0
 10
0.716072985707287
 20
1.635928246806813
 30
0.0
 10
0.7129703621151169
 20
1.62815167713386
 30
0.0
 10
0.709464260889837
 20
1.619358977795344
 30
0.0
 10
0.707098305814824
 20
1.613469770784534
 30
0.0
 10
0.705910804269208
 20
1.61051390636359
 30
0.0
  0
LINE
  5
AB
330
1F
100
AcDbEntity
  8
0
  6
Continuous
 62
     7
370
    15
100
AcDbLine
 10
0.735620258625541
 20
2.0034678647
 30
0.0
 11
0.735620258625541
 21
1.7159678647
 31
0.0
  0
LINE
  5
AC
330
1F
100
AcDbEntity
  8
0
  6
Continuous
 62
     7
370
    15
100
AcDbLine
 10
0.7363608043255399
 20
2.0034678647
 30
0.0
 11
0.735620258625541
 21
2.0034678647
 31
0.0
  0
SPLINE
  5
AD
330
1F
100
AcDbEntity
  8
0
  6
Continuous
 62
     7
370
    15
100
AcDbSpline
210
0.0
220
0.0
230
1.0
 70
     8
 71
     3
 72
    17
 73
    13
 74
     0
 42
0.0000000001
 43
0.0000000001
 40
0.0
 40
0.0
 40
0.0
 40
0.0
 40
0.110494128653251
 40
0.223766773337208
 40
0.3235845303445762
 40
0.4388093401618418
 40
0.5819787326875866
 40
0.6769792487306111
 40
0.7419642453364591
 40
0.823008135747697
 40
0.9111083316826668
 40
1.0
 40
1.0
 40
1.0
 40
1.0
 10
0.722497363371589
 20
1.715967864698693
 30
0.0
 10
0.7222603785652418
 20
1.712095055139436
 30
0.0
 10
0.7217804496668259
 20
1.704252049276711
 30
0.0
 10
0.7206232130371318
 20
1.692892805510925
 30
0.0
 10
0.7191964146125929
 20
1.681351583625465
 30
0.0
 10
0.7174186890700858
 20
1.668730487045622
 30
0.0
 10
0.7154388716825895
 20
1.65626484442659
 30
0.0
 10
0.7135182626608119
 20
1.6455829279021
 30
0.0
 10
0.7118438350890091
 20
1.637105488958299
 30
0.0
 10
0.7100173465312252
 20
1.628902412047705
 30
0.0
 10
0.708004809646599
 20
1.619847079831337
 30
0.0
 10
0.706610883847898
 20
1.613634225069398
 30
0.0
 10
0.705910804269208
 20
1.61051390636359
 30
0.0
  0
SPLINE
  5
AE
330
1F
100
AcDbEntity
  8
0
  6
Continuous
 62
     7
370
    15
100
AcDbSpline
210
0.0
220
0.0
230
1.0
 70
    24
 71
     1
 72
     4
 73
     2
 74
     0
 42
0.0000000001
 43
0.0000000001
 40
0.0
 40
0.0
 40
1.0
 40
1.0
 10
0.722497363371589
 20
1.715967864698693
 30
0.0
 10
0.7356202586030549
 20
1.715967864698693
 30
0.0
  0
LINE
  5
AF
330
1F
100
AcDbEntity
  8
0
  6
Continuous
 62
     7
370
    15
100
AcDbLine
 10
0.722497363325541
 20
2.0034678647
 30
0.0
 11
0.722497363325541
 21
1.7159678647
 31
0.0
  0
LINE
  5
B0
330
1F
100
AcDbEntity
  8
0
  6
Continuous
 62
     7
370
    15
100
AcDbLine
 10
0.722497363325541
 20
2.0034678647
 30
0.0
 11
0.735620258625541
 21
2.0034678647
 31
0.0
  0
MTEXT
  5
B2
330
1F
100
AcDbEntity
  8
0
100
AcDbMText
 10
0.1433139750255399
 20
0.2188388018
 30
0.0
 40
0.0625
 41
0.0
 71
     1
 72
     1
  1
TD10S-SIDE-VIEW
  7
SLDTEXTSTYLE2
 73
     1
 44
1.0
1001
ACAD
1000
MTEXTBEGIN
1070
    73
1070
     1
1070
    44
1040
1.0
1070
    74
1070
     0
1000
MTEXTEND
  0
ENDSEC
  0
SECTION
  2
OBJECTS
  0
DICTIONARY
  5
C
330
0
100
AcDbDictionary
281
     1
  3
ACAD_COLOR
350
B6
  3
ACAD_GROUP
350
D
  3
ACAD_LAYOUT
350
1A
  3
ACAD_MATERIAL
350
B5
  3
ACAD_MLINESTYLE
350
17
  3
ACAD_PLOTSETTINGS
350
19
  3
ACAD_PLOTSTYLENAME
350
E
  3
ACDBHEADERROUNDTRIPXREC
350
EF
  3
AcDbVariableDictionary
350
C6
  0
DICTIONARY
  5
B6
102
{ACAD_REACTORS
330
C
102
}
330
C
100
AcDbDictionary
281
     1
  0
DICTIONARY
  5
D
102
{ACAD_REACTORS
330
C
102
}
330
C
100
AcDbDictionary
281
     1
  0
DICTIONARY
  5
1A
102
{ACAD_REACTORS
330
C
102
}
330
C
100
AcDbDictionary
281
     1
  3
Layout1
350
1E
  3
Layout2
350
26
  3
Model
350
22
  0
DICTIONARY
  5
B5
102
{ACAD_REACTORS
330
C
102
}
330
C
100
AcDbDictionary
281
     1
  0
DICTIONARY
  5
17
102
{ACAD_REACTORS
330
C
102
}
330
C
100
AcDbDictionary
281
     1
  3
Standard
350
18
  0
DICTIONARY
  5
19
102
{ACAD_REACTORS
330
C
102
}
330
C
100
AcDbDictionary
281
     1
  0
ACDBDICTIONARYWDFLT
  5
E
102
{ACAD_REACTORS
330
C
102
}
330
C
100
AcDbDictionary
281
     1
  3
Normal
350
F
100
AcDbDictionaryWithDefault
340
F
  0
DICTIONARY
  5
EF
102
{ACAD_REACTORS
330
C
102
}
330
C
100
AcDbDictionary
281
     1
  3
COLORDICT
350
F1
  3
MATERIALDICT
350
F0
  0
DICTIONARY
  5
C6
102
{ACAD_REACTORS
330
C
102
}
330
C
100
AcDbDictionary
281
     1
  3
DIMASSOC
350
C7
  3
PROJECTNAME
350
C8
  0
LAYOUT
  5
1E
102
{ACAD_XDICTIONARY
360
F2
102
}
102
{ACAD_REACTORS
330
1A
102
}
330
1A
100
AcDbPlotSettings
  1

  2
none_device
  4

  6

 40
0.0
 41
0.0
 42
0.0
 43
0.0
 44
0.0
 45
0.0
 46
0.0
 47
0.0
 48
0.0
 49
0.0
140
0.0
141
0.0
142
1.0
143
1.0
 70
   688
 72
     0
 73
     0
 74
     5
  7

 75
    16
147
1.0
148
0.0
149
0.0
100
AcDbLayout
  1
Layout1
 70
     1
 71
     1
 10
0.0
 20
0.0
 11
12.0
 21
9.0
 12
0.0
 22
0.0
 32
0.0
 14
1.000000000000000E+20
 24
1.000000000000000E+20
 34
1.000000000000000E+20
 15
-1.000000000000000E+20
 25
-1.000000000000000E+20
 35
-1.000000000000000E+20
146
0.0
 13
0.0
 23
0.0
 33
0.0
 16
1.0
 26
0.0
 36
0.0
 17
0.0
 27
1.0
 37
0.0
 76
     0
330
1B
  0
LAYOUT
  5
26
102
{ACAD_XDICTIONARY
360
F6
102
}
102
{ACAD_REACTORS
330
1A
102
}
330
1A
100
AcDbPlotSettings
  1

  2
none_device
  4

  6

 40
0.0
 41
0.0
 42
0.0
 43
0.0
 44
0.0
 45
0.0
 46
0.0
 47
0.0
 48
0.0
 49
0.0
140
0.0
141
0.0
142
1.0
143
1.0
 70
   688
 72
     0
 73
     0
 74
     5
  7

 75
    16
147
1.0
148
0.0
149
0.0
100
AcDbLayout
  1
Layout2
 70
     1
 71
     2
 10
0.0
 20
0.0
 11
0.0
 21
0.0
 12
0.0
 22
0.0
 32
0.0
 14
0.0
 24
0.0
 34
0.0
 15
0.0
 25
0.0
 35
0.0
146
0.0
 13
0.0
 23
0.0
 33
0.0
 16
1.0
 26
0.0
 36
0.0
 17
0.0
 27
1.0
 37
0.0
 76
     0
330
23
  0
LAYOUT
  5
22
102
{ACAD_XDICTIONARY
360
F4
102
}
102
{ACAD_REACTORS
330
1A
102
}
330
1A
100
AcDbPlotSettings
  1

  2
none_device
  4

  6

 40
0.0
 41
0.0
 42
0.0
 43
0.0
 44
0.0
 45
0.0
 46
0.0
 47
0.0
 48
0.0
 49
0.0
140
0.0
141
0.0
142
1.0
143
1.0
 70
  1712
 72
     0
 73
     0
 74
     0
  7

 75
     0
147
1.0
148
0.0
149
0.0
100
AcDbLayout
  1
Model
 70
     1
 71
     0
 10
0.0
 20
0.0
 11
0.0
 21
0.0
 12
0.0
 22
0.0
 32
0.0
 14
0.0
 24
0.0
 34
0.0
 15
3.0
 25
3.0
 35
0.0
146
0.0
 13
0.0
 23
0.0
 33
0.0
 16
1.0
 26
0.0
 36
0.0
 17
0.0
 27
1.0
 37
0.0
 76
     0
330
1F
  0
MLINESTYLE
  5
18
102
{ACAD_REACTORS
330
17
102
}
330
17
100
AcDbMlineStyle
  2
STANDARD
 70
     0
  3

 62
   256
 51
90.0
 52
90.0
 71
     2
 49
0.5
 62
   256
  6
BYLAYER
 49
-0.5
 62
   256
  6
BYLAYER
  0
ACDBPLACEHOLDER
  5
F
102
{ACAD_REACTORS
330
E
102
}
330
E
  0
XRECORD
  5
F1
102
{ACAD_REACTORS
330
EF
102
}
330
EF
100
AcDbXrecord
280
     1
340
B6
  0
XRECORD
  5
F0
102
{ACAD_REACTORS
330
EF
102
}
330
EF
100
AcDbXrecord
280
     1
340
B5
  0
DICTIONARYVAR
  5
C7
102
{ACAD_REACTORS
330
C6
102
}
330
C6
100
DictionaryVariables
280
     0
  1
1
  0
DICTIONARYVAR
  5
C8
102
{ACAD_REACTORS
330
C6
102
}
330
C6
100
DictionaryVariables
280
     0
  1

  0
DICTIONARY
  5
F2
330
1E
100
AcDbDictionary
280
     1
281
     1
  3
ACAD_XREC_ROUNDTRIP
360
F3
  0
DICTIONARY
  5
F6
330
26
100
AcDbDictionary
280
     1
281
     1
  3
ACAD_XREC_ROUNDTRIP
360
F7
  0
DICTIONARY
  5
F4
330
22
100
AcDbDictionary
280
     1
281
     1
  3
ACAD_XREC_ROUNDTRIP
360
F5
  0
XRECORD
  5
F3
102
{ACAD_REACTORS
330
F2
102
}
330
F2
100
AcDbXrecord
280
     1
102
SHADEPLOT
 70
     0
102
SHADEPLOTRESLEVEL
 70
     2
102
SHADEPLOTCUSTOMDPI
 70
   300
  0
XRECORD
  5
F7
102
{ACAD_REACTORS
330
F6
102
}
330
F6
100
AcDbXrecord
280
     1
102
SHADEPLOT
 70
     0
102
SHADEPLOTRESLEVEL
 70
     2
102
SHADEPLOTCUSTOMDPI
 70
   300
  0
XRECORD
  5
F5
102
{ACAD_REACTORS
330
F4
102
}
330
F4
100
AcDbXrecord
280
     1
102
SHADEPLOT
 70
     0
102
SHADEPLOTRESLEVEL
 70
     2
102
SHADEPLOTCUSTOMDPI
 70
   300
  0
ENDSEC
  0
EOF
