  0
SECTION
  2
HEADER
  9
$ACADVER
  1
AC1015
  9
$ACADMAINTVER
 70
    20
  9
$DWGCODEPAGE
  3
ANSI_1252
  9
$INSBASE
 10
0.0
 20
0.0
 30
0.0
  9
$EXTMIN
 10
0.0946345621918985
 20
0.0526069866753307
 30
-0.0000000349181948
  9
$EXTMAX
 10
1.942275751636063
 20
2.66736710235831
 30
0.0000000814935746
  9
$LIMMIN
 10
0.0
 20
0.0
  9
$LIMMAX
 10
0.0
 20
0.0
  9
$ORTHOMODE
 70
     1
  9
$REGENMODE
 70
     1
  9
$FILLMODE
 70
     1
  9
$QTEXTMODE
 70
     0
  9
$MIRRTEXT
 70
     1
  9
$LTSCALE
 40
1.0
  9
$ATTMODE
 70
     1
  9
$TEXTSIZE
 40
0.2
  9
$TRACEWID
 40
0.05
  9
$TEXTSTYLE
  7
Standard
  9
$CLAYER
  8
0
  9
$CELTYPE
  6
ByLayer
  9
$CECOLOR
 62
   256
  9
$CELTSCALE
 40
1.0
  9
$DISPSILH
 70
     0
  9
$DIMSCALE
 40
1.0
  9
$DIMASZ
 40
0.0516086155
  9
$DIMEXO
 40
0.05
  9
$DIMDLI
 40
0.38
  9
$DIMRND
 40
0.0
  9
$DIMDLE
 40
0.0
  9
$DIMEXE
 40
0.0625
  9
$DIMTP
 40
0.0
  9
$DIMTM
 40
0.0
  9
$DIMTXT
 40
0.0694444444
  9
$DIMCEN
 40
0.09
  9
$DIMTSZ
 40
0.0
  9
$DIMTOL
 70
     0
  9
$DIMLIM
 70
     0
  9
$DIMTIH
 70
     1
  9
$DIMTOH
 70
     1
  9
$DIMSE1
 70
     0
  9
$DIMSE2
 70
     0
  9
$DIMTAD
 70
     0
  9
$DIMZIN
 70
     0
  9
$DIMBLK
  1

  9
$DIMASO
 70
     1
  9
$DIMSHO
 70
     1
  9
$DIMPOST
  1

  9
$DIMAPOST
  1

  9
$DIMALT
 70
     0
  9
$DIMALTD
 70
     2
  9
$DIMALTF
 40
25.4
  9
$DIMLFAC
 40
10.0
  9
$DIMTOFL
 70
     0
  9
$DIMTVP
 40
0.0
  9
$DIMTIX
 70
     0
  9
$DIMSOXD
 70
     0
  9
$DIMSAH
 70
     0
  9
$DIMBLK1
  1

  9
$DIMBLK2
  1

  9
$DIMSTYLE
  2
Standard
  9
$DIMCLRD
 70
     0
  9
$DIMCLRE
 70
     0
  9
$DIMCLRT
 70
     0
  9
$DIMTFAC
 40
1.0
  9
$DIMGAP
 40
0.06
  9
$DIMJUST
 70
     0
  9
$DIMSD1
 70
     0
  9
$DIMSD2
 70
     0
  9
$DIMTOLJ
 70
     1
  9
$DIMTZIN
 70
     0
  9
$DIMALTZ
 70
     0
  9
$DIMALTTZ
 70
     0
  9
$DIMUPT
 70
     0
  9
$DIMDEC
 70
     4
  9
$DIMTDEC
 70
     4
  9
$DIMALTU
 70
     2
  9
$DIMALTTD
 70
     2
  9
$DIMTXSTY
  7
Standard
  9
$DIMAUNIT
 70
     0
  9
$DIMADEC
 70
     0
  9
$DIMALTRND
 40
0.0
  9
$DIMAZIN
 70
     0
  9
$DIMDSEP
 70
    46
  9
$DIMATFIT
 70
     3
  9
$DIMFRAC
 70
     0
  9
$DIMLDRBLK
  1

  9
$DIMLUNIT
 70
     2
  9
$DIMLWD
 70
    -2
  9
$DIMLWE
 70
    -2
  9
$DIMTMOVE
 70
     0
  9
$LUNITS
 70
     2
  9
$LUPREC
 70
     4
  9
$SKETCHINC
 40
0.1
  9
$FILLETRAD
 40
0.5
  9
$AUNITS
 70
     0
  9
$AUPREC
 70
     0
  9
$MENU
  1
.
  9
$ELEVATION
 40
0.0
  9
$PELEVATION
 40
0.0
  9
$THICKNESS
 40
0.0
  9
$LIMCHECK
 70
     0
  9
$CHAMFERA
 40
0.5
  9
$CHAMFERB
 40
0.5
  9
$CHAMFERC
 40
1.0
  9
$CHAMFERD
 40
0.0
  9
$SKPOLY
 70
     0
  9
$TDCREATE
 40
2454755.647567998
  9
$TDUCREATE
 40
2454755.897567998
  9
$TDUPDATE
 40
2454769.380050996
  9
$TDUUPDATE
 40
2454769.630050996
  9
$TDINDWG
 40
0.0095720949
  9
$TDUSRTIMER
 40
0.0095717361
  9
$USRTIMER
 70
     1
  9
$ANGBASE
 50
0.0
  9
$ANGDIR
 70
     0
  9
$PDMODE
 70
     0
  9
$PDSIZE
 40
-1.0
  9
$PLINEWID
 40
0.0
  9
$SPLFRAME
 70
     0
  9
$SPLINETYPE
 70
     6
  9
$SPLINESEGS
 70
     8
  9
$HANDSEED
  5
EF
  9
$SURFTAB1
 70
     6
  9
$SURFTAB2
 70
     6
  9
$SURFTYPE
 70
     6
  9
$SURFU
 70
     6
  9
$SURFV
 70
     6
  9
$UCSBASE
  2

  9
$UCSNAME
  2

  9
$UCSORG
 10
0.0
 20
0.0
 30
0.0
  9
$UCSXDIR
 10
1.0
 20
0.0
 30
0.0
  9
$UCSYDIR
 10
0.0
 20
1.0
 30
0.0
  9
$UCSORTHOREF
  2

  9
$UCSORTHOVIEW
 70
     0
  9
$UCSORGTOP
 10
0.0
 20
0.0
 30
0.0
  9
$UCSORGBOTTOM
 10
0.0
 20
0.0
 30
0.0
  9
$UCSORGLEFT
 10
0.0
 20
0.0
 30
0.0
  9
$UCSORGRIGHT
 10
0.0
 20
0.0
 30
0.0
  9
$UCSORGFRONT
 10
0.0
 20
0.0
 30
0.0
  9
$UCSORGBACK
 10
0.0
 20
0.0
 30
0.0
  9
$PUCSBASE
  2

  9
$PUCSNAME
  2

  9
$PUCSORG
 10
0.0
 20
0.0
 30
0.0
  9
$PUCSXDIR
 10
1.0
 20
0.0
 30
0.0
  9
$PUCSYDIR
 10
0.0
 20
1.0
 30
0.0
  9
$PUCSORTHOREF
  2

  9
$PUCSORTHOVIEW
 70
     0
  9
$PUCSORGTOP
 10
0.0
 20
0.0
 30
0.0
  9
$PUCSORGBOTTOM
 10
0.0
 20
0.0
 30
0.0
  9
$PUCSORGLEFT
 10
0.0
 20
0.0
 30
0.0
  9
$PUCSORGRIGHT
 10
0.0
 20
0.0
 30
0.0
  9
$PUCSORGFRONT
 10
0.0
 20
0.0
 30
0.0
  9
$PUCSORGBACK
 10
0.0
 20
0.0
 30
0.0
  9
$USERI1
 70
     0
  9
$USERI2
 70
     0
  9
$USERI3
 70
     0
  9
$USERI4
 70
     0
  9
$USERI5
 70
     0
  9
$USERR1
 40
0.0
  9
$USERR2
 40
0.0
  9
$USERR3
 40
0.0
  9
$USERR4
 40
0.0
  9
$USERR5
 40
0.0
  9
$WORLDVIEW
 70
     1
  9
$SHADEDGE
 70
     3
  9
$SHADEDIF
 70
    70
  9
$TILEMODE
 70
     1
  9
$MAXACTVP
 70
    64
  9
$PINSBASE
 10
0.0
 20
0.0
 30
0.0
  9
$PLIMCHECK
 70
     0
  9
$PEXTMIN
 10
1.000000000000000E+20
 20
1.000000000000000E+20
 30
1.000000000000000E+20
  9
$PEXTMAX
 10
-1.000000000000000E+20
 20
-1.000000000000000E+20
 30
-1.000000000000000E+20
  9
$PLIMMIN
 10
0.0
 20
0.0
  9
$PLIMMAX
 10
12.0
 20
9.0
  9
$UNITMODE
 70
     0
  9
$VISRETAIN
 70
     1
  9
$PLINEGEN
 70
     0
  9
$PSLTSCALE
 70
     1
  9
$TREEDEPTH
 70
  3020
  9
$CMLSTYLE
  2
Standard
  9
$CMLJUST
 70
     0
  9
$CMLSCALE
 40
1.0
  9
$PROXYGRAPHICS
 70
     1
  9
$MEASUREMENT
 70
     0
  9
$CELWEIGHT
370
    -1
  9
$ENDCAPS
280
     0
  9
$JOINSTYLE
280
     0
  9
$LWDISPLAY
290
     1
  9
$INSUNITS
 70
     1
  9
$HYPERLINKBASE
  1

  9
$STYLESHEET
  1

  9
$XEDIT
290
     1
  9
$CEPSNTYPE
380
     0
  9
$PSTYLEMODE
290
     1
  9
$FINGERPRINTGUID
  2
{8F90BB0E-BD7B-499D-9F25-E040C22B9272}
  9
$VERSIONGUID
  2
{62AB4C7F-FAB5-4B8C-A66F-31262F9E1942}
  9
$EXTNAMES
290
     1
  9
$PSVPSCALE
 40
0.0
  9
$OLESTARTUP
290
     0
  0
ENDSEC
  0
SECTION
  2
CLASSES
  0
CLASS
  1
ACDBDICTIONARYWDFLT
  2
AcDbDictionaryWithDefault
  3
ObjectDBX Classes
 90
        0
280
     0
281
     0
  0
CLASS
  1
ACDBPLACEHOLDER
  2
AcDbPlaceHolder
  3
ObjectDBX Classes
 90
        0
280
     0
281
     0
  0
CLASS
  1
LAYOUT
  2
AcDbLayout
  3
ObjectDBX Classes
 90
        0
280
     0
281
     0
  0
CLASS
  1
DICTIONARYVAR
  2
AcDbDictionaryVar
  3
ObjectDBX Classes
 90
        0
280
     0
281
     0
  0
ENDSEC
  0
SECTION
  2
TABLES
  0
TABLE
  2
VPORT
  5
8
330
0
100
AcDbSymbolTable
 70
     3
  0
VPORT
  5
E5
330
8
100
AcDbSymbolTableRecord
100
AcDbViewportTableRecord
  2
*Active
 70
     0
 10
0.0
 20
0.0
 11
1.0
 21
1.0
 12
1.01845515691398
 22
1.35998704451682
 13
0.0
 23
0.0
 14
0.5
 24
0.5
 15
0.5
 25
0.5
 16
0.0
 26
0.0
 36
1.0
 17
0.0
 27
0.0
 37
0.0
 40
2.634669456665338
 41
1.532401524777636
 42
50.0
 43
0.0
 44
0.0
 50
0.0
 51
0.0
 71
     0
 72
  2000
 73
     1
 74
     3
 75
     0
 76
     0
 77
     0
 78
     0
281
     0
 65
     1
110
0.0
120
0.0
130
0.0
111
1.0
121
0.0
131
0.0
112
0.0
122
1.0
132
0.0
 79
     0
146
0.0
  0
ENDTAB
  0
TABLE
  2
LTYPE
  5
5
330
0
100
AcDbSymbolTable
 70
     6
  0
LTYPE
  5
14
330
5
100
AcDbSymbolTableRecord
100
AcDbLinetypeTableRecord
  2
ByBlock
 70
     0
  3

 72
    65
 73
     0
 40
0.0
  0
LTYPE
  5
15
330
5
100
AcDbSymbolTableRecord
100
AcDbLinetypeTableRecord
  2
ByLayer
 70
     0
  3

 72
    65
 73
     0
 40
0.0
  0
LTYPE
  5
16
330
5
100
AcDbSymbolTableRecord
100
AcDbLinetypeTableRecord
  2
Continuous
 70
     0
  3
Solid line
 72
    65
 73
     0
 40
0.0
  0
LTYPE
  5
2A
330
5
100
AcDbSymbolTableRecord
100
AcDbLinetypeTableRecord
  2
HIDDEN
 70
     0
  3
Hidden __ __ __ __ __ __ __ __ __ __ __ __ __ __
 72
    65
 73
     2
 40
0.075
 49
0.05
 74
     0
 49
-0.025
 74
     0
  0
LTYPE
  5
2B
330
5
100
AcDbSymbolTableRecord
100
AcDbLinetypeTableRecord
  2
PHANTOM
 70
     0
  3
Phantom ______  __  __  ______  __  __  ______
 72
    65
 73
     6
 40
0.5
 49
0.25
 74
     0
 49
-0.05
 74
     0
 49
0.05
 74
     0
 49
-0.05
 74
     0
 49
0.05
 74
     0
 49
-0.05
 74
     0
  0
LTYPE
  5
2C
330
5
100
AcDbSymbolTableRecord
100
AcDbLinetypeTableRecord
  2
CENTER
 70
     0
  3
Center ____ _ ____ _ ____ _ ____ _ ____ _ ____
 72
    65
 73
     4
 40
0.4
 49
0.25
 74
     0
 49
-0.05
 74
     0
 49
0.05
 74
     0
 49
-0.05
 74
     0
  0
LTYPE
  5
2D
330
5
100
AcDbSymbolTableRecord
100
AcDbLinetypeTableRecord
  2
CENTERX2
 70
     0
  3
Center (2x) ________  __  ________  __  _____
 72
    65
 73
     4
 40
0.8
 49
0.5
 74
     0
 49
-0.1
 74
     0
 49
0.1
 74
     0
 49
-0.1
 74
     0
  0
LTYPE
  5
2E
330
5
100
AcDbSymbolTableRecord
100
AcDbLinetypeTableRecord
  2
DOT2
 70
     0
  3
Dot (.5x) ........................................
 72
    65
 73
     2
 40
0.025
 49
0.0
 74
     0
 49
-0.025
 74
     0
  0
ENDTAB
  0
TABLE
  2
LAYER
  5
2
330
0
100
AcDbSymbolTable
 70
    22
  0
LAYER
  5
10
330
2
100
AcDbSymbolTableRecord
100
AcDbLayerTableRecord
  2
0
 70
     0
 62
     7
  6
Continuous
370
    -3
390
F
  0
LAYER
  5
2F
330
2
100
AcDbSymbolTableRecord
100
AcDbLayerTableRecord
  2
SLD-0
 70
     0
 62
   179
  6
Continuous
370
    -3
390
F
  0
LAYER
  5
30
330
2
100
AcDbSymbolTableRecord
100
AcDbLayerTableRecord
  2
DIM
 70
     0
 62
     3
  6
Continuous
370
    -3
390
F
  0
LAYER
  5
31
330
2
100
AcDbSymbolTableRecord
100
AcDbLayerTableRecord
  2
BORDER
 70
     0
 62
   179
  6
Continuous
370
    -3
390
F
  0
LAYER
  5
32
330
2
100
AcDbSymbolTableRecord
100
AcDbLayerTableRecord
  2
SLD-DEFPOINTS
 70
     0
 62
   179
  6
Continuous
370
    -3
390
F
  0
LAYER
  5
33
330
2
100
AcDbSymbolTableRecord
100
AcDbLayerTableRecord
  2
OBJ
 70
     0
 62
   179
  6
Continuous
370
    -3
390
F
  0
LAYER
  5
34
330
2
100
AcDbSymbolTableRecord
100
AcDbLayerTableRecord
  2
FORMAT
 70
     0
 62
     7
  6
Continuous
370
    -3
390
F
  0
LAYER
  5
35
330
2
100
AcDbSymbolTableRecord
100
AcDbLayerTableRecord
  2
REV-1
 70
     0
 62
    -7
  6
Continuous
370
    -3
390
F
  0
LAYER
  5
36
330
2
100
AcDbSymbolTableRecord
100
AcDbLayerTableRecord
  2
REV-2
 70
     0
 62
    -7
  6
Continuous
370
    -3
390
F
  0
LAYER
  5
37
330
2
100
AcDbSymbolTableRecord
100
AcDbLayerTableRecord
  2
REV-3
 70
     0
 62
    -7
  6
Continuous
370
    -3
390
F
  0
LAYER
  5
38
330
2
100
AcDbSymbolTableRecord
100
AcDbLayerTableRecord
  2
PAINT
 70
     0
 62
    -7
  6
Continuous
370
    -3
390
F
  0
LAYER
  5
39
330
2
100
AcDbSymbolTableRecord
100
AcDbLayerTableRecord
  2
STAMP-AREA
 70
     0
 62
    -7
  6
Continuous
370
    -3
390
F
  0
LAYER
  5
3A
330
2
100
AcDbSymbolTableRecord
100
AcDbLayerTableRecord
  2
TOLERANCES
 70
     0
 62
     7
  6
Continuous
370
    -3
390
F
  0
LAYER
  5
3B
330
2
100
AcDbSymbolTableRecord
100
AcDbLayerTableRecord
  2
BLANK-SIZE-1
 70
     0
 62
    -7
  6
Continuous
370
    -3
390
F
  0
LAYER
  5
3C
330
2
100
AcDbSymbolTableRecord
100
AcDbLayerTableRecord
  2
BLANK-SIZE-2
 70
     0
 62
    -7
  6
Continuous
370
    -3
390
F
  0
LAYER
  5
3D
330
2
100
AcDbSymbolTableRecord
100
AcDbLayerTableRecord
  2
BLANK-SIZE-3
 70
     0
 62
    -7
  6
Continuous
370
    -3
390
F
  0
LAYER
  5
3E
330
2
100
AcDbSymbolTableRecord
100
AcDbLayerTableRecord
  2
BLANK-SIZE-4
 70
     0
 62
    -7
  6
Continuous
370
    -3
390
F
  0
LAYER
  5
3F
330
2
100
AcDbSymbolTableRecord
100
AcDbLayerTableRecord
  2
BLANK-SIZE-5
 70
     0
 62
    -7
  6
Continuous
370
    -3
390
F
  0
LAYER
  5
40
330
2
100
AcDbSymbolTableRecord
100
AcDbLayerTableRecord
  2
HDG
 70
     0
 62
    -7
  6
Continuous
370
    -3
390
F
  0
LAYER
  5
41
330
2
100
AcDbSymbolTableRecord
100
AcDbLayerTableRecord
  2
FAX-NOTE
 70
     0
 62
    -7
  6
Continuous
370
    -3
390
F
  0
LAYER
  5
42
330
2
100
AcDbSymbolTableRecord
100
AcDbLayerTableRecord
  2
TOP_MOUNT_PAINT
 70
     0
 62
    -7
  6
Continuous
370
    -3
390
F
  0
LAYER
  5
43
330
2
100
AcDbSymbolTableRecord
100
AcDbLayerTableRecord
  2
QTY-BLANK-SIZE-1
 70
     0
 62
     7
  6
Continuous
370
    -3
390
F
  0
ENDTAB
  0
TABLE
  2
STYLE
  5
3
330
0
100
AcDbSymbolTable
 70
     4
  0
STYLE
  5
11
330
3
100
AcDbSymbolTableRecord
100
AcDbTextStyleTableRecord
  2
Standard
 70
     0
 40
0.0
 41
1.0
 50
0.0
 71
     0
 42
0.2
  3
txt
  4

  0
STYLE
  5
80
330
3
100
AcDbSymbolTableRecord
100
AcDbTextStyleTableRecord
  2
SLDTEXTSTYLE0
 70
     0
 40
0.0
 41
0.5584615385000001
 50
0.0
 71
     0
 42
0.2
  3
TXT
  4

  0
STYLE
  5
9D
330
3
100
AcDbSymbolTableRecord
100
AcDbTextStyleTableRecord
  2
SLDTEXTSTYLE1
 70
     0
 40
0.0
 41
0.55
 50
0.0
 71
     0
 42
0.2
  3
TXT
  4

  0
STYLE
  5
AB
330
3
100
AcDbSymbolTableRecord
100
AcDbTextStyleTableRecord
  2
SLDTEXTSTYLE2
 70
     0
 40
0.0
 41
0.5545833333
 50
0.0
 71
     0
 42
0.2
  3
TXT
  4

  0
ENDTAB
  0
TABLE
  2
VIEW
  5
6
330
0
100
AcDbSymbolTable
 70
     0
  0
ENDTAB
  0
TABLE
  2
UCS
  5
7
330
0
100
AcDbSymbolTable
 70
     0
  0
ENDTAB
  0
TABLE
  2
APPID
  5
9
330
0
100
AcDbSymbolTable
 70
     1
  0
APPID
  5
12
330
9
100
AcDbSymbolTableRecord
100
AcDbRegAppTableRecord
  2
ACAD
 70
     0
  0
ENDTAB
  0
TABLE
  2
DIMSTYLE
  5
A
330
0
100
AcDbSymbolTable
 70
     1
100
AcDbDimStyleTable
 71
     0
  0
DIMSTYLE
105
27
330
A
100
AcDbSymbolTableRecord
100
AcDbDimStyleTableRecord
  2
Standard
 70
     0
340
11
  0
ENDTAB
  0
TABLE
  2
BLOCK_RECORD
  5
1
330
0
100
AcDbSymbolTable
 70
     1
  0
BLOCK_RECORD
  5
1F
330
1
100
AcDbSymbolTableRecord
100
AcDbBlockTableRecord
  2
*Model_Space
340
22
  0
BLOCK_RECORD
  5
1B
330
1
100
AcDbSymbolTableRecord
100
AcDbBlockTableRecord
  2
*Paper_Space
340
1E
  0
BLOCK_RECORD
  5
23
330
1
100
AcDbSymbolTableRecord
100
AcDbBlockTableRecord
  2
*Paper_Space0
340
26
  0
ENDTAB
  0
ENDSEC
  0
SECTION
  2
BLOCKS
  0
BLOCK
  5
20
330
1F
100
AcDbEntity
  8
0
100
AcDbBlockBegin
  2
*Model_Space
 70
     0
 10
0.0
 20
0.0
 30
0.0
  3
*Model_Space
  1

  0
ENDBLK
  5
21
330
1F
100
AcDbEntity
  8
0
100
AcDbBlockEnd
  0
BLOCK
  5
1C
330
1B
100
AcDbEntity
 67
     1
  8
0
100
AcDbBlockBegin
  2
*Paper_Space
 70
     0
 10
0.0
 20
0.0
 30
0.0
  3
*Paper_Space
  1

  0
ENDBLK
  5
1D
330
1B
100
AcDbEntity
 67
     1
  8
0
100
AcDbBlockEnd
  0
BLOCK
  5
24
330
23
100
AcDbEntity
  8
0
100
AcDbBlockBegin
  2
*Paper_Space0
 70
     0
 10
0.0
 20
0.0
 30
0.0
  3
*Paper_Space0
  1

  0
ENDBLK
  5
25
330
23
100
AcDbEntity
  8
0
100
AcDbBlockEnd
  0
ENDSEC
  0
SECTION
  2
ENTITIES
  0
LINE
  5
44
330
1F
100
AcDbEntity
  8
0
  6
Continuous
 62
     7
370
    15
100
AcDbLine
 10
1.89409298837664
 20
0.3247389949999999
 30
0.0
 11
1.89409298837664
 21
0.3622389990999999
 31
0.0
  0
LINE
  5
45
330
1F
100
AcDbEntity
  8
0
  6
Continuous
 62
     7
370
    15
100
AcDbLine
 10
1.644092981276641
 20
0.3622389990999999
 30
0.0
 11
1.89409298837664
 21
0.3622389990999999
 31
0.0
  0
LINE
  5
46
330
1F
100
AcDbEntity
  8
0
  6
Continuous
 62
     7
370
    15
100
AcDbLine
 10
1.644092981276641
 20
0.3247389949999999
 30
0.0
 11
1.89409298837664
 21
0.3247389949999999
 31
0.0
  0
LINE
  5
47
330
1F
100
AcDbEntity
  8
0
  6
Continuous
 62
     7
370
    15
100
AcDbLine
 10
1.644092981276641
 20
0.3247389949999999
 30
0.0
 11
1.644092981276641
 21
0.3622389990999999
 31
0.0
  0
LINE
  5
48
330
1F
100
AcDbEntity
  8
0
  6
Continuous
 62
     7
370
    15
100
AcDbLine
 10
1.644092981276641
 20
1.5067851052
 30
0.0
 11
1.644092981276641
 21
0.4372390074000001
 31
0.0
  0
LINE
  5
49
330
1F
100
AcDbEntity
  8
0
  6
Continuous
 62
     7
370
    15
100
AcDbLine
 10
1.630642981976641
 20
0.4372390074000001
 30
0.0
 11
1.644092981276641
 21
0.4372390074000001
 31
0.0
  0
SPLINE
  5
4A
330
1F
100
AcDbEntity
  8
0
  6
Continuous
 62
     7
370
    15
100
AcDbSpline
210
0.0
220
0.0
230
1.0
 70
    24
 71
     1
 72
     4
 73
     2
 74
     0
 42
0.0000000001
 43
0.0000000001
 40
0.0
 40
0.0
 40
1.0
 40
1.0
 10
1.63064298202594
 20
1.506785105243551
 30
0.0
 10
1.644092981317067
 20
1.506785105243551
 30
0.0
  0
LINE
  5
4B
330
1F
100
AcDbEntity
  8
0
  6
Continuous
 62
     7
370
    15
100
AcDbLine
 10
1.630642981976641
 20
1.5067851052
 30
0.0
 11
1.630642981976641
 21
0.4372390074000001
 31
0.0
  0
LINE
  5
4C
330
1F
100
AcDbEntity
  8
0
  6
Continuous
 62
     7
370
    15
100
AcDbLine
 10
1.90754298857664
 20
0.4372390074000001
 30
0.0
 11
1.90754298857664
 21
1.5067851052
 31
0.0
  0
LINE
  5
4D
330
1F
100
AcDbEntity
  8
0
  6
Continuous
 62
     7
370
    15
100
AcDbLine
 10
1.90754298857664
 20
0.4372390074000001
 30
0.0
 11
1.89409298837664
 21
0.4372390074000001
 31
0.0
  0
LINE
  5
4E
330
1F
100
AcDbEntity
  8
0
  6
Continuous
 62
     7
370
    15
100
AcDbLine
 10
1.89409298837664
 20
0.4372390074000001
 30
0.0
 11
1.89409298837664
 21
1.5067851052
 31
0.0
  0
SPLINE
  5
4F
330
1F
100
AcDbEntity
  8
0
  6
Continuous
 62
     7
370
    15
100
AcDbSpline
210
0.0
220
0.0
230
1.0
 70
    24
 71
     1
 72
     4
 73
     2
 74
     0
 42
0.0000000001
 43
0.0000000001
 40
0.0
 40
0.0
 40
1.0
 40
1.0
 10
1.894092988378985
 20
1.506785105243551
 30
0.0
 10
1.907542988586769
 20
1.506785105243551
 30
0.0
  0
LINE
  5
50
330
1F
100
AcDbEntity
  8
0
  6
Continuous
 62
     7
370
    15
100
AcDbLine
 10
1.630642981976641
 20
0.2872391082000001
 30
0.0
 11
1.644092981276641
 21
0.2872391082000001
 31
0.0
  0
LINE
  5
51
330
1F
100
AcDbEntity
  8
0
  6
Continuous
 62
     7
370
    15
100
AcDbLine
 10
1.644092981276641
 20
0.4372390074000001
 30
0.0
 11
1.644092981276641
 21
0.2872391082000001
 31
0.0
  0
LINE
  5
52
330
1F
100
AcDbEntity
  8
0
  6
Continuous
 62
     7
370
    15
100
AcDbLine
 10
1.630642981976641
 20
0.4372390074000001
 30
0.0
 11
1.630642981976641
 21
0.2872391082000001
 31
0.0
  0
LINE
  5
53
330
1F
100
AcDbEntity
  8
0
  6
Continuous
 62
     7
370
    15
100
AcDbLine
 10
1.90754298857664
 20
0.2872391082000001
 30
0.0
 11
1.89409298837664
 21
0.2872391082000001
 31
0.0
  0
LINE
  5
54
330
1F
100
AcDbEntity
  8
0
  6
Continuous
 62
     7
370
    15
100
AcDbLine
 10
1.89409298837664
 20
0.2872391082000001
 30
0.0
 11
1.89409298837664
 21
0.4372390074000001
 31
0.0
  0
LINE
  5
55
330
1F
100
AcDbEntity
  8
0
  6
Continuous
 62
     7
370
    15
100
AcDbLine
 10
1.90754298857664
 20
0.2872391082000001
 30
0.0
 11
1.90754298857664
 21
0.4372390074000001
 31
0.0
  0
SPLINE
  5
56
330
1F
100
AcDbEntity
  8
0
  6
Continuous
 62
     7
370
    15
100
AcDbSpline
210
0.0
220
0.0
230
1.0
 70
     8
 71
     3
 72
    19
 73
    15
 74
     0
 42
0.0000000001
 43
0.0000000001
 40
0.0
 40
0.0
 40
0.0
 40
0.0
 40
0.0823899938792257
 40
0.1661716114080383
 40
0.251348936509975
 40
0.3219466345610697
 40
0.4048279594900074
 40
0.5000003031060942
 40
0.609468183604832
 40
0.6923497056869916
 40
0.7486541184137236
 40
0.8317946514282724
 40
0.9155763247442472
 40
1.0
 40
1.0
 40
1.0
 40
1.0
 10
1.63064298202594
 20
1.506785105243551
 30
0.0
 10
1.630684010826835
 20
1.509655847486436
 30
0.0
 10
1.630766761433286
 20
1.515445820782664
 30
0.0
 10
1.631417830714602
 20
1.524236679570403
 30
0.0
 10
1.632384695344856
 20
1.532630369816702
 30
0.0
 10
1.633651192854782
 20
1.541030212978905
 30
0.0
 10
1.63522868083447
 20
1.549820851970995
 30
0.0
 10
1.637367971030094
 20
1.560018893753808
 30
0.0
 10
1.639877394142283
 20
1.5702183962875
 30
0.0
 10
1.642364667970373
 20
1.579016069762813
 30
0.0
 10
1.644874443123789
 20
1.586824534828134
 30
0.0
 10
1.647697297095385
 20
1.594601413805974
 30
0.0
 10
1.6509776803377
 20
1.603394085335223
 30
0.0
 10
1.653268540238847
 20
1.609283228620938
 30
0.0
 10
1.654418342037619
 20
1.612239039030708
 30
0.0
  0
LINE
  5
57
330
1F
100
AcDbEntity
  8
0
  6
Continuous
 62
     7
370
    15
100
AcDbLine
 10
1.654418342076641
 20
1.612239039
 30
0.0
 11
1.654418342076641
 21
1.674739055699999
 31
0.0
  0
SPLINE
  5
58
330
1F
100
AcDbEntity
  8
0
  6
Continuous
 62
     7
370
    15
100
AcDbSpline
210
0.0
220
0.0
230
1.0
 70
    24
 71
     1
 72
     4
 73
     2
 74
     0
 42
0.0000000001
 43
0.0000000001
 40
0.0
 40
0.0
 40
1.0
 40
1.0
 10
1.65736660131241
 20
1.612239039030708
 30
0.0
 10
1.654418342037619
 20
1.612239039030708
 30
0.0
  0
SPLINE
  5
59
330
1F
100
AcDbEntity
  8
0
  6
Continuous
 62
     7
370
    15
100
AcDbSpline
210
0.0
220
0.0
230
1.0
 70
     8
 71
     3
 72
    17
 73
    13
 74
     0
 42
0.0000000001
 43
0.0000000001
 40
0.0
 40
0.0
 40
0.0
 40
0.0
 40
0.1104939543102653
 40
0.2237666879619543
 40
0.323584393500818
 40
0.4388092655799647
 40
0.5819734154316402
 40
0.6769722693344674
 40
0.7419626687822482
 40
0.8230094806690026
 40
0.9111099324835414
 40
1.0
 40
1.0
 40
1.0
 40
1.0
 10
1.644092981317067
 20
1.506785105243551
 30
0.0
 10
1.644134550539438
 20
1.510657907605775
 30
0.0
 10
1.644218734396096
 20
1.518500908276138
 30
0.0
 10
1.64484697984719
 20
1.529860143748375
 30
0.0
 10
1.645785041614511
 20
1.541401370167981
 30
0.0
 10
1.647099964074887
 20
1.554022276822833
 30
0.0
 10
1.648693243584339
 20
1.566487677846764
 30
0.0
 10
1.650330438577515
 20
1.577169534979154
 30
0.0
 10
1.651805141817468
 20
1.58564720575246
 30
0.0
 10
1.653461422147058
 20
1.593850598780494
 30
0.0
 10
1.655339920463545
 20
1.60290598640174
 30
0.0
 10
1.656689034741544
 20
1.609118782346456
 30
0.0
 10
1.65736660131241
 20
1.612239039030708
 30
0.0
  0
LINE
  5
5A
330
1F
100
AcDbEntity
  8
0
  6
Continuous
 62
     7
370
    15
100
AcDbLine
 10
1.661092976976641
 20
0.2872391082000001
 30
0.0
 11
1.644092981276641
 21
0.2872391082000001
 31
0.0
  0
LINE
  5
5B
330
1F
100
AcDbEntity
  8
0
  6
Continuous
 62
     7
370
    15
100
AcDbLine
 10
1.657366601276641
 20
1.612239039
 30
0.0
 11
1.657366601276641
 21
1.674739055699999
 31
0.0
  0
LINE
  5
5C
330
1F
100
AcDbEntity
  8
0
  6
Continuous
 62
     7
370
    15
100
AcDbLine
 10
1.661092976976641
 20
1.674739055699999
 30
0.0
 11
1.657366601276641
 21
1.674739055699999
 31
0.0
  0
SPLINE
  5
5D
330
1F
100
AcDbEntity
  8
0
  6
Continuous
 62
     7
370
    15
100
AcDbSpline
210
0.0
220
0.0
230
1.0
 70
     8
 71
     3
 72
    19
 73
    15
 74
     0
 42
0.0000000001
 43
0.0000000001
 40
0.0
 40
0.0
 40
0.0
 40
0.0
 40
0.0823899902953262
 40
0.1661716137996902
 40
0.2513489290534193
 40
0.3219466276259073
 40
0.4048279490162264
 40
0.5000002805550201
 40
0.6094744803274301
 40
0.6923558023890389
 40
0.7486540800699739
 40
0.8317932391365358
 40
0.9155751041939291
 40
1.0
 40
1.0
 40
1.0
 40
1.0
 10
1.883767628575089
 20
1.612239039030708
 30
0.0
 10
1.884922521291766
 20
1.609368296653105
 30
0.0
 10
1.887251813792076
 20
1.603578322749973
 30
0.0
 10
1.890533228145333
 20
1.594787465914494
 30
0.0
 10
1.893458898263341
 20
1.586393773664831
 30
0.0
 10
1.896100359763727
 20
1.577993931697846
 30
0.0
 10
1.898563664729341
 20
1.56920329231912
 30
0.0
 10
1.901048554139704
 20
1.559005027681696
 30
0.0
 10
1.90315956241564
 20
1.548805298205238
 30
0.0
 10
1.904677608061496
 20
1.540007643748396
 30
0.0
 10
1.905849702519991
 20
1.532199434097921
 30
0.0
 10
1.906781679717343
 20
1.52442286667324
 30
0.0
 10
1.907422627680353
 20
1.515630168071498
 30
0.0
 10
1.907502766215587
 20
1.509740964051953
 30
0.0
 10
1.907542988662368
 20
1.506785105243551
 30
0.0
  0
LINE
  5
5E
330
1F
100
AcDbEntity
  8
0
  6
Continuous
 62
     7
370
    15
100
AcDbLine
 10
1.883767628576641
 20
1.674739055699999
 30
0.0
 11
1.883767628576641
 21
1.612239039
 31
0.0
  0
SPLINE
  5
5F
330
1F
100
AcDbEntity
  8
0
  6
Continuous
 62
     7
370
    15
100
AcDbSpline
210
0.0
220
0.0
230
1.0
 70
     8
 71
     3
 72
    17
 73
    13
 74
     0
 42
0.0000000001
 43
0.0000000001
 40
0.0
 40
0.0
 40
0.0
 40
0.0
 40
0.1104939574900059
 40
0.2237666860104875
 40
0.3235844112106618
 40
0.4388092756556
 40
0.5819786975563807
 40
0.6769791964980337
 40
0.741964320027862
 40
0.8230081814230425
 40
0.911108377628328
 40
1.0
 40
1.0
 40
1.0
 40
1.0
 10
1.880819389466732
 20
1.612239039030708
 30
0.0
 10
1.881684583781826
 20
1.60836623683777
 30
0.0
 10
1.883436730858836
 20
1.60052323680434
 30
0.0
 10
1.885721782067968
 20
1.589163998521758
 30
0.0
 10
1.887792880336243
 20
1.577622776314969
 30
0.0
 10
1.889707050892725
 20
1.565001680312615
 30
0.0
 10
1.89125051245907
 20
1.55253603812286
 30
0.0
 10
1.89233041337792
 20
1.541854119797204
 30
0.0
 10
1.893055963967059
 20
1.53337667853081
 30
0.0
 10
1.893629765665712
 20
1.525173600901414
 30
0.0
 10
1.894017971277783
 20
1.516118273152577
 30
0.0
 10
1.894067908246851
 20
1.50990542155336
 30
0.0
 10
1.894092988378985
 20
1.506785105243551
 30
0.0
  0
SPLINE
  5
60
330
1F
100
AcDbEntity
  8
0
  6
Continuous
 62
     7
370
    15
100
AcDbSpline
210
0.0
220
0.0
230
1.0
 70
    24
 71
     1
 72
     4
 73
     2
 74
     0
 42
0.0000000001
 43
0.0000000001
 40
0.0
 40
0.0
 40
1.0
 40
1.0
 10
1.880819389466732
 20
1.612239039030708
 30
0.0
 10
1.883767628575089
 20
1.612239039030708
 30
0.0
  0
LINE
  5
61
330
1F
100
AcDbEntity
  8
0
  6
Continuous
 62
     7
370
    15
100
AcDbLine
 10
1.880819389476641
 20
1.674739055699999
 30
0.0
 11
1.880819389476641
 21
1.612239039
 31
0.0
  0
LINE
  5
62
330
1F
100
AcDbEntity
  8
0
  6
Continuous
 62
     7
370
    15
100
AcDbLine
 10
1.89409298837664
 20
0.2872391082000001
 30
0.0
 11
1.877092988176641
 21
0.2872391082000001
 31
0.0
  0
LINE
  5
63
330
1F
100
AcDbEntity
  8
0
  6
Continuous
 62
     7
370
    15
100
AcDbLine
 10
1.880819389476641
 20
1.674739055699999
 30
0.0
 11
1.877092988176641
 21
1.674739055699999
 31
0.0
  0
LINE
  5
64
330
1F
100
AcDbEntity
  8
0
  6
Continuous
 62
     7
370
    15
100
AcDbLine
 10
1.654418342076641
 20
1.674739055699999
 30
0.0
 11
1.657366601276641
 21
1.674739055699999
 31
0.0
  0
LINE
  5
65
330
1F
100
AcDbEntity
  8
0
  6
Continuous
 62
     7
370
    15
100
AcDbLine
 10
1.883767628576641
 20
1.674739055699999
 30
0.0
 11
1.880819389476641
 21
1.674739055699999
 31
0.0
  0
LINE
  5
66
330
1F
100
AcDbEntity
  8
0
  6
Continuous
 62
     7
370
    15
100
AcDbLine
 10
1.661092976976641
 20
0.2872391082000001
 30
0.0
 11
1.877092988176641
 21
0.2872391082000001
 31
0.0
  0
CIRCLE
  5
67
330
1F
100
AcDbEntity
  8
0
  6
Continuous
 62
     7
370
    15
100
AcDbCircle
 10
1.84409298857664
 20
1.6122390511
 30
0.0
 40
0.0097499999999997
  0
CIRCLE
  5
68
330
1F
100
AcDbEntity
  8
0
  6
Continuous
 62
     7
370
    15
100
AcDbCircle
 10
1.84409298857664
 20
1.4872390511
 30
0.0
 40
0.0097500000000001
  0
CIRCLE
  5
69
330
1F
100
AcDbEntity
  8
0
  6
Continuous
 62
     7
370
    15
100
AcDbCircle
 10
1.84409298857664
 20
1.3622390511
 30
0.0
 40
0.0097499999999999
  0
CIRCLE
  5
6A
330
1F
100
AcDbEntity
  8
0
  6
Continuous
 62
     7
370
    15
100
AcDbCircle
 10
1.84409298857664
 20
1.237239051099998
 30
0.0
 40
0.0097499999999999
  0
CIRCLE
  5
6B
330
1F
100
AcDbEntity
  8
0
  6
Continuous
 62
     7
370
    15
100
AcDbCircle
 10
1.84409298857664
 20
1.112239051099998
 30
0.0
 40
0.0097500000000001
  0
CIRCLE
  5
6C
330
1F
100
AcDbEntity
  8
0
  6
Continuous
 62
     7
370
    15
100
AcDbCircle
 10
1.84409298857664
 20
0.9872390510999997
 30
0.0
 40
0.00975
  0
CIRCLE
  5
6D
330
1F
100
AcDbEntity
  8
0
  6
Continuous
 62
     7
370
    15
100
AcDbCircle
 10
1.84409298857664
 20
0.8622390510999997
 30
0.0
 40
0.00975
  0
CIRCLE
  5
6E
330
1F
100
AcDbEntity
  8
0
  6
Continuous
 62
     7
370
    15
100
AcDbCircle
 10
1.84409298857664
 20
0.7372390511
 30
0.0
 40
0.0097500000000001
  0
CIRCLE
  5
6F
330
1F
100
AcDbEntity
  8
0
  6
Continuous
 62
     7
370
    15
100
AcDbCircle
 10
1.76909298857664
 20
1.5497390511
 30
0.0
 40
0.0097499999999999
  0
CIRCLE
  5
70
330
1F
100
AcDbEntity
  8
0
  6
Continuous
 62
     7
370
    15
100
AcDbCircle
 10
1.76909298857664
 20
1.4247390511
 30
0.0
 40
0.0097500000000001
  0
CIRCLE
  5
71
330
1F
100
AcDbEntity
  8
0
  6
Continuous
 62
     7
370
    15
100
AcDbCircle
 10
1.76909298857664
 20
1.299739051099998
 30
0.0
 40
0.0097499999999997
  0
CIRCLE
  5
72
330
1F
100
AcDbEntity
  8
0
  6
Continuous
 62
     7
370
    15
100
AcDbCircle
 10
1.76909298857664
 20
1.174739051099998
 30
0.0
 40
0.0097500000000001
  0
CIRCLE
  5
73
330
1F
100
AcDbEntity
  8
0
  6
Continuous
 62
     7
370
    15
100
AcDbCircle
 10
1.76909298857664
 20
1.049739051099998
 30
0.0
 40
0.0097499999999999
  0
CIRCLE
  5
74
330
1F
100
AcDbEntity
  8
0
  6
Continuous
 62
     7
370
    15
100
AcDbCircle
 10
1.76909298857664
 20
0.9247390510999997
 30
0.0
 40
0.0097500000000001
  0
CIRCLE
  5
75
330
1F
100
AcDbEntity
  8
0
  6
Continuous
 62
     7
370
    15
100
AcDbCircle
 10
1.76909298857664
 20
0.7997390511
 30
0.0
 40
0.00975
  0
CIRCLE
  5
76
330
1F
100
AcDbEntity
  8
0
  6
Continuous
 62
     7
370
    15
100
AcDbCircle
 10
1.76909298857664
 20
0.6747390511
 30
0.0
 40
0.00975
  0
CIRCLE
  5
77
330
1F
100
AcDbEntity
  8
0
  6
Continuous
 62
     7
370
    15
100
AcDbCircle
 10
1.694092988576641
 20
1.6122390511
 30
0.0
 40
0.0097499999999997
  0
CIRCLE
  5
78
330
1F
100
AcDbEntity
  8
0
  6
Continuous
 62
     7
370
    15
100
AcDbCircle
 10
1.694092988576641
 20
1.4872390511
 30
0.0
 40
0.0097500000000001
  0
CIRCLE
  5
79
330
1F
100
AcDbEntity
  8
0
  6
Continuous
 62
     7
370
    15
100
AcDbCircle
 10
1.694092988576641
 20
1.3622390511
 30
0.0
 40
0.0097499999999999
  0
CIRCLE
  5
7A
330
1F
100
AcDbEntity
  8
0
  6
Continuous
 62
     7
370
    15
100
AcDbCircle
 10
1.694092988576641
 20
1.237239051099998
 30
0.0
 40
0.0097499999999999
  0
CIRCLE
  5
7B
330
1F
100
AcDbEntity
  8
0
  6
Continuous
 62
     7
370
    15
100
AcDbCircle
 10
1.694092988576641
 20
1.112239051099998
 30
0.0
 40
0.0097500000000001
  0
CIRCLE
  5
7C
330
1F
100
AcDbEntity
  8
0
  6
Continuous
 62
     7
370
    15
100
AcDbCircle
 10
1.694092988576641
 20
0.9872390510999997
 30
0.0
 40
0.00975
  0
CIRCLE
  5
7D
330
1F
100
AcDbEntity
  8
0
  6
Continuous
 62
     7
370
    15
100
AcDbCircle
 10
1.694092988576641
 20
0.8622390510999997
 30
0.0
 40
0.00975
  0
CIRCLE
  5
7E
330
1F
100
AcDbEntity
  8
0
  6
Continuous
 62
     7
370
    15
100
AcDbCircle
 10
1.694092988576641
 20
0.7372390511
 30
0.0
 40
0.0097500000000001
  0
LINE
  5
7F
330
1F
100
AcDbEntity
  8
0
  6
Continuous
 62
     7
370
    15
100
AcDbLine
 10
1.661092976976641
 20
1.674739055699999
 30
0.0
 11
1.877092988176641
 21
1.674739055699999
 31
0.0
  0
MTEXT
  5
81
330
1F
100
AcDbEntity
  8
0
100
AcDbMText
 10
1.418644555576641
 20
0.139610502
 30
0.0
 40
0.0625
 41
0.0
 71
     1
 72
     1
  1
TD8S-FRONT-VIEW
  7
SLDTEXTSTYLE0
 73
     1
 44
1.0
1001
ACAD
1000
MTEXTBEGIN
1070
    73
1070
     1
1070
    44
1040
1.0
1070
    74
1070
     0
1000
MTEXTEND
  0
LINE
  5
82
330
1F
100
AcDbEntity
  8
0
  6
Continuous
 62
     7
370
    15
100
AcDbLine
 10
1.644092981276641
 20
2.3578337497
 30
0.0
 11
1.89409298837664
 21
2.3578337497
 31
0.0
  0
LINE
  5
83
330
1F
100
AcDbEntity
  8
0
  6
Continuous
 62
     7
370
    15
100
AcDbLine
 10
1.669092993876641
 20
2.6535984211
 30
0.0
 11
1.644092981276641
 21
2.628598421299999
 31
0.0
  0
LINE
  5
84
330
1F
100
AcDbEntity
  8
0
  6
Continuous
 62
     7
370
    15
100
AcDbLine
 10
1.722217994776641
 20
2.488923415399999
 30
0.0
 11
1.722217994776641
 21
2.5201734237
 31
0.0
  0
ARC
  5
85
330
1F
100
AcDbEntity
  8
0
  6
Continuous
 62
     7
370
    15
100
AcDbCircle
 10
1.76909298857664
 20
2.488923421099999
 30
0.0
 40
0.0468750000000002
100
AcDbArc
 50
180.0
 51
0.0
  0
LINE
  5
86
330
1F
100
AcDbEntity
  8
0
  6
Continuous
 62
     7
370
    15
100
AcDbLine
 10
1.81596799047664
 20
2.5201734237
 30
0.0
 11
1.81596799047664
 21
2.488923415399999
 31
0.0
  0
ARC
  5
87
330
1F
100
AcDbEntity
  8
0
  6
Continuous
 62
     7
370
    15
100
AcDbCircle
 10
1.76909298857664
 20
2.520173421099999
 30
0.0
 40
0.0468750000000002
100
AcDbArc
 50
0.0
 51
179.9999999973
  0
LINE
  5
88
330
1F
100
AcDbEntity
  8
0
  6
Continuous
 62
     7
370
    15
100
AcDbLine
 10
1.89409298837664
 20
2.628598421299999
 30
0.0
 11
1.86909298777664
 21
2.6535984211
 31
0.0
  0
ARC
  5
89
330
1F
100
AcDbEntity
  8
0
  6
Continuous
 62
     7
370
    15
100
AcDbCircle
 10
1.661092988576641
 20
2.636598420999999
 30
0.0
 40
0.0170000000755988
100
AcDbArc
 50
90.0
 51
102.6620507211
  0
LINE
  5
8A
330
1F
100
AcDbEntity
  8
0
  6
Continuous
 62
     7
370
    15
100
AcDbLine
 10
1.654418342076641
 20
2.666307875
 30
0.0
 11
1.657366601276641
 21
2.653184980099998
 31
0.0
  0
ARC
  5
8B
330
1F
100
AcDbEntity
  8
0
  6
Continuous
 62
     7
370
    15
100
AcDbCircle
 10
1.661092988576641
 20
2.636598420999999
 30
0.0
 40
0.0304500000755992
100
AcDbArc
 50
90.0
 51
102.6620507211
  0
LINE
  5
8C
330
1F
100
AcDbEntity
  8
0
  6
Continuous
 62
     7
370
    15
100
AcDbLine
 10
1.661092976976641
 20
2.6670484212
 30
0.0
 11
1.877092988176641
 21
2.6670484212
 31
0.0
  0
LINE
  5
8D
330
1F
100
AcDbEntity
  8
0
  6
Continuous
 62
     7
370
    15
100
AcDbLine
 10
1.661092976976641
 20
2.653598420999998
 30
0.0
 11
1.877092988176641
 21
2.653598420999998
 31
0.0
  0
ARC
  5
8E
330
1F
100
AcDbEntity
  8
0
  6
Continuous
 62
     7
370
    15
100
AcDbCircle
 10
1.877092988576641
 20
2.636598420999999
 30
0.0
 40
0.0170000000755993
100
AcDbArc
 50
77.3379492785
 51
90.0
  0
ARC
  5
8F
330
1F
100
AcDbEntity
  8
0
  6
Continuous
 62
     7
370
    15
100
AcDbCircle
 10
1.877092988576641
 20
2.636598420999999
 30
0.0
 40
0.0304500000755992
100
AcDbArc
 50
77.3379492785
 51
90.0
  0
LINE
  5
90
330
1F
100
AcDbEntity
  8
0
  6
Continuous
 62
     7
370
    15
100
AcDbLine
 10
1.883767628576641
 20
2.666307875
 30
0.0
 11
1.880819389476641
 21
2.653184980099998
 31
0.0
  0
SPLINE
  5
91
330
1F
100
AcDbEntity
  8
0
  6
Continuous
 62
     7
370
    15
100
AcDbSpline
210
0.0
220
0.0
230
1.0
 70
    24
 71
     1
 72
     4
 73
     2
 74
     0
 42
0.0000000001
 43
0.0000000001
 40
0.0
 40
0.0
 40
1.0
 40
1.0
 10
1.894092988378985
 20
2.636598421742931
 30
0.0
 10
1.907542988586769
 20
2.636598421742931
 30
0.0
  0
SPLINE
  5
92
330
1F
100
AcDbEntity
  8
0
  6
Continuous
 62
     7
370
    15
100
AcDbSpline
210
0.0
220
0.0
230
1.0
 70
     8
 71
     3
 72
    17
 73
    13
 74
     0
 42
0.0000000001
 43
0.0000000001
 40
0.0
 40
0.0
 40
0.0
 40
0.0
 40
0.1104939574900059
 40
0.2237666860104875
 40
0.3235844112106618
 40
0.4388092756556
 40
0.5819786975563807
 40
0.6769791964980337
 40
0.741964320027862
 40
0.8230081814230425
 40
0.911108377628328
 40
1.0
 40
1.0
 40
1.0
 40
1.0
 10
1.880819389466732
 20
2.653184980115364
 30
0.0
 10
1.881684583781826
 20
2.652947994999562
 30
0.0
 10
1.883436730858836
 20
2.652468064918306
 30
0.0
 10
1.885721782067968
 20
2.651310830990893
 30
0.0
 10
1.887792880336243
 20
2.649884030535743
 30
0.0
 10
1.889707050892725
 20
2.648106305916693
 30
0.0
 10
1.89125051245907
 20
2.646126489200581
 30
0.0
 10
1.89233041337792
 20
2.644205876693184
 30
0.0
 10
1.893055963967059
 20
2.642531454535896
 30
0.0
 10
1.893629765665712
 20
2.640704961997148
 30
0.0
 10
1.894017971277783
 20
2.638692427102911
 30
0.0
 10
1.894067908246851
 20
2.637298501195189
 30
0.0
 10
1.894092988378985
 20
2.636598421742931
 30
0.0
  0
SPLINE
  5
93
330
1F
100
AcDbEntity
  8
0
  6
Continuous
 62
     7
370
    15
100
AcDbSpline
210
0.0
220
0.0
230
1.0
 70
     8
 71
     3
 72
    19
 73
    15
 74
     0
 42
0.0000000001
 43
0.0000000001
 40
0.0
 40
0.0
 40
0.0
 40
0.0
 40
0.0823899902953262
 40
0.1661716137996903
 40
0.2513489290534194
 40
0.3219466276259074
 40
0.4048279490162264
 40
0.5000002805550201
 40
0.6094744803274304
 40
0.6923558023890392
 40
0.748654080069974
 40
0.8317932391365362
 40
0.9155751041939291
 40
1.0
 40
1.0
 40
1.0
 40
1.0
 10
1.883767628575089
 20
2.666307874953457
 30
0.0
 10
1.884922521291766
 20
2.666006370751361
 30
0.0
 10
1.887251813792076
 20
2.665398269698667
 30
0.0
 10
1.890533228145333
 20
2.663993717526714
 30
0.0
 10
1.893458898263341
 20
2.662345487363318
 30
0.0
 10
1.896100359763727
 20
2.660453969344931
 30
0.0
 10
1.898563664729341
 20
2.658283748216693
 30
0.0
 10
1.901048554139704
 20
2.655532820206854
 30
0.0
 10
1.90315956241564
 20
2.652486542830728
 30
0.0
 10
1.904677608061496
 20
2.649596144007809
 30
0.0
 10
1.905849702519991
 20
2.646760613055819
 30
0.0
 10
1.906781679717343
 20
2.643657970111626
 30
0.0
 10
1.907422627680353
 20
2.640151883961161
 30
0.0
 10
1.907502766215587
 20
2.637785924059463
 30
0.0
 10
1.907542988662368
 20
2.636598421742931
 30
0.0
  0
SPLINE
  5
94
330
1F
100
AcDbEntity
  8
0
  6
Continuous
 62
     7
370
    15
100
AcDbSpline
210
0.0
220
0.0
230
1.0
 70
    24
 71
     1
 72
     4
 73
     2
 74
     0
 42
0.0000000001
 43
0.0000000001
 40
0.0
 40
0.0
 40
1.0
 40
1.0
 10
1.63064298202594
 20
2.636598421742931
 30
0.0
 10
1.644092981317067
 20
2.636598421742931
 30
0.0
  0
SPLINE
  5
95
330
1F
100
AcDbEntity
  8
0
  6
Continuous
 62
     7
370
    15
100
AcDbSpline
210
0.0
220
0.0
230
1.0
 70
     8
 71
     3
 72
    17
 73
    13
 74
     0
 42
0.0000000001
 43
0.0000000001
 40
0.0
 40
0.0
 40
0.0
 40
0.0
 40
0.1104939543102653
 40
0.2237666879619543
 40
0.323584393500818
 40
0.4388092655799647
 40
0.5819734154316402
 40
0.6769722693344674
 40
0.7419626687822482
 40
0.8230094806690026
 40
0.9111099324835414
 40
1.0
 40
1.0
 40
1.0
 40
1.0
 10
1.644092981317067
 20
2.636598421742931
 30
0.0
 10
1.644134550539438
 20
2.637494521471929
 30
0.0
 10
1.644218734396096
 20
2.639309256673443
 30
0.0
 10
1.64484697984719
 20
2.641792400849225
 30
0.0
 10
1.645785041614511
 20
2.644125885373703
 30
0.0
 10
1.647099964074887
 20
2.646383146489204
 30
0.0
 10
1.648693243584339
 20
2.648323016108985
 30
0.0
 10
1.650330438577515
 20
2.649797655934519
 30
0.0
 10
1.651805141817468
 20
2.650872633586938
 30
0.0
 10
1.653461422147058
 20
2.651832854096904
 30
0.0
 10
1.655339920463545
 20
2.652652773765263
 30
0.0
 10
1.656689034741544
 20
2.653007051147499
 30
0.0
 10
1.65736660131241
 20
2.653184980115364
 30
0.0
  0
SPLINE
  5
96
330
1F
100
AcDbEntity
  8
0
  6
Continuous
 62
     7
370
    15
100
AcDbSpline
210
0.0
220
0.0
230
1.0
 70
     8
 71
     3
 72
    19
 73
    15
 74
     0
 42
0.0000000001
 43
0.0000000001
 40
0.0
 40
0.0
 40
0.0
 40
0.0
 40
0.0823899938792257
 40
0.1661716114080383
 40
0.251348936509975
 40
0.3219466345610697
 40
0.4048279594900074
 40
0.5000003031060942
 40
0.609468183604832
 40
0.6923497056869916
 40
0.7486541184137236
 40
0.8317946514282724
 40
0.9155763247442472
 40
1.0
 40
1.0
 40
1.0
 40
1.0
 10
1.63064298202594
 20
2.636598421742931
 30
0.0
 10
1.630684010826835
 20
2.63779131669631
 30
0.0
 10
1.630766761433286
 20
2.640197255419086
 30
0.0
 10
1.631417830714602
 20
2.643706745054446
 30
0.0
 10
1.632384695344856
 20
2.64692255266411
 30
0.0
 10
1.633651192854782
 20
2.649914395122316
 30
0.0
 10
1.63522868083447
 20
2.652793505397037
 30
0.0
 10
1.637367971030094
 20
2.655820897332498
 30
0.0
 10
1.639877394142283
 20
2.658548266246834
 30
0.0
 10
1.642364667970373
 20
2.66066298203727
 30
0.0
 10
1.644874443123789
 20
2.662428189175938
 30
0.0
 10
1.647697297095385
 20
2.664017607404149
 30
0.0
 10
1.6509776803377
 20
2.665411517636314
 30
0.0
 10
1.653268540238847
 20
2.666008329881759
 30
0.0
 10
1.654418342037619
 20
2.666307874953457
 30
0.0
  0
LINE
  5
97
330
1F
100
AcDbEntity
  8
0
  6
Continuous
 62
     7
370
    15
100
AcDbLine
 10
1.90754298857664
 20
2.3578337497
 30
0.0
 11
1.90754298857664
 21
2.6365984217
 31
0.0
  0
LINE
  5
98
330
1F
100
AcDbEntity
  8
0
  6
Continuous
 62
     7
370
    15
100
AcDbLine
 10
1.90754298857664
 20
2.3578337497
 30
0.0
 11
1.89409298837664
 21
2.3578337497
 31
0.0
  0
LINE
  5
99
330
1F
100
AcDbEntity
  8
0
  6
Continuous
 62
     7
370
    15
100
AcDbLine
 10
1.89409298837664
 20
2.3578337497
 30
0.0
 11
1.89409298837664
 21
2.6365984217
 31
0.0
  0
LINE
  5
9A
330
1F
100
AcDbEntity
  8
0
  6
Continuous
 62
     7
370
    15
100
AcDbLine
 10
1.644092981276641
 20
2.6365984217
 30
0.0
 11
1.644092981276641
 21
2.3578337497
 31
0.0
  0
LINE
  5
9B
330
1F
100
AcDbEntity
  8
0
  6
Continuous
 62
     7
370
    15
100
AcDbLine
 10
1.630642981976641
 20
2.3578337497
 30
0.0
 11
1.644092981276641
 21
2.3578337497
 31
0.0
  0
LINE
  5
9C
330
1F
100
AcDbEntity
  8
0
  6
Continuous
 62
     7
370
    15
100
AcDbLine
 10
1.630642981976641
 20
2.6365984217
 30
0.0
 11
1.630642981976641
 21
2.3578337497
 31
0.0
  0
MTEXT
  5
9E
330
1F
100
AcDbEntity
  8
0
100
AcDbMText
 10
1.456727916176641
 20
2.12610421389435
 30
0.0
 40
0.0625
 41
0.0
 71
     1
 72
     1
  1
TD8S-TOP-VIEW
  7
SLDTEXTSTYLE1
 73
     1
 44
1.0
1001
ACAD
1000
MTEXTBEGIN
1070
    73
1070
     1
1070
    44
1040
1.0
1070
    74
1070
     0
1000
MTEXTEND
  0
LINE
  5
9F
330
1F
100
AcDbEntity
  8
0
  6
Continuous
 62
     7
370
    15
100
AcDbLine
 10
0.6341239665317207
 20
0.2872391082000001
 30
0.0
 11
0.3553592945317217
 21
0.2872391082000001
 31
0.0
  0
LINE
  5
A0
330
1F
100
AcDbEntity
  8
0
  6
Continuous
 62
     7
370
    15
100
AcDbLine
 10
0.3553592945317217
 20
0.2872391082000001
 30
0.0
 11
0.3553592945317217
 21
0.4372390074000001
 31
0.0
  0
LINE
  5
A1
330
1F
100
AcDbEntity
  8
0
  6
Continuous
 62
     7
370
    15
100
AcDbLine
 10
0.3553592945317217
 20
0.4372390074000001
 30
0.0
 11
0.6341239665317207
 21
1.5067851052
 31
0.0
  0
LINE
  5
A2
330
1F
100
AcDbEntity
  8
0
  6
Continuous
 62
     7
370
    15
100
AcDbLine
 10
0.6341239665317207
 20
0.2872391082000001
 30
0.0
 11
0.6645739660317207
 21
0.2872391082000001
 31
0.0
  0
SPLINE
  5
A3
330
1F
100
AcDbEntity
  8
0
  6
Continuous
 62
     7
370
    15
100
AcDbSpline
210
0.0
220
0.0
230
1.0
 70
     8
 71
     3
 72
    19
 73
    15
 74
     0
 42
0.0000000001
 43
0.0000000001
 40
0.0
 40
0.0
 40
0.0
 40
0.0
 40
0.0823899902953262
 40
0.1661716137996903
 40
0.2513489290534194
 40
0.3219466276259074
 40
0.4048279490162264
 40
0.5000002805550201
 40
0.6094744803274304
 40
0.6923558023890392
 40
0.748654080069974
 40
0.8317932391365362
 40
0.9155751041939291
 40
1.0
 40
1.0
 40
1.0
 40
1.0
 10
0.6638334197473084
 20
1.612239039030708
 30
0.0
 10
0.663531915545212
 20
1.609368296653105
 30
0.0
 10
0.6629238144925176
 20
1.603578322749973
 30
0.0
 10
0.6615192623205668
 20
1.594787465914494
 30
0.0
 10
0.6598710321571675
 20
1.586393773664831
 30
0.0
 10
0.6579795141387828
 20
1.577993931697846
 30
0.0
 10
0.6558092930105426
 20
1.56920329231912
 30
0.0
 10
0.6530583650007063
 20
1.559005027681696
 30
0.0
 10
0.6500120876245786
 20
1.548805298205238
 30
0.0
 10
0.6471216888016605
 20
1.540007643748396
 30
0.0
 10
0.64428615784967
 20
1.532199434097921
 30
0.0
 10
0.6411835149054746
 20
1.52442286667324
 30
0.0
 10
0.6376774287550107
 20
1.515630168071498
 30
0.0
 10
0.6353114688533159
 20
1.509740964051953
 30
0.0
 10
0.6341239665367806
 20
1.506785105243551
 30
0.0
  0
LINE
  5
A4
330
1F
100
AcDbEntity
  8
0
  6
Continuous
 62
     7
370
    15
100
AcDbLine
 10
0.6638334197317218
 20
1.674739055699999
 30
0.0
 11
0.6638334197317218
 21
1.612239039
 31
0.0
  0
LINE
  5
A5
330
1F
100
AcDbEntity
  8
0
  6
Continuous
 62
     7
370
    15
100
AcDbLine
 10
0.6638334197317218
 20
1.674739055699999
 30
0.0
 11
0.6645739660317207
 21
1.674739055699999
 31
0.0
  0
LINE
  5
A6
330
1F
100
AcDbEntity
  8
0
  6
Continuous
 62
     7
370
    15
100
AcDbLine
 10
0.6645739660317207
 20
1.674739055699999
 30
0.0
 11
0.6645739660317207
 21
0.2872391082000001
 31
0.0
  0
SPLINE
  5
A7
330
1F
100
AcDbEntity
  8
0
  6
Continuous
 62
     7
370
    15
100
AcDbSpline
210
0.0
220
0.0
230
1.0
 70
     8
 71
     3
 72
    17
 73
    13
 74
     0
 42
0.0000000001
 43
0.0000000001
 40
0.0
 40
0.0
 40
0.0
 40
0.0
 40
0.1104939574900059
 40
0.2237666860104875
 40
0.3235844112106618
 40
0.4388092756556
 40
0.5819786975563807
 40
0.6769791964980337
 40
0.741964320027862
 40
0.8230081814230425
 40
0.911108377628328
 40
1.0
 40
1.0
 40
1.0
 40
1.0
 10
0.6507105249092149
 20
1.612239039030708
 30
0.0
 10
0.6504735397934148
 20
1.60836623683777
 30
0.0
 10
0.6499936097121575
 20
1.60052323680434
 30
0.0
 10
0.6488363757847458
 20
1.589163998521758
 30
0.0
 10
0.6474095753295917
 20
1.577622776314969
 30
0.0
 10
0.6456318507105437
 20
1.565001680312615
 30
0.0
 10
0.6436520339944316
 20
1.55253603812286
 30
0.0
 10
0.6417314214870347
 20
1.541854119797204
 30
0.0
 10
0.6400569993297487
 20
1.53337667853081
 30
0.0
 10
0.6382305067909973
 20
1.525173600901414
 30
0.0
 10
0.6362179718967625
 20
1.516118273152577
 30
0.0
 10
0.6348240459890398
 20
1.50990542155336
 30
0.0
 10
0.6341239665367806
 20
1.506785105243551
 30
0.0
  0
SPLINE
  5
A8
330
1F
100
AcDbEntity
  8
0
  6
Continuous
 62
     7
370
    15
100
AcDbSpline
210
0.0
220
0.0
230
1.0
 70
    24
 71
     1
 72
     4
 73
     2
 74
     0
 42
0.0000000001
 43
0.0000000001
 40
0.0
 40
0.0
 40
1.0
 40
1.0
 10
0.6507105249092149
 20
1.612239039030708
 30
0.0
 10
0.6638334197473084
 20
1.612239039030708
 30
0.0
  0
LINE
  5
A9
330
1F
100
AcDbEntity
  8
0
  6
Continuous
 62
     7
370
    15
100
AcDbLine
 10
0.6507105249317205
 20
1.674739055699999
 30
0.0
 11
0.6507105249317205
 21
1.612239039
 31
0.0
  0
LINE
  5
AA
330
1F
100
AcDbEntity
  8
0
  6
Continuous
 62
     7
370
    15
100
AcDbLine
 10
0.6638334197317218
 20
1.674739055699999
 30
0.0
 11
0.6507105249317205
 21
1.674739055699999
 31
0.0
  0
MTEXT
  5
AC
330
1F
100
AcDbEntity
  8
0
100
AcDbMText
 10
0.0946752692317206
 20
0.1151099883
 30
0.0
 40
0.0625
 41
0.0
 71
     1
 72
     1
  1
TD8S-SIDE-VIEW
  7
SLDTEXTSTYLE2
 73
     1
 44
1.0
1001
ACAD
1000
MTEXTBEGIN
1070
    73
1070
     1
1070
    44
1040
1.0
1070
    74
1070
     0
1000
MTEXTEND
  0
ENDSEC
  0
SECTION
  2
OBJECTS
  0
DICTIONARY
  5
C
330
0
100
AcDbDictionary
281
     1
  3
ACAD_COLOR
350
B0
  3
ACAD_GROUP
350
D
  3
ACAD_LAYOUT
350
1A
  3
ACAD_MATERIAL
350
AF
  3
ACAD_MLINESTYLE
350
17
  3
ACAD_PLOTSETTINGS
350
19
  3
ACAD_PLOTSTYLENAME
350
E
  3
ACDBHEADERROUNDTRIPXREC
350
E6
  3
AcDbVariableDictionary
350
B3
  0
DICTIONARY
  5
B0
102
{ACAD_REACTORS
330
C
102
}
330
C
100
AcDbDictionary
281
     1
  0
DICTIONARY
  5
D
102
{ACAD_REACTORS
330
C
102
}
330
C
100
AcDbDictionary
281
     1
  0
DICTIONARY
  5
1A
102
{ACAD_REACTORS
330
C
102
}
330
C
100
AcDbDictionary
281
     1
  3
Layout1
350
1E
  3
Layout2
350
26
  3
Model
350
22
  0
DICTIONARY
  5
AF
102
{ACAD_REACTORS
330
C
102
}
330
C
100
AcDbDictionary
281
     1
  0
DICTIONARY
  5
17
102
{ACAD_REACTORS
330
C
102
}
330
C
100
AcDbDictionary
281
     1
  3
Standard
350
18
  0
DICTIONARY
  5
19
102
{ACAD_REACTORS
330
C
102
}
330
C
100
AcDbDictionary
281
     1
  0
ACDBDICTIONARYWDFLT
  5
E
102
{ACAD_REACTORS
330
C
102
}
330
C
100
AcDbDictionary
281
     1
  3
Normal
350
F
100
AcDbDictionaryWithDefault
340
F
  0
DICTIONARY
  5
E6
102
{ACAD_REACTORS
330
C
102
}
330
C
100
AcDbDictionary
281
     1
  3
COLORDICT
350
E8
  3
MATERIALDICT
350
E7
  0
DICTIONARY
  5
B3
102
{ACAD_REACTORS
330
C
102
}
330
C
100
AcDbDictionary
281
     1
  3
DIMASSOC
350
B4
  3
PROJECTNAME
350
B5
  0
LAYOUT
  5
1E
102
{ACAD_XDICTIONARY
360
E9
102
}
102
{ACAD_REACTORS
330
1A
102
}
330
1A
100
AcDbPlotSettings
  1

  2
none_device
  4

  6

 40
0.0
 41
0.0
 42
0.0
 43
0.0
 44
0.0
 45
0.0
 46
0.0
 47
0.0
 48
0.0
 49
0.0
140
0.0
141
0.0
142
1.0
143
1.0
 70
   688
 72
     0
 73
     0
 74
     5
  7

 75
    16
147
1.0
148
0.0
149
0.0
100
AcDbLayout
  1
Layout1
 70
     1
 71
     1
 10
0.0
 20
0.0
 11
12.0
 21
9.0
 12
0.0
 22
0.0
 32
0.0
 14
1.000000000000000E+20
 24
1.000000000000000E+20
 34
1.000000000000000E+20
 15
-1.000000000000000E+20
 25
-1.000000000000000E+20
 35
-1.000000000000000E+20
146
0.0
 13
0.0
 23
0.0
 33
0.0
 16
1.0
 26
0.0
 36
0.0
 17
0.0
 27
1.0
 37
0.0
 76
     0
330
1B
  0
LAYOUT
  5
26
102
{ACAD_XDICTIONARY
360
ED
102
}
102
{ACAD_REACTORS
330
1A
102
}
330
1A
100
AcDbPlotSettings
  1

  2
none_device
  4

  6

 40
0.0
 41
0.0
 42
0.0
 43
0.0
 44
0.0
 45
0.0
 46
0.0
 47
0.0
 48
0.0
 49
0.0
140
0.0
141
0.0
142
1.0
143
1.0
 70
   688
 72
     0
 73
     0
 74
     5
  7

 75
    16
147
1.0
148
0.0
149
0.0
100
AcDbLayout
  1
Layout2
 70
     1
 71
     2
 10
0.0
 20
0.0
 11
0.0
 21
0.0
 12
0.0
 22
0.0
 32
0.0
 14
0.0
 24
0.0
 34
0.0
 15
0.0
 25
0.0
 35
0.0
146
0.0
 13
0.0
 23
0.0
 33
0.0
 16
1.0
 26
0.0
 36
0.0
 17
0.0
 27
1.0
 37
0.0
 76
     0
330
23
  0
LAYOUT
  5
22
102
{ACAD_XDICTIONARY
360
EB
102
}
102
{ACAD_REACTORS
330
1A
102
}
330
1A
100
AcDbPlotSettings
  1

  2
none_device
  4

  6

 40
0.0
 41
0.0
 42
0.0
 43
0.0
 44
0.0
 45
0.0
 46
0.0
 47
0.0
 48
0.0
 49
0.0
140
0.0
141
0.0
142
1.0
143
1.0
 70
  1712
 72
     0
 73
     0
 74
     0
  7

 75
     0
147
1.0
148
0.0
149
0.0
100
AcDbLayout
  1
Model
 70
     1
 71
     0
 10
0.0
 20
0.0
 11
0.0
 21
0.0
 12
0.0
 22
0.0
 32
0.0
 14
0.0
 24
0.0
 34
0.0
 15
3.0
 25
3.0
 35
0.0
146
0.0
 13
0.0
 23
0.0
 33
0.0
 16
1.0
 26
0.0
 36
0.0
 17
0.0
 27
1.0
 37
0.0
 76
     0
330
1F
  0
MLINESTYLE
  5
18
102
{ACAD_REACTORS
330
17
102
}
330
17
100
AcDbMlineStyle
  2
STANDARD
 70
     0
  3

 62
   256
 51
90.0
 52
90.0
 71
     2
 49
0.5
 62
   256
  6
BYLAYER
 49
-0.5
 62
   256
  6
BYLAYER
  0
ACDBPLACEHOLDER
  5
F
102
{ACAD_REACTORS
330
E
102
}
330
E
  0
XRECORD
  5
E8
102
{ACAD_REACTORS
330
E6
102
}
330
E6
100
AcDbXrecord
280
     1
340
B0
  0
XRECORD
  5
E7
102
{ACAD_REACTORS
330
E6
102
}
330
E6
100
AcDbXrecord
280
     1
340
AF
  0
DICTIONARYVAR
  5
B4
102
{ACAD_REACTORS
330
B3
102
}
330
B3
100
DictionaryVariables
280
     0
  1
1
  0
DICTIONARYVAR
  5
B5
102
{ACAD_REACTORS
330
B3
102
}
330
B3
100
DictionaryVariables
280
     0
  1

  0
DICTIONARY
  5
E9
330
1E
100
AcDbDictionary
280
     1
281
     1
  3
ACAD_XREC_ROUNDTRIP
360
EA
  0
DICTIONARY
  5
ED
330
26
100
AcDbDictionary
280
     1
281
     1
  3
ACAD_XREC_ROUNDTRIP
360
EE
  0
DICTIONARY
  5
EB
330
22
100
AcDbDictionary
280
     1
281
     1
  3
ACAD_XREC_ROUNDTRIP
360
EC
  0
XRECORD
  5
EA
102
{ACAD_REACTORS
330
E9
102
}
330
E9
100
AcDbXrecord
280
     1
102
SHADEPLOT
 70
     0
102
SHADEPLOTRESLEVEL
 70
     2
102
SHADEPLOTCUSTOMDPI
 70
   300
  0
XRECORD
  5
EE
102
{ACAD_REACTORS
330
ED
102
}
330
ED
100
AcDbXrecord
280
     1
102
SHADEPLOT
 70
     0
102
SHADEPLOTRESLEVEL
 70
     2
102
SHADEPLOTCUSTOMDPI
 70
   300
  0
XRECORD
  5
EC
102
{ACAD_REACTORS
330
EB
102
}
330
EB
100
AcDbXrecord
280
     1
102
SHADEPLOT
 70
     0
102
SHADEPLOTRESLEVEL
 70
     2
102
SHADEPLOTCUSTOMDPI
 70
   300
  0
ENDSEC
  0
EOF
