  0
SECTION
  2
HEADER
  9
$ACADVER
  1
AC1014
  9
$ACADMAINTVER
 70
     9
  9
$DWGCODEPAGE
  3
ANSI_1252
  9
$INSBASE
 10
0.0
 20
0.0
 30
0.0
  9
$EXTMIN
 10
0.6380880685614612
 20
0.0005677918000018
 30
0.0
  9
$EXTMAX
 10
13.56369920116397
 20
17.64393160951863
 30
0.0
  9
$LIMMIN
 10
0.0
 20
0.0
  9
$LIMMAX
 10
12.0
 20
9.0
  9
$ORTHOMODE
 70
     1
  9
$REGENMODE
 70
     1
  9
$FILLMODE
 70
     1
  9
$QTEXTMODE
 70
     0
  9
$MIRRTEXT
 70
     0
  9
$DRAGMODE
 70
     2
  9
$LTSCALE
 40
1.5
  9
$OSMODE
 70
     0
  9
$ATTMODE
 70
     1
  9
$TEXTSIZE
 40
0.75
  9
$TRACEWID
 40
0.05
  9
$TEXTSTYLE
  7
STANDARD
  9
$CLAYER
  8
USP
  9
$CELTYPE
  6
BYLAYER
  9
$CECOLOR
 62
   256
  9
$CELTSCALE
 40
1.0
  9
$DELOBJ
 70
     1
  9
$DISPSILH
 70
     1
  9
$DIMSCALE
 40
7.0
  9
$DIMASZ
 40
0.125
  9
$DIMEXO
 40
0.0625
  9
$DIMDLI
 40
0.37890625
  9
$DIMRND
 40
0.0
  9
$DIMDLE
 40
0.0
  9
$DIMEXE
 40
0.09375
  9
$DIMTP
 40
0.0
  9
$DIMTM
 40
0.0
  9
$DIMTXT
 40
0.109375
  9
$DIMCEN
 40
0.0
  9
$DIMTSZ
 40
0.0
  9
$DIMTOL
 70
     0
  9
$DIMLIM
 70
     0
  9
$DIMTIH
 70
     1
  9
$DIMTOH
 70
     1
  9
$DIMSE1
 70
     0
  9
$DIMSE2
 70
     0
  9
$DIMTAD
 70
     0
  9
$DIMZIN
 70
     8
  9
$DIMBLK
  1

  9
$DIMASO
 70
     1
  9
$DIMSHO
 70
     1
  9
$DIMPOST
  1

  9
$DIMAPOST
  1

  9
$DIMALT
 70
     0
  9
$DIMALTD
 70
     2
  9
$DIMALTF
 40
25.4
  9
$DIMLFAC
 40
1.0
  9
$DIMTOFL
 70
     0
  9
$DIMTVP
 40
0.0
  9
$DIMTIX
 70
     0
  9
$DIMSOXD
 70
     0
  9
$DIMSAH
 70
     0
  9
$DIMBLK1
  1

  9
$DIMBLK2
  1

  9
$DIMSTYLE
  2
STANDARD
  9
$DIMCLRD
 70
     0
  9
$DIMCLRE
 70
     0
  9
$DIMCLRT
 70
   256
  9
$DIMTFAC
 40
1.0
  9
$DIMGAP
 40
0.08984375
  9
$DIMJUST
 70
     0
  9
$DIMSD1
 70
     0
  9
$DIMSD2
 70
     0
  9
$DIMTOLJ
 70
     1
  9
$DIMTZIN
 70
     0
  9
$DIMALTZ
 70
     0
  9
$DIMALTTZ
 70
     0
  9
$DIMFIT
 70
     3
  9
$DIMUPT
 70
     1
  9
$DIMUNIT
 70
     7
  9
$DIMDEC
 70
     4
  9
$DIMTDEC
 70
     4
  9
$DIMALTU
 70
     2
  9
$DIMALTTD
 70
     2
  9
$DIMTXSTY
  7
STANDARD
  9
$DIMAUNIT
 70
     0
  9
$LUNITS
 70
     5
  9
$LUPREC
 70
     6
  9
$SKETCHINC
 40
0.1
  9
$FILLETRAD
 40
0.0
  9
$AUNITS
 70
     0
  9
$AUPREC
 70
     1
  9
$MENU
  1
CUSTOM
  9
$ELEVATION
 40
0.0
  9
$PELEVATION
 40
0.0
  9
$THICKNESS
 40
0.0
  9
$LIMCHECK
 70
     0
  9
$BLIPMODE
 70
     0
  9
$CHAMFERA
 40
0.0
  9
$CHAMFERB
 40
0.0
  9
$CHAMFERC
 40
0.0
  9
$CHAMFERD
 40
0.0
  9
$SKPOLY
 70
     0
  9
$TDCREATE
 40
2451263.663231366
  9
$TDUPDATE
 40
2452759.744697801
  9
$TDINDWG
 40
0.4888803009
  9
$TDUSRTIMER
 40
0.4888803009
  9
$USRTIMER
 70
     1
  9
$ANGBASE
 50
0.0
  9
$ANGDIR
 70
     0
  9
$PDMODE
 70
     0
  9
$PDSIZE
 40
0.0
  9
$PLINEWID
 40
0.0
  9
$COORDS
 70
     2
  9
$SPLFRAME
 70
     0
  9
$SPLINETYPE
 70
     6
  9
$SPLINESEGS
 70
     8
  9
$ATTDIA
 70
     0
  9
$ATTREQ
 70
     0
  9
$HANDLING
 70
     1
  9
$HANDSEED
  5
13A
  9
$SURFTAB1
 70
     6
  9
$SURFTAB2
 70
     6
  9
$SURFTYPE
 70
     6
  9
$SURFU
 70
     6
  9
$SURFV
 70
     6
  9
$UCSNAME
  2

  9
$UCSORG
 10
0.0
 20
0.0
 30
0.0
  9
$UCSXDIR
 10
1.0
 20
0.0
 30
0.0
  9
$UCSYDIR
 10
0.0
 20
1.0
 30
0.0
  9
$PUCSNAME
  2

  9
$PUCSORG
 10
0.0
 20
0.0
 30
0.0
  9
$PUCSXDIR
 10
1.0
 20
0.0
 30
0.0
  9
$PUCSYDIR
 10
0.0
 20
1.0
 30
0.0
  9
$USERI1
 70
     0
  9
$USERI2
 70
     0
  9
$USERI3
 70
     0
  9
$USERI4
 70
     0
  9
$USERI5
 70
     0
  9
$USERR1
 40
0.0
  9
$USERR2
 40
0.0
  9
$USERR3
 40
0.0
  9
$USERR4
 40
0.0
  9
$USERR5
 40
0.0
  9
$WORLDVIEW
 70
     1
  9
$SHADEDGE
 70
     3
  9
$SHADEDIF
 70
    70
  9
$TILEMODE
 70
     1
  9
$MAXACTVP
 70
    16
  9
$PINSBASE
 10
0.0
 20
0.0
 30
0.0
  9
$PLIMCHECK
 70
     0
  9
$PEXTMIN
 10
1.000000000000000E+20
 20
1.000000000000000E+20
 30
1.000000000000000E+20
  9
$PEXTMAX
 10
-1.000000000000000E+20
 20
-1.000000000000000E+20
 30
-1.000000000000000E+20
  9
$PLIMMIN
 10
0.0
 20
0.0
  9
$PLIMMAX
 10
12.0
 20
9.0
  9
$UNITMODE
 70
     0
  9
$VISRETAIN
 70
     0
  9
$PLINEGEN
 70
     0
  9
$PSLTSCALE
 70
     0
  9
$TREEDEPTH
 70
  3020
  9
$PICKSTYLE
 70
     1
  9
$CMLSTYLE
  2
STANDARD
  9
$CMLJUST
 70
     0
  9
$CMLSCALE
 40
1.0
  9
$PROXYGRAPHICS
 70
     1
  9
$MEASUREMENT
 70
     0
  0
ENDSEC
  0
SECTION
  2
CLASSES
  0
CLASS
  1
ACDBDICTIONARYWDFLT
  2
AcDbDictionaryWithDefault
  3
AutoCAD 2000
 90
        0
280
     1
281
     0
  0
CLASS
  1
ACDBPLACEHOLDER
  2
AcDbPlaceHolder
  3
AutoCAD 2000
 90
        0
280
     1
281
     0
  0
CLASS
  1
LAYOUT
  2
AcDbLayout
  3
AutoCAD 2000
 90
        0
280
     1
281
     0
  0
CLASS
  1
DICTIONARYVAR
  2
AcDbDictionaryVar
  3
"AutoCAD"
 90
        0
280
     1
281
     0
  0
CLASS
  1
LONG_TRANSACTION
  2
AcDbLongTransaction
  3
AutoCAD 2000
 90
        0
280
     1
281
     0
  0
CLASS
  1
LWPOLYLINE
  2
AcDbPolyline
  3
"AutoCAD"
 90
        0
280
     1
281
     1
  0
CLASS
  1
HATCH
  2
AcDbHatch
  3
"ACAD_SEDONA"
 90
        0
280
     1
281
     1
  0
CLASS
  1
XRECORD
  2
AcDbXrecord
  3
"<Built In>"
 90
        0
280
     0
281
     0
  0
ENDSEC
  0
SECTION
  2
TABLES
  0
TABLE
  2
VPORT
  5
124
100
AcDbSymbolTable
 70
     1
  0
VPORT
  5
136
100
AcDbSymbolTableRecord
100
AcDbViewportTableRecord
  2
*ACTIVE
 70
     0
 10
0.0
 20
0.0
 11
1.0
 21
1.0
 12
-9.06637503941382
 22
19.45791020046298
 13
0.0
 23
0.0
 14
1.0
 24
1.0
 15
0.0
 25
0.0
 16
0.0
 26
0.0
 36
1.0
 17
23.09603071721725
 27
-10.27010416511325
 37
-10.44050274849355
 40
18.37447648709945
 41
1.457627118644067
 42
50.0
 43
10.55307667737539
 44
10.55307667737539
 50
0.0
 51
0.0
 71
     0
 72
   100
 73
     1
 74
     1
 75
     0
 76
     0
 77
     0
 78
     0
  0
ENDTAB
  0
TABLE
  2
LTYPE
  5
120
100
AcDbSymbolTable
 70
     1
  0
LTYPE
  5
121
100
AcDbSymbolTableRecord
100
AcDbLinetypeTableRecord
  2
BYBLOCK
 70
     0
  3

 72
    65
 73
     0
 40
0.0
  0
LTYPE
  5
6
100
AcDbSymbolTableRecord
100
AcDbLinetypeTableRecord
  2
BYLAYER
 70
     0
  3

 72
    65
 73
     0
 40
0.0
  0
LTYPE
  5
5
100
AcDbSymbolTableRecord
100
AcDbLinetypeTableRecord
  2
CONTINUOUS
 70
     0
  3
Solid line
 72
    65
 73
     0
 40
0.0
  0
ENDTAB
  0
TABLE
  2
LAYER
  5
11E
100
AcDbSymbolTable
 70
     5
  0
LAYER
  5
5E
100
AcDbSymbolTableRecord
100
AcDbLayerTableRecord
  2
0
 70
     0
 62
     7
  6
CONTINUOUS
  0
LAYER
  5
D
100
AcDbSymbolTableRecord
100
AcDbLayerTableRecord
  2
USP-GEO
 70
     0
 62
     7
  6
CONTINUOUS
  0
LAYER
  5
10
100
AcDbSymbolTableRecord
100
AcDbLayerTableRecord
  2
USP-TXT
 70
     0
 62
     7
  6
CONTINUOUS
  0
LAYER
  5
9
102
{ACAD_XDICTIONARY
360
A
102
}
100
AcDbSymbolTableRecord
100
AcDbLayerTableRecord
  2
USP-HID
 70
     0
 62
     7
  6
CONTINUOUS
  0
LAYER
  5
4
100
AcDbSymbolTableRecord
100
AcDbLayerTableRecord
  2
USP
 70
     0
 62
     7
  6
CONTINUOUS
  0
ENDTAB
  0
TABLE
  2
STYLE
  5
11F
100
AcDbSymbolTable
 70
     1
  0
STYLE
  5
11
100
AcDbSymbolTableRecord
100
AcDbTextStyleTableRecord
  2
STANDARD
 70
     0
 40
0.0
 41
1.0
 50
0.0
 71
     0
 42
0.75
  3
txt
  4

  0
ENDTAB
  0
TABLE
  2
VIEW
  5
122
100
AcDbSymbolTable
 70
     0
  0
ENDTAB
  0
TABLE
  2
UCS
  5
123
100
AcDbSymbolTable
 70
     0
  0
ENDTAB
  0
TABLE
  2
APPID
  5
126
100
AcDbSymbolTable
 70
     1
  0
APPID
  5
B
100
AcDbSymbolTableRecord
100
AcDbRegAppTableRecord
  2
ACAD
 70
     0
  0
ENDTAB
  0
TABLE
  2
DIMSTYLE
  5
127
100
AcDbSymbolTable
 70
     1
  0
DIMSTYLE
105
12E
100
AcDbSymbolTableRecord
100
AcDbDimStyleTableRecord
  2
STANDARD
 70
     0
  3

  4

  5

  6

  7

 40
1.0
 41
0.18
 42
0.0625
 43
0.38
 44
0.18
 45
0.0
 46
0.0
 47
0.0
 48
0.0
140
0.18
141
0.09
142
0.0
143
25.4
144
1.0
145
0.0
146
1.0
147
0.09
 71
     0
 72
     0
 73
     1
 74
     1
 75
     0
 76
     0
 77
     0
 78
     0
170
     0
171
     2
172
     0
173
     0
174
     0
175
     0
176
     0
177
     0
178
     0
270
     2
271
     4
272
     4
273
     2
274
     2
340
11
275
     0
280
     0
281
     0
282
     0
283
     1
284
     0
285
     0
286
     0
287
     3
288
     0
  0
ENDTAB
  0
TABLE
  2
BLOCK_RECORD
  5
1
100
AcDbSymbolTable
 70
     3
  0
BLOCK_RECORD
  5
2
102
{ACAD_XDICTIONARY
360
117
102
}
100
AcDbSymbolTableRecord
100
AcDbBlockTableRecord
  2
*MODEL_SPACE
  0
BLOCK_RECORD
  5
11A
102
{ACAD_XDICTIONARY
360
11B
102
}
100
AcDbSymbolTableRecord
100
AcDbBlockTableRecord
  2
*PAPER_SPACE
  0
BLOCK_RECORD
  5
7
100
AcDbSymbolTableRecord
100
AcDbBlockTableRecord
  2
HD410IF_S
  0
BLOCK_RECORD
  5
61
100
AcDbSymbolTableRecord
100
AcDbBlockTableRecord
  2
HD410IF_F
  0
BLOCK_RECORD
  5
C6
100
AcDbSymbolTableRecord
100
AcDbBlockTableRecord
  2
HD410IF_T
  0
ENDTAB
  0
ENDSEC
  0
SECTION
  2
BLOCKS
  0
BLOCK
  5
118
100
AcDbEntity
  8
0
100
AcDbBlockBegin
  2
*MODEL_SPACE
 70
     0
 10
0.0
 20
0.0
 30
0.0
  3
*MODEL_SPACE
  1

  0
ENDBLK
  5
119
100
AcDbEntity
  8
0
100
AcDbBlockEnd
  0
BLOCK
  5
11C
100
AcDbEntity
 67
     1
  8
0
100
AcDbBlockBegin
  2
*PAPER_SPACE
 70
     0
 10
0.0
 20
0.0
 30
0.0
  3
*PAPER_SPACE
  1

  0
ENDBLK
  5
11D
100
AcDbEntity
 67
     1
  8
0
100
AcDbBlockEnd
  0
BLOCK
  5
5D
100
AcDbEntity
  8
0
100
AcDbBlockBegin
  2
HD410IF_S
 70
     0
 10
0.0
 20
0.0
 30
0.0
  3
HD410IF_S
  1

  0
LINE
  5
8
100
AcDbEntity
  8
USP-HID
100
AcDbLine
 10
0.0746999999990246
 20
9.074699999999943
 30
0.0
 11
0.0746999999996101
 21
4.237330897144257
 31
0.0
  0
LINE
  5
C
100
AcDbEntity
  8
USP-GEO
100
AcDbLine
 10
1.449973256840823
 20
3.934691949005419
 30
0.0
 11
1.449973256840195
 21
9.074700000000113
 31
0.0
  0
LINE
  5
E
100
AcDbEntity
  8
USP-GEO
100
AcDbLine
 10
-0.0000000000009763
 20
9.074699999999936
 30
0.0
 11
-0.0000000000003975
 21
4.237330897144246
 31
0.0
  0
TEXT
  5
F
100
AcDbEntity
  8
USP-TXT
100
AcDbText
 10
-1.266035416666597
 20
-1.45035425375699
 30
0.0
 40
0.296875
  1
HD410IF - SIDE VIEW
 72
     1
 11
1.381100000000069
 21
-1.45035425375699
 31
0.0
100
AcDbText
  0
LINE
  5
12
100
AcDbEntity
  8
USP-HID
100
AcDbLine
 10
0.3247267431588827
 20
0.0747000000000064
 30
0.0
 11
2.699700000000153
 21
0.074700000000294
 31
0.0
  0
LINE
  5
13
100
AcDbEntity
  8
USP-GEO
100
AcDbLine
 10
0.3247267431588952
 20
0.0000000000000075
 30
0.0
 11
2.69970000000016
 21
0.0000000000002953
 31
0.0
  0
LINE
  5
14
100
AcDbEntity
  8
USP-HID
100
AcDbLine
 10
0.0746999999996332
 20
4.047330897144258
 30
0.0
 11
0.0746999999999454
 21
1.469181269626003
 31
0.0
  0
LINE
  5
15
100
AcDbEntity
  8
USP-GEO
100
AcDbLine
 10
-0.0000000000003617
 20
4.047330897144249
 30
0.0
 11
0.0
 21
1.469181269625994
 31
0.0
  0
LINE
  5
16
100
AcDbEntity
  8
USP-GEO
100
AcDbLine
 10
0.2622267431588232
 20
0.5191984085207294
 30
0.0
 11
0.2622267431588392
 21
0.3872000000000004
 31
0.0
  0
LINE
  5
17
100
AcDbEntity
  8
USP-GEO
100
AcDbLine
 10
0.324726743158837
 20
0.3872000000000648
 30
0.0
 11
0.3247267431588952
 21
0.0000000000000075
 31
0.0
  0
LINE
  5
18
100
AcDbEntity
  8
USP-GEO
100
AcDbLine
 10
0.3247267431588863
 20
0.0747000000000076
 30
0.0
 11
0.2622267431588849
 21
0.0747
 31
0.0
  0
LINE
  5
19
100
AcDbEntity
  8
USP-GEO
100
AcDbLine
 10
0.3247267431588916
 20
0.0000000000000075
 30
0.0
 11
0.2622267431588925
 21
0.0
 31
0.0
  0
LINE
  5
1A
100
AcDbEntity
  8
USP-GEO
100
AcDbLine
 10
0.2622267431588845
 20
0.0747000000000004
 30
0.0
 11
0.2622267431588934
 21
0.0000000000000011
 31
0.0
  0
LINE
  5
1B
100
AcDbEntity
  8
USP-GEO
100
AcDbLine
 10
0.2622267431588396
 20
0.3872000000000284
 30
0.0
 11
0.3247267431588374
 21
0.3872000000000644
 31
0.0
  0
ARC
  5
1C
100
AcDbEntity
  8
USP-GEO
100
AcDbCircle
 10
-2.237773256841177
 20
0.519198408520428
 30
0.0
 40
2.5
100
AcDbArc
 50
0.0000000000069336
 51
22.33325800951679
  0
LINE
  5
1D
100
AcDbEntity
  8
USP-GEO
100
AcDbLine
 10
0.0000000000000007
 20
1.469181269625995
 30
0.0
 11
0.0747000000000036
 21
1.469181269626004
 31
0.0
  0
LINE
  5
1E
100
AcDbEntity
  8
USP-HID
100
AcDbLine
 10
-0.0000000000001841
 20
2.503534965323756
 30
0.0
 11
0.0746999999998159
 21
2.503534965323765
 31
0.0
  0
LINE
  5
1F
100
AcDbEntity
  8
USP-HID
100
AcDbLine
 10
-0.0000000000001683
 20
2.409353208069661
 30
0.0
 11
0.0746999999998299
 21
2.40935320806967
 31
0.0
  0
LINE
  5
20
100
AcDbEntity
  8
USP-HID
100
AcDbLine
 10
-0.0000000000002034
 20
2.675534965323756
 30
0.0
 11
0.0746999999997966
 21
2.675534965323765
 31
0.0
  0
LINE
  5
21
100
AcDbEntity
  8
USP-HID
100
AcDbLine
 10
-0.0000000000001894
 20
2.581353208069661
 30
0.0
 11
0.0746999999998124
 21
2.58135320806967
 31
0.0
  0
LINE
  5
22
100
AcDbEntity
  8
USP-HID
100
AcDbLine
 10
-0.0000000000002569
 20
3.113699999999969
 30
0.0
 11
0.0746999999997413
 21
3.113699999999978
 31
0.0
  0
LINE
  5
23
100
AcDbEntity
  8
USP-HID
100
AcDbLine
 10
-0.0000000000002569
 20
3.139195044271396
 30
0.0
 11
0.0746999999997449
 21
3.139195044271405
 31
0.0
  0
LINE
  5
24
100
AcDbEntity
  8
USP-HID
100
AcDbLine
 10
-0.0000000000002358
 20
2.967195044271396
 30
0.0
 11
0.074699999999766
 21
2.967195044271404
 31
0.0
  0
ARC
  5
25
100
AcDbEntity
  8
USP-HID
100
AcDbCircle
 10
0.0746999999996223
 20
4.311260080790471
 30
0.0
 40
0.095
100
AcDbArc
 50
297.2395087344029
 51
90.00000000000696
  0
ARC
  5
26
100
AcDbEntity
  8
USP-GEO
100
AcDbCircle
 10
0.0746999999996418
 20
4.142330897144255
 30
0.0
 40
0.095
100
AcDbArc
 50
270.0000000000069
 51
90.00000000000696
  0
LINE
  5
27
100
AcDbEntity
  8
USP-HID
100
AcDbLine
 10
-0.0000000000002798
 20
3.28569999999997
 30
0.0
 11
0.074699999999722
 21
3.285699999999979
 31
0.0
  0
LINE
  5
28
100
AcDbEntity
  8
USP-HID
100
AcDbLine
 10
-0.0000000000003493
 20
3.910699999999942
 30
0.0
 11
0.0746999999996507
 21
3.91069999999995
 31
0.0
  0
LINE
  5
29
100
AcDbEntity
  8
USP-HID
100
AcDbLine
 10
-0.0000000000003282
 20
3.738699999999941
 30
0.0
 11
0.0746999999996718
 21
3.73869999999995
 31
0.0
  0
LINE
  5
2A
100
AcDbEntity
  8
USP-HID
100
AcDbLine
 10
0.0746999999996205
 20
4.216260080790473
 30
0.0
 11
-0.0000000000003781
 21
4.216260080790464
 31
0.0
  0
LINE
  5
2B
100
AcDbEntity
  8
USP-GEO
100
AcDbLine
 10
0.0746999999996125
 20
4.237330897144259
 30
0.0
 11
0.0746999999996356
 21
4.047330897144259
 31
0.0
  0
LINE
  5
2C
100
AcDbEntity
  8
USP-GEO
100
AcDbLine
 10
-0.0000000000003662
 20
4.047330897144252
 30
0.0
 11
-0.0000000000003892
 21
4.237330897144252
 31
0.0
  0
LINE
  5
2D
100
AcDbEntity
  8
USP-GEO
100
AcDbLine
 10
0.0746999999996418
 20
4.047330897144263
 30
0.0
 11
-0.000000000000361
 21
4.047330897144254
 31
0.0
  0
LINE
  5
2E
100
AcDbEntity
  8
USP-GEO
100
AcDbLine
 10
-0.0000000000003972
 20
4.23733089714425
 30
0.0
 11
0.0746999999996299
 21
4.237330897144259
 31
0.0
  0
ARC
  5
2F
100
AcDbEntity
  8
USP-GEO
100
AcDbCircle
 10
0.0746999999996223
 20
4.311260080790471
 30
0.0
 40
0.095
100
AcDbArc
 50
270.0000000000069
 51
297.2395087344029
  0
LINE
  5
30
100
AcDbEntity
  8
USP-HID
100
AcDbLine
 10
-0.0000000000004186
 20
4.40626008079046
 30
0.0
 11
0.0746999999995828
 21
4.406260080790469
 31
0.0
  0
LINE
  5
31
100
AcDbEntity
  8
USP-HID
100
AcDbLine
 10
-0.0000000000004348
 20
4.613699999999941
 30
0.0
 11
0.0746999999995635
 21
4.613699999999949
 31
0.0
  0
LINE
  5
32
100
AcDbEntity
  8
USP-HID
100
AcDbLine
 10
-0.0000000000004752
 20
4.910699999999998
 30
0.0
 11
0.0746999999995248
 21
4.910700000000007
 31
0.0
  0
LINE
  5
33
100
AcDbEntity
  8
USP-HID
100
AcDbLine
 10
-0.0000000000004541
 20
4.738699999999997
 30
0.0
 11
0.0746999999995477
 21
4.738700000000006
 31
0.0
  0
LINE
  5
34
100
AcDbEntity
  8
USP-HID
100
AcDbLine
 10
-0.0000000000004559
 20
4.785699999999941
 30
0.0
 11
0.0746999999995424
 21
4.78569999999995
 31
0.0
  0
LINE
  5
35
100
AcDbEntity
  8
USP-HID
100
AcDbLine
 10
-0.0000000000005573
 20
5.613699999999941
 30
0.0
 11
0.0746999999994444
 21
5.613699999999949
 31
0.0
  0
LINE
  5
36
100
AcDbEntity
  8
USP-HID
100
AcDbLine
 10
-0.000000000000596
 20
5.910699999999998
 30
0.0
 11
0.074699999999404
 21
5.910700000000007
 31
0.0
  0
LINE
  5
37
100
AcDbEntity
  8
USP-HID
100
AcDbLine
 10
-0.0000000000005749
 20
5.738699999999997
 30
0.0
 11
0.0746999999994251
 21
5.738700000000006
 31
0.0
  0
LINE
  5
38
100
AcDbEntity
  8
USP-HID
100
AcDbLine
 10
-0.0000000000005766
 20
5.785699999999941
 30
0.0
 11
0.0746999999994234
 21
5.78569999999995
 31
0.0
  0
LINE
  5
39
100
AcDbEntity
  8
USP-HID
100
AcDbLine
 10
-0.0000000000006781
 20
6.613699999999941
 30
0.0
 11
0.0746999999993237
 21
6.613699999999949
 31
0.0
  0
LINE
  5
3A
100
AcDbEntity
  8
USP-HID
100
AcDbLine
 10
-0.000000000000715
 20
6.910699999999998
 30
0.0
 11
0.074699999999285
 21
6.910700000000007
 31
0.0
  0
LINE
  5
3B
100
AcDbEntity
  8
USP-HID
100
AcDbLine
 10
-0.0000000000006957
 20
6.738699999999997
 30
0.0
 11
0.0746999999993043
 21
6.738700000000006
 31
0.0
  0
LINE
  5
3C
100
AcDbEntity
  8
USP-HID
100
AcDbLine
 10
-0.0000000000006974
 20
6.785699999999941
 30
0.0
 11
0.0746999999993008
 21
6.78569999999995
 31
0.0
  0
CIRCLE
  5
3D
100
AcDbEntity
  8
USP-GEO
100
AcDbCircle
 10
0.5121999999993328
 20
6.579269385878539
 30
0.0
 40
0.1535
  0
ARC
  5
3E
100
AcDbEntity
  8
USP-GEO
100
AcDbCircle
 10
0.2622000000000531
 20
0.51919840852073
 30
0.0
 40
2.5
100
AcDbArc
 50
0.0000000000069336
 51
42.48156664607985
  0
LINE
  5
3F
100
AcDbEntity
  8
USP-HID
100
AcDbLine
 10
1.608713371579525
 20
0.0000000000001665
 30
0.0
 11
1.608713371579517
 21
0.074700000000163
 31
0.0
  0
LINE
  5
40
100
AcDbEntity
  8
USP-GEO
100
AcDbLine
 10
2.762200000000138
 20
0.3872000000003295
 30
0.0
 11
2.762200000000108
 21
0.5191984085209463
 31
0.0
  0
LINE
  5
41
100
AcDbEntity
  8
USP-HID
100
AcDbLine
 10
1.915713371579526
 20
0.0000000000002038
 30
0.0
 11
1.915713371579517
 21
0.0747000000002003
 31
0.0
  0
LINE
  5
42
100
AcDbEntity
  8
USP-HID
100
AcDbLine
 10
2.334920779386531
 20
0.0747000000002527
 30
0.0
 11
2.33492077938654
 21
0.0000000000002534
 31
0.0
  0
LINE
  5
43
100
AcDbEntity
  8
USP-HID
100
AcDbLine
 10
2.462200000000089
 20
0.0747000000002669
 30
0.0
 11
2.462200000000098
 21
0.0000000000002676
 31
0.0
  0
LINE
  5
44
100
AcDbEntity
  8
USP-GEO
100
AcDbLine
 10
2.69970000000016
 20
0.0000000000002953
 30
0.0
 11
2.699700000000125
 21
0.3872000000003535
 31
0.0
  0
LINE
  5
45
100
AcDbEntity
  8
USP-HID
100
AcDbLine
 10
2.589479220613679
 20
0.0747000000002847
 30
0.0
 11
2.589479220613688
 21
0.000000000000282
 31
0.0
  0
LINE
  5
46
100
AcDbEntity
  8
USP-GEO
100
AcDbLine
 10
2.699700000000145
 20
0.0747000000002918
 30
0.0
 11
2.762200000000131
 21
0.0747000000002993
 31
0.0
  0
LINE
  5
47
100
AcDbEntity
  8
USP-GEO
100
AcDbLine
 10
2.762200000000131
 20
0.0747000000003024
 30
0.0
 11
2.76220000000014
 21
0.0000000000003018
 31
0.0
  0
LINE
  5
48
100
AcDbEntity
  8
USP-GEO
100
AcDbLine
 10
2.76220000000014
 20
0.0000000000003029
 30
0.0
 11
2.699700000000152
 21
0.0000000000002953
 31
0.0
  0
LINE
  5
49
100
AcDbEntity
  8
USP-GEO
100
AcDbLine
 10
2.699700000000124
 20
0.3872000000003522
 30
0.0
 11
2.762200000000136
 21
0.3872000000003313
 31
0.0
  0
CIRCLE
  5
4A
100
AcDbEntity
  8
USP-HID
100
AcDbCircle
 10
1.074973256840748
 20
4.670401308014739
 30
0.0
 40
0.082
  0
ARC
  5
4B
100
AcDbEntity
  8
USP-GEO
100
AcDbCircle
 10
3.949673256840844
 20
3.895963277457252
 30
0.0
 40
2.5
100
AcDbArc
 50
179.1123687241216
 51
222.4815666460787
  0
CIRCLE
  5
4C
100
AcDbEntity
  8
USP-GEO
100
AcDbCircle
 10
1.074973256841039
 20
2.262200000000043
 30
0.0
 40
0.082
  0
CIRCLE
  5
4D
100
AcDbEntity
  8
USP-HID
100
AcDbCircle
 10
1.074973256840844
 20
3.87103723244369
 30
0.0
 40
0.082
  0
CIRCLE
  5
4E
100
AcDbEntity
  8
USP-GEO
100
AcDbCircle
 10
1.074973256840822
 20
4.058537232443629
 30
0.0
 40
0.082
  0
CIRCLE
  5
4F
100
AcDbEntity
  8
USP-GEO
100
AcDbCircle
 10
1.074973256840727
 20
4.857901308014675
 30
0.0
 40
0.082
  0
LINE
  5
50
100
AcDbEntity
  8
USP-GEO
100
AcDbLine
 10
1.449973256840192
 20
9.074700000000111
 30
0.0
 11
-0.0000000000009763
 21
9.074699999999936
 31
0.0
  0
LINE
  5
51
100
AcDbEntity
  8
USP-HID
100
AcDbLine
 10
-0.0000000000007989
 20
7.613699999999941
 30
0.0
 11
0.0746999999992011
 21
7.613699999999949
 31
0.0
  0
LINE
  5
52
100
AcDbEntity
  8
USP-HID
100
AcDbLine
 10
-0.000000000000834
 20
7.910699999999998
 30
0.0
 11
0.074699999999166
 21
7.910700000000007
 31
0.0
  0
LINE
  5
53
100
AcDbEntity
  8
USP-HID
100
AcDbLine
 10
-0.0000000000008129
 20
7.738699999999997
 30
0.0
 11
0.0746999999991871
 21
7.738700000000006
 31
0.0
  0
LINE
  5
54
100
AcDbEntity
  8
USP-HID
100
AcDbLine
 10
-0.00000000000082
 20
7.785699999999941
 30
0.0
 11
0.07469999999918
 21
7.78569999999995
 31
0.0
  0
LINE
  5
55
100
AcDbEntity
  8
USP-HID
100
AcDbLine
 10
-0.0000000000009337
 20
8.738699999999997
 30
0.0
 11
0.0746999999990663
 21
8.738700000000006
 31
0.0
  0
LINE
  5
56
100
AcDbEntity
  8
USP-HID
100
AcDbLine
 10
-0.0000000000009197
 20
8.613699999999941
 30
0.0
 11
0.0746999999990803
 21
8.613699999999949
 31
0.0
  0
LINE
  5
57
100
AcDbEntity
  8
USP-HID
100
AcDbLine
 10
-0.0000000000009548
 20
8.910699999999998
 30
0.0
 11
0.0746999999990452
 21
8.910700000000007
 31
0.0
  0
LINE
  5
58
100
AcDbEntity
  8
USP-HID
100
AcDbLine
 10
-0.0000000000009408
 20
8.785699999999941
 30
0.0
 11
0.074699999999061
 21
8.78569999999995
 31
0.0
  0
CIRCLE
  5
59
100
AcDbEntity
  8
USP-GEO
100
AcDbCircle
 10
1.074973256840383
 20
7.678421005441691
 30
0.0
 40
0.082
  0
CIRCLE
  5
5A
100
AcDbEntity
  8
USP-HID
100
AcDbCircle
 10
1.074973256840409
 20
7.490921005441755
 30
0.0
 40
0.082
  0
CIRCLE
  5
5B
100
AcDbEntity
  8
USP-HID
100
AcDbCircle
 10
1.074973256840301
 20
8.362848615981285
 30
0.0
 40
0.082
  0
CIRCLE
  5
5C
100
AcDbEntity
  8
USP-GEO
100
AcDbCircle
 10
1.074973256840279
 20
8.550348615981221
 30
0.0
 40
0.082
  0
ENDBLK
  5
5F
100
AcDbEntity
  8
0
100
AcDbBlockEnd
  0
BLOCK
  5
C3
100
AcDbEntity
  8
0
100
AcDbBlockBegin
  2
HD410IF_F
 70
     0
 10
0.0
 20
0.0
 30
0.0
  3
HD410IF_F
  1

  0
LINE
  5
62
100
AcDbEntity
  8
USP-GEO
100
AcDbLine
 10
1.199699999999982
 20
3.895963277456488
 30
0.0
 11
1.199700000000007
 21
9.074699999999706
 31
0.0
  0
LINE
  5
63
100
AcDbEntity
  8
USP-GEO
100
AcDbLine
 10
0.0000000000000124
 20
9.074699999999873
 30
0.0
 11
0.0000000000000053
 21
3.934691949005106
 31
0.0
  0
LINE
  5
64
100
AcDbEntity
  8
USP-GEO
100
AcDbLine
 10
2.074700000000023
 20
3.895963277456431
 30
0.0
 11
2.074700000000008
 21
9.074699999999653
 31
0.0
  0
LINE
  5
65
100
AcDbEntity
  8
USP-GEO
100
AcDbLine
 10
3.274399999999999
 20
3.93469194900512
 30
0.0
 11
3.274400000000005
 21
9.074699999999815
 31
0.0
  0
LINE
  5
66
100
AcDbEntity
  8
USP-GEO
100
AcDbLine
 10
3.199700000000003
 20
3.93469194900512
 30
0.0
 11
3.199700000000008
 21
9.074699999999818
 31
0.0
  0
LINE
  5
67
100
AcDbEntity
  8
USP-GEO
100
AcDbLine
 10
0.0747000000000053
 20
3.934691949005106
 30
0.0
 11
0.0747000000000124
 21
9.074699999999872
 31
0.0
  0
TEXT
  5
68
100
AcDbEntity
  8
USP-TXT
100
AcDbText
 10
-1.207852083333318
 20
-1.450354253757282
 30
0.0
 40
0.296875
  1
HD410IF - FRONT VIEW
 72
     1
 11
1.637200000000014
 21
-1.450354253757282
 31
0.0
100
AcDbText
  0
ARC
  5
69
100
AcDbEntity
  8
USP-GEO
100
AcDbCircle
 10
4.574699999999964
 20
3.895963277456484
 30
0.0
 40
2.5
100
AcDbArc
 50
179.9999999999999
 51
222.481566646073
  0
LINE
  5
6A
100
AcDbEntity
  8
USP-GEO
100
AcDbLine
 10
0.2622000000000018
 20
0.0747000000000087
 30
0.0
 11
3.01220000000003
 21
0.0747000000000056
 31
0.0
  0
LINE
  5
6B
100
AcDbEntity
  8
USP-GEO
100
AcDbLine
 10
0.2622
 20
0.0000000000000051
 30
0.0
 11
3.01220000000003
 21
0.000000000000002
 31
0.0
  0
ARC
  5
6C
100
AcDbEntity
  8
USP-GEO
100
AcDbCircle
 10
2.387173256841238
 20
0.5191984085204063
 30
0.0
 40
2.5
100
AcDbArc
 50
137.5184333539269
 51
157.6667419904885
  0
LINE
  5
6D
100
AcDbEntity
  8
USP-GEO
100
AcDbLine
 10
0.0
 20
2.207580842988714
 30
0.0
 11
-0.0000000000000018
 21
0.5191984085207338
 31
0.0
  0
LINE
  5
6E
100
AcDbEntity
  8
USP-GEO
100
AcDbLine
 10
0.0747000000000036
 20
2.207580842988715
 30
0.0
 11
0.0747000000000018
 21
0.5191984085207338
 31
0.0
  0
LINE
  5
6F
100
AcDbEntity
  8
USP-GEO
100
AcDbLine
 10
0.0
 20
0.5191984085206501
 30
0.0
 11
0.0
 21
0.3872000000000331
 31
0.0
  0
LINE
  5
70
100
AcDbEntity
  8
USP-GEO
100
AcDbLine
 10
0.0747000000000036
 20
0.3872000000000315
 30
0.0
 11
0.0747000000000036
 21
0.5191984085206486
 31
0.0
  0
LINE
  5
71
100
AcDbEntity
  8
USP-GEO
100
AcDbLine
 10
0.2622
 20
0.0747
 30
0.0
 11
0.0747000000000036
 21
0.0747000000000002
 31
0.0
  0
LINE
  5
72
100
AcDbEntity
  8
USP-GEO
100
AcDbLine
 10
0.2622
 20
-0.0000000000000002
 30
0.0
 11
0.0
 21
0.0
 31
0.0
  0
LINE
  5
73
100
AcDbEntity
  8
USP-GEO
100
AcDbLine
 10
0.0
 20
0.3872000000000568
 30
0.0
 11
0.0
 21
0.000000000000002
 31
0.0
  0
LINE
  5
74
100
AcDbEntity
  8
USP-GEO
100
AcDbLine
 10
0.0747000000000018
 20
0.3872000000000568
 30
0.0
 11
0.0747000000000018
 21
0.0747000000000009
 31
0.0
  0
LINE
  5
75
100
AcDbEntity
  8
USP-GEO
100
AcDbLine
 10
0.0747000000000018
 20
0.3872000000000319
 30
0.0
 11
0.0000000000000018
 21
0.3872000000000319
 31
0.0
  0
LINE
  5
76
100
AcDbEntity
  8
USP-GEO
100
AcDbLine
 10
0.2622000000000018
 20
0.0747000000000071
 30
0.0
 11
0.2622000000000018
 21
0.0000000000000084
 31
0.0
  0
LINE
  5
77
100
AcDbEntity
  8
USP-HID
100
AcDbLine
 10
0.0747
 20
1.469181269625757
 30
0.0
 11
0.0000000000000018
 21
1.469181269625757
 31
0.0
  0
LINE
  5
78
100
AcDbEntity
  8
USP-HID
100
AcDbLine
 10
1.009920779386355
 20
0.0746999999999716
 30
0.0
 11
1.009920779386355
 21
-0.0000000000000291
 31
0.0
  0
LINE
  5
79
100
AcDbEntity
  8
USP-HID
100
AcDbLine
 10
1.137199999999971
 20
0.0746999999999858
 30
0.0
 11
1.137199999999971
 21
-0.0000000000000129
 31
0.0
  0
LINE
  5
7A
100
AcDbEntity
  8
USP-HID
100
AcDbLine
 10
1.26447922061353
 20
0.074699999999968
 30
0.0
 11
1.26447922061353
 21
-0.0000000000000313
 31
0.0
  0
LINE
  5
7B
100
AcDbEntity
  8
USP-HID
100
AcDbLine
 10
1.4837
 20
0.074699999999883
 30
0.0
 11
1.4837
 21
-0.0000000000001135
 31
0.0
  0
LINE
  5
7C
100
AcDbEntity
  8
USP-HID
100
AcDbLine
 10
1.790699999999999
 20
0.0746999999998863
 30
0.0
 11
1.790699999999999
 21
-0.0000000000001172
 31
0.0
  0
LINE
  5
7D
100
AcDbEntity
  8
USP-HID
100
AcDbLine
 10
2.009920779386355
 20
0.074699999999968
 30
0.0
 11
2.009920779386355
 21
-0.0000000000000326
 31
0.0
  0
ARC
  5
7E
100
AcDbEntity
  8
USP-GEO
100
AcDbCircle
 10
-1.300299999999959
 20
3.895963277456488
 30
0.0
 40
2.5
100
AcDbArc
 50
317.518433353928
 51
359.9999999999999
  0
CIRCLE
  5
7F
100
AcDbEntity
  8
USP-GEO
100
AcDbCircle
 10
0.6372000000000675
 20
3.19969999999968
 30
0.0
 40
0.086
  0
LINE
  5
80
100
AcDbEntity
  8
USP-GEO
100
AcDbLine
 10
0.0000000000000036
 20
3.934691949005108
 30
0.0
 11
0.0000000000000018
 21
2.207580842988711
 31
0.0
  0
LINE
  5
81
100
AcDbEntity
  8
USP-GEO
100
AcDbLine
 10
0.0747000000000036
 20
2.207580842988711
 30
0.0
 11
0.0747000000000053
 21
3.934691949005108
 31
0.0
  0
CIRCLE
  5
82
100
AcDbEntity
  8
USP-GEO
100
AcDbCircle
 10
0.4497000000000675
 20
2.589534965323466
 30
0.0
 40
0.086
  0
LINE
  5
83
100
AcDbEntity
  8
USP-HID
100
AcDbLine
 10
0.0747000000000036
 20
2.180199999999801
 30
0.0
 11
0.0000000000000036
 21
2.180199999999801
 31
0.0
  0
LINE
  5
84
100
AcDbEntity
  8
USP-HID
100
AcDbLine
 10
0.0747000000000053
 20
2.3441999999998
 30
0.0
 11
0.0000000000000018
 21
2.3441999999998
 31
0.0
  0
LINE
  5
85
100
AcDbEntity
  8
USP-HID
100
AcDbLine
 10
0.0747000000000053
 20
3.789037232443392
 30
0.0
 11
0.0000000000000036
 21
3.789037232443392
 31
0.0
  0
ARC
  5
86
100
AcDbEntity
  8
USP-GEO
100
AcDbCircle
 10
0.0747000000000124
 20
4.311260080790177
 30
0.0
 40
0.095
100
AcDbArc
 50
270.0
 51
90.0
  0
LINE
  5
87
100
AcDbEntity
  8
USP-HID
100
AcDbLine
 10
0.0747000000000053
 20
4.216260080790174
 30
0.0
 11
0.0000000000000018
 21
4.216260080790174
 31
0.0
  0
LINE
  5
88
100
AcDbEntity
  8
USP-HID
100
AcDbLine
 10
0.0747000000000053
 20
3.953037232443391
 30
0.0
 11
0.0000000000000053
 21
3.953037232443391
 31
0.0
  0
LINE
  5
89
100
AcDbEntity
  8
USP-HID
100
AcDbLine
 10
0.0747000000000053
 20
4.406260080790175
 30
0.0
 11
0.0000000000000053
 21
4.406260080790175
 31
0.0
  0
LINE
  5
8A
100
AcDbEntity
  8
USP-HID
100
AcDbLine
 10
0.0747000000000053
 20
4.58840130801444
 30
0.0
 11
0.0000000000000071
 21
4.58840130801444
 31
0.0
  0
CIRCLE
  5
8B
100
AcDbEntity
  8
USP-GEO
100
AcDbCircle
 10
0.824700000000071
 20
3.824699999999708
 30
0.0
 40
0.086
  0
CIRCLE
  5
8C
100
AcDbEntity
  8
USP-GEO
100
AcDbCircle
 10
0.4497000000000711
 20
4.824699999999708
 30
0.0
 40
0.086
  0
LINE
  5
8D
100
AcDbEntity
  8
USP-HID
100
AcDbLine
 10
0.0747000000000071
 20
4.75240130801444
 30
0.0
 11
0.0000000000000071
 21
4.75240130801444
 31
0.0
  0
CIRCLE
  5
8E
100
AcDbEntity
  8
USP-GEO
100
AcDbCircle
 10
0.6372000000000711
 20
5.824699999999708
 30
0.0
 40
0.086
  0
LINE
  5
8F
100
AcDbEntity
  8
USP-HID
100
AcDbLine
 10
0.0747000000000089
 20
6.425769385878248
 30
0.0
 11
0.0000000000000071
 21
6.425769385878248
 31
0.0
  0
LINE
  5
90
100
AcDbEntity
  8
USP-HID
100
AcDbLine
 10
0.0747000000000089
 20
6.732769385878247
 30
0.0
 11
0.0000000000000071
 21
6.732769385878247
 31
0.0
  0
CIRCLE
  5
91
100
AcDbEntity
  8
USP-GEO
100
AcDbCircle
 10
0.824700000000071
 20
6.824699999999708
 30
0.0
 40
0.086
  0
ARC
  5
92
100
AcDbEntity
  8
USP-GEO
100
AcDbCircle
 10
0.8872267431587594
 20
0.5191984085204098
 30
0.0
 40
2.5
100
AcDbArc
 50
22.33325800951029
 51
42.48156664607164
  0
LINE
  5
93
100
AcDbEntity
  8
USP-GEO
100
AcDbLine
 10
3.274399999999996
 20
0.5191984085207338
 30
0.0
 11
3.274399999999998
 21
2.207580842988713
 31
0.0
  0
LINE
  5
94
100
AcDbEntity
  8
USP-GEO
100
AcDbLine
 10
3.199699999999996
 20
0.5191984085207338
 30
0.0
 11
3.199699999999998
 21
2.207580842988713
 31
0.0
  0
LINE
  5
95
100
AcDbEntity
  8
USP-GEO
100
AcDbLine
 10
3.012200000000028
 20
0.0746999999999964
 30
0.0
 11
3.199699999999996
 21
0.0746999999999962
 31
0.0
  0
LINE
  5
96
100
AcDbEntity
  8
USP-GEO
100
AcDbLine
 10
3.012200000000028
 20
-0.0000000000000036
 30
0.0
 11
3.274399999999996
 21
-0.0000000000000038
 31
0.0
  0
LINE
  5
97
100
AcDbEntity
  8
USP-HID
100
AcDbLine
 10
2.137199999999971
 20
0.0746999999999858
 30
0.0
 11
2.137199999999971
 21
-0.0000000000000169
 31
0.0
  0
LINE
  5
98
100
AcDbEntity
  8
USP-HID
100
AcDbLine
 10
2.26447922061353
 20
0.074699999999968
 30
0.0
 11
2.26447922061353
 21
-0.0000000000000313
 31
0.0
  0
LINE
  5
99
100
AcDbEntity
  8
USP-GEO
100
AcDbLine
 10
3.01220000000003
 20
0.0747000000000036
 30
0.0
 11
3.01220000000003
 21
0.0000000000000029
 31
0.0
  0
LINE
  5
9A
100
AcDbEntity
  8
USP-GEO
100
AcDbLine
 10
3.274399999999998
 20
0.3872000000000306
 30
0.0
 11
3.274399999999998
 21
0.5191984085206474
 31
0.0
  0
LINE
  5
9B
100
AcDbEntity
  8
USP-GEO
100
AcDbLine
 10
3.199699999999998
 20
0.3872000000000326
 30
0.0
 11
3.199699999999998
 21
0.5191984085206496
 31
0.0
  0
LINE
  5
9C
100
AcDbEntity
  8
USP-GEO
100
AcDbLine
 10
3.274399999999996
 20
-0.0000000000000036
 30
0.0
 11
3.274399999999996
 21
0.3872000000000546
 31
0.0
  0
LINE
  5
9D
100
AcDbEntity
  8
USP-GEO
100
AcDbLine
 10
3.199699999999999
 20
0.0746999999999956
 30
0.0
 11
3.199699999999999
 21
0.3872000000000511
 31
0.0
  0
LINE
  5
9E
100
AcDbEntity
  8
USP-GEO
100
AcDbLine
 10
3.199699999999996
 20
0.3872000000000319
 30
0.0
 11
3.274399999999998
 21
0.3872000000000319
 31
0.0
  0
LINE
  5
9F
100
AcDbEntity
  8
USP-HID
100
AcDbLine
 10
3.199699999999999
 20
1.469181269625707
 30
0.0
 11
3.274399999999998
 21
1.469181269625707
 31
0.0
  0
CIRCLE
  5
A0
100
AcDbEntity
  8
USP-GEO
100
AcDbCircle
 10
2.824699999999939
 20
4.699699999999651
 30
0.0
 40
0.086
  0
ARC
  5
A1
100
AcDbEntity
  8
USP-GEO
100
AcDbCircle
 10
3.199699999999992
 20
4.14233089714396
 30
0.0
 40
0.095
100
AcDbArc
 50
90.0
 51
270.0
  0
CIRCLE
  5
A2
100
AcDbEntity
  8
USP-GEO
100
AcDbCircle
 10
2.637199999999936
 20
3.053195044271106
 30
0.0
 40
0.086
  0
CIRCLE
  5
A3
100
AcDbEntity
  8
USP-GEO
100
AcDbCircle
 10
2.824699999999936
 20
2.495353208069371
 30
0.0
 40
0.086
  0
CIRCLE
  5
A4
100
AcDbEntity
  8
USP-GEO
100
AcDbCircle
 10
2.449699999999937
 20
3.824699999999651
 30
0.0
 40
0.086
  0
LINE
  5
A5
100
AcDbEntity
  8
USP-GEO
100
AcDbLine
 10
3.274400000000001
 20
2.207580842988706
 30
0.0
 11
3.274400000000003
 21
3.934691949005118
 31
0.0
  0
LINE
  5
A6
100
AcDbEntity
  8
USP-GEO
100
AcDbLine
 10
3.199699999999999
 20
3.934691949005118
 30
0.0
 11
3.199699999999998
 21
2.20758084298871
 31
0.0
  0
LINE
  5
A7
100
AcDbEntity
  8
USP-HID
100
AcDbLine
 10
3.199700000000001
 20
2.18019999999974
 30
0.0
 11
3.274399999999999
 21
2.18019999999974
 31
0.0
  0
LINE
  5
A8
100
AcDbEntity
  8
USP-HID
100
AcDbLine
 10
3.199699999999999
 20
2.34419999999974
 30
0.0
 11
3.274399999999999
 21
2.34419999999974
 31
0.0
  0
LINE
  5
A9
100
AcDbEntity
  8
USP-HID
100
AcDbLine
 10
3.199700000000001
 20
4.237330897143962
 30
0.0
 11
3.274400000000001
 21
4.237330897143962
 31
0.0
  0
LINE
  5
AA
100
AcDbEntity
  8
USP-HID
100
AcDbLine
 10
3.199700000000003
 20
4.047330897143961
 30
0.0
 11
3.274400000000001
 21
4.047330897143961
 31
0.0
  0
LINE
  5
AB
100
AcDbEntity
  8
USP-HID
100
AcDbLine
 10
3.199699999999999
 20
4.140537232443331
 30
0.0
 11
3.274400000000003
 21
4.140537232443331
 31
0.0
  0
LINE
  5
AC
100
AcDbEntity
  8
USP-HID
100
AcDbLine
 10
3.199700000000001
 20
3.976537232443331
 30
0.0
 11
3.274400000000001
 21
3.976537232443331
 31
0.0
  0
CIRCLE
  5
AD
100
AcDbEntity
  8
USP-GEO
100
AcDbCircle
 10
2.637199999999939
 20
5.699699999999651
 30
0.0
 40
0.086
  0
CIRCLE
  5
AE
100
AcDbEntity
  8
USP-GEO
100
AcDbCircle
 10
2.449699999999941
 20
6.699699999999644
 30
0.0
 40
0.086
  0
LINE
  5
AF
100
AcDbEntity
  8
USP-HID
100
AcDbLine
 10
3.199700000000001
 20
4.939901308014383
 30
0.0
 11
3.274400000000003
 21
4.939901308014383
 31
0.0
  0
LINE
  5
B0
100
AcDbEntity
  8
USP-HID
100
AcDbLine
 10
3.199700000000003
 20
4.775901308014383
 30
0.0
 11
3.274399999999999
 21
4.775901308014383
 31
0.0
  0
LINE
  5
B1
100
AcDbEntity
  8
USP-HID
100
AcDbLine
 10
3.199700000000003
 20
6.425769385878241
 30
0.0
 11
3.274400000000003
 21
6.425769385878241
 31
0.0
  0
LINE
  5
B2
100
AcDbEntity
  8
USP-HID
100
AcDbLine
 10
3.199700000000005
 20
6.73276938587824
 30
0.0
 11
3.274400000000003
 21
6.73276938587824
 31
0.0
  0
LINE
  5
B3
100
AcDbEntity
  8
USP-GEO
100
AcDbLine
 10
0.0747000000000107
 20
9.074699999999708
 30
0.0
 11
1.19970000000001
 21
9.074699999999706
 31
0.0
  0
CIRCLE
  5
B4
100
AcDbEntity
  8
USP-GEO
100
AcDbCircle
 10
0.6372000000000764
 20
8.824699999999708
 30
0.0
 40
0.086
  0
CIRCLE
  5
B5
100
AcDbEntity
  8
USP-GEO
100
AcDbCircle
 10
0.4497000000000764
 20
7.824699999999708
 30
0.0
 40
0.086
  0
LINE
  5
B6
100
AcDbEntity
  8
USP-HID
100
AcDbLine
 10
0.0747000000000124
 20
7.408921005441456
 30
0.0
 11
0.0000000000000107
 21
7.408921005441456
 31
0.0
  0
LINE
  5
B7
100
AcDbEntity
  8
USP-HID
100
AcDbLine
 10
0.0747000000000107
 20
7.572921005441457
 30
0.0
 11
0.0000000000000107
 21
7.572921005441457
 31
0.0
  0
LINE
  5
B8
100
AcDbEntity
  8
USP-HID
100
AcDbLine
 10
0.0747000000000124
 20
8.280848615980985
 30
0.0
 11
0.0000000000000142
 21
8.280848615980985
 31
0.0
  0
LINE
  5
B9
100
AcDbEntity
  8
USP-HID
100
AcDbLine
 10
0.0747000000000142
 20
8.444848615980987
 30
0.0
 11
0.0000000000000142
 21
8.444848615980987
 31
0.0
  0
LINE
  5
BA
100
AcDbEntity
  8
USP-GEO
100
AcDbLine
 10
0.0747000000000107
 20
9.074699999999872
 30
0.0
 11
0.0000000000000142
 21
9.074699999999872
 31
0.0
  0
LINE
  5
BB
100
AcDbEntity
  8
USP-GEO
100
AcDbLine
 10
3.199700000000007
 20
9.074699999999644
 30
0.0
 11
2.074700000000014
 21
9.074699999999646
 31
0.0
  0
CIRCLE
  5
BC
100
AcDbEntity
  8
USP-GEO
100
AcDbCircle
 10
2.637199999999943
 20
8.699699999999651
 30
0.0
 40
0.086
  0
CIRCLE
  5
BD
100
AcDbEntity
  8
USP-GEO
100
AcDbCircle
 10
2.824699999999943
 20
7.699699999999651
 30
0.0
 40
0.086
  0
LINE
  5
BE
100
AcDbEntity
  8
USP-HID
100
AcDbLine
 10
3.199700000000007
 20
7.596421005441399
 30
0.0
 11
3.274400000000007
 21
7.596421005441399
 31
0.0
  0
LINE
  5
BF
100
AcDbEntity
  8
USP-HID
100
AcDbLine
 10
3.199700000000007
 20
7.760421005441401
 30
0.0
 11
3.274400000000005
 21
7.760421005441401
 31
0.0
  0
LINE
  5
C0
100
AcDbEntity
  8
USP-HID
100
AcDbLine
 10
3.199700000000007
 20
8.63234861598093
 30
0.0
 11
3.274400000000007
 21
8.63234861598093
 31
0.0
  0
LINE
  5
C1
100
AcDbEntity
  8
USP-HID
100
AcDbLine
 10
3.199700000000007
 20
8.468348615980929
 30
0.0
 11
3.274400000000007
 21
8.468348615980929
 31
0.0
  0
LINE
  5
C2
100
AcDbEntity
  8
USP-GEO
100
AcDbLine
 10
3.199700000000007
 20
9.074699999999815
 30
0.0
 11
3.274400000000007
 21
9.074699999999815
 31
0.0
  0
ENDBLK
  5
C4
100
AcDbEntity
  8
0
100
AcDbBlockEnd
  0
BLOCK
  5
115
100
AcDbEntity
  8
0
100
AcDbBlockBegin
  2
HD410IF_T
 70
     0
 10
0.0
 20
0.0
 30
0.0
  3
HD410IF_T
  1

  0
TEXT
  5
C7
100
AcDbEntity
  8
USP-TXT
100
AcDbText
 10
-0.9109770833333339
 20
-0.9505986015029748
 30
0.0
 40
0.296875
  1
HD410IF - TOP VIEW
 72
     1
 11
1.637199999999998
 21
-0.9505986015029748
 31
0.0
100
AcDbText
  0
LINE
  5
C8
100
AcDbEntity
  8
USP-GEO
100
AcDbLine
 10
0.2622
 20
0.0000000000000284
 30
0.0
 11
3.012200000000028
 21
-0.0000000000000284
 31
0.0
  0
LINE
  5
C9
100
AcDbEntity
  8
USP-GEO
100
AcDbLine
 10
0.2621999999999698
 20
2.499973256841137
 30
0.0
 11
3.012200000000055
 21
2.499973256841222
 31
0.0
  0
LINE
  5
CA
100
AcDbEntity
  8
USP-GEO
100
AcDbLine
 10
2.137199999999968
 20
0.1727207793864274
 30
0.0
 11
2.009920779386352
 21
0.3000000000000167
 31
0.0
  0
LINE
  5
CB
100
AcDbEntity
  8
USP-GEO
100
AcDbLine
 10
2.009920779386353
 20
0.3000000000000149
 30
0.0
 11
2.137199999999968
 21
0.4272792206135741
 31
0.0
  0
LINE
  5
CC
100
AcDbEntity
  8
USP-GEO
100
AcDbLine
 10
0.0000000000000089
 20
2.76220000000108
 30
0.0
 11
0.0000000000000089
 21
1.312226743159911
 31
0.0
  0
LINE
  5
CD
100
AcDbEntity
  8
USP-GEO
100
AcDbLine
 10
0.0747000000000071
 20
2.68750000000108
 30
0.0
 11
0.0747000000000071
 21
1.312226743159911
 31
0.0
  0
LINE
  5
CE
100
AcDbEntity
  8
USP-GEO
100
AcDbLine
 10
0.0000000000000018
 20
1.312226743159754
 30
0.0
 11
0.0000000000000018
 21
0.6562633715796747
 31
0.0
  0
LINE
  5
CF
100
AcDbEntity
  8
USP-GEO
100
AcDbLine
 10
0.0747000000000018
 20
0.6562633715796747
 30
0.0
 11
0.0747000000000018
 21
1.312226743159754
 31
0.0
  0
LINE
  5
D0
100
AcDbEntity
  8
USP-GEO
100
AcDbLine
 10
-0.0000000000000018
 20
0.6562633715796676
 30
0.0
 11
-0.0000000000000018
 21
0.0000000000000497
 31
0.0
  0
LINE
  5
D1
100
AcDbEntity
  8
USP-GEO
100
AcDbLine
 10
0.0747
 20
0.6562633715796747
 30
0.0
 11
0.0747
 21
0.0000000000000568
 31
0.0
  0
LINE
  5
D2
100
AcDbEntity
  8
USP-GEO
100
AcDbLine
 10
0.2621999999999982
 20
0.0624999999999574
 30
0.0
 11
0.0747000000000018
 21
0.0624999999999521
 31
0.0
  0
LINE
  5
D3
100
AcDbEntity
  8
USP-HID
100
AcDbLine
 10
0.0747
 20
0.0624999999999787
 30
0.0
 11
0.0
 21
0.0624999999999787
 31
0.0
  0
LINE
  5
D4
100
AcDbEntity
  8
USP-GEO
100
AcDbLine
 10
0.0747
 20
0.0
 30
0.0
 11
0.0
 21
0.0
 31
0.0
  0
LINE
  5
D5
100
AcDbEntity
  8
USP-GEO
100
AcDbLine
 10
0.2621999999999982
 20
0.0624999999999645
 30
0.0
 11
0.2621999999999698
 21
-0.0000000000000338
 31
0.0
  0
LINE
  5
D6
100
AcDbEntity
  8
USP-HID
100
AcDbLine
 10
0.0747000000000018
 20
1.31252674315926
 30
0.0
 11
0.0000000000000018
 21
1.31252674315926
 31
0.0
  0
LINE
  5
D7
100
AcDbEntity
  8
USP-GEO
100
AcDbLine
 10
0.0747000000000089
 20
1.312226743159911
 30
0.0
 11
0.0000000000000124
 21
1.312226743159911
 31
0.0
  0
LINE
  5
D8
100
AcDbEntity
  8
USP-HID
100
AcDbLine
 10
0.0747000000000089
 20
1.605226743159803
 30
0.0
 11
0.0000000000000089
 21
1.605226743159803
 31
0.0
  0
LINE
  5
D9
100
AcDbEntity
  8
USP-HID
100
AcDbLine
 10
0.0747000000000089
 20
1.769226743159805
 30
0.0
 11
0.0000000000000089
 21
1.769226743159805
 31
0.0
  0
LINE
  5
DA
100
AcDbEntity
  8
USP-HID
100
AcDbLine
 10
0.0747000000000053
 20
2.096500000000773
 30
0.0
 11
0.0000000000000053
 21
2.096500000000773
 31
0.0
  0
LINE
  5
DB
100
AcDbEntity
  8
USP-GEO
100
AcDbLine
 10
1.137199999999968
 20
0.4272792206135687
 30
0.0
 11
1.264479220613527
 21
0.3000000000000096
 31
0.0
  0
LINE
  5
DC
100
AcDbEntity
  8
USP-GEO
100
AcDbLine
 10
1.264479220613528
 20
0.3000000000000114
 30
0.0
 11
1.137199999999971
 21
0.1727207793864256
 31
0.0
  0
LINE
  5
DD
100
AcDbEntity
  8
USP-GEO
100
AcDbLine
 10
1.137199999999968
 20
0.1727207793864292
 30
0.0
 11
1.00992077938635
 21
0.3000000000000167
 31
0.0
  0
LINE
  5
DE
100
AcDbEntity
  8
USP-GEO
100
AcDbLine
 10
1.009920779386353
 20
0.3000000000000131
 30
0.0
 11
1.137199999999969
 21
0.4272792206135723
 31
0.0
  0
CIRCLE
  5
DF
100
AcDbEntity
  8
USP-GEO
100
AcDbCircle
 10
1.637199999999998
 20
0.9999866284205864
 30
0.0
 40
0.1535
  0
LINE
  5
E0
100
AcDbEntity
  8
USP-GEO
100
AcDbLine
 10
0.0747000000000089
 20
2.68750000000108
 30
0.0
 11
1.199700000000008
 21
2.68750000000108
 31
0.0
  0
LINE
  5
E1
100
AcDbEntity
  8
USP-GEO
100
AcDbLine
 10
1.199700000000005
 20
2.76220000000108
 30
0.0
 11
0.0000000000000089
 21
2.76220000000108
 31
0.0
  0
LINE
  5
E2
100
AcDbEntity
  8
USP-GEO
100
AcDbLine
 10
0.2621999999999716
 20
2.437473256841222
 30
0.0
 11
0.0746999999999982
 21
2.437473256841226
 31
0.0
  0
LINE
  5
E3
100
AcDbEntity
  8
USP-HID
100
AcDbLine
 10
0.0746999999999982
 20
2.437473256841265
 30
0.0
 11
-0.0000000000000018
 21
2.437473256841265
 31
0.0
  0
LINE
  5
E4
100
AcDbEntity
  8
USP-HID
100
AcDbLine
 10
0.0746999999999982
 20
2.499973256841279
 30
0.0
 11
-0.0000000000000018
 21
2.499973256841279
 31
0.0
  0
LINE
  5
E5
100
AcDbEntity
  8
USP-HID
100
AcDbLine
 10
0.0747000000000053
 20
2.403500000000775
 30
0.0
 11
0.0000000000000053
 21
2.403500000000775
 31
0.0
  0
LINE
  5
E6
100
AcDbEntity
  8
USP-HID
100
AcDbLine
 10
0.0746999999999982
 20
2.68750000000012
 30
0.0
 11
0.0
 21
2.68750000000012
 31
0.0
  0
LINE
  5
E7
100
AcDbEntity
  8
USP-HID
100
AcDbLine
 10
0.0747000000000036
 20
2.592500000000484
 30
0.0
 11
0.0
 21
2.592500000000484
 31
0.0
  0
LINE
  5
E8
100
AcDbEntity
  8
USP-HID
100
AcDbLine
 10
0.0746999999999982
 20
2.68750000000012
 30
0.0
 11
0.0746999999999982
 21
2.76220000000012
 31
0.0
  0
LINE
  5
E9
100
AcDbEntity
  8
USP-HID
100
AcDbLine
 10
0.1697000000000113
 20
2.687500000000511
 30
0.0
 11
0.1697000000000113
 21
2.762200000000504
 31
0.0
  0
LINE
  5
EA
100
AcDbEntity
  8
USP-GEO
100
AcDbLine
 10
0.2621999999999982
 20
2.437473256841222
 30
0.0
 11
0.2621999999999698
 21
2.499973256841137
 31
0.0
  0
LINE
  5
EB
100
AcDbEntity
  8
USP-HID
100
AcDbLine
 10
0.3637000000000725
 20
2.68750000000093
 30
0.0
 11
0.3637000000000725
 21
2.76220000000093
 31
0.0
  0
LINE
  5
EC
100
AcDbEntity
  8
USP-HID
100
AcDbLine
 10
0.5357000000000732
 20
2.68750000000093
 30
0.0
 11
0.5357000000000732
 21
2.76220000000093
 31
0.0
  0
LINE
  5
ED
100
AcDbEntity
  8
USP-HID
100
AcDbLine
 10
0.5512000000000726
 20
2.687500000001051
 30
0.0
 11
0.5512000000000726
 21
2.762200000001051
 31
0.0
  0
LINE
  5
EE
100
AcDbEntity
  8
USP-HID
100
AcDbLine
 10
0.738700000000069
 20
2.68750000000081
 30
0.0
 11
0.738700000000069
 21
2.76220000000081
 31
0.0
  0
LINE
  5
EF
100
AcDbEntity
  8
USP-HID
100
AcDbLine
 10
0.7232000000000732
 20
2.687500000001051
 30
0.0
 11
0.7232000000000732
 21
2.762200000001051
 31
0.0
  0
LINE
  5
F0
100
AcDbEntity
  8
USP-HID
100
AcDbLine
 10
0.9107000000000695
 20
2.68750000000081
 30
0.0
 11
0.9107000000000695
 21
2.76220000000081
 31
0.0
  0
LINE
  5
F1
100
AcDbEntity
  8
USP-GEO
100
AcDbLine
 10
1.199700000000007
 20
2.68750000000108
 30
0.0
 11
1.199700000000007
 21
2.76220000000108
 31
0.0
  0
LINE
  5
F2
100
AcDbEntity
  8
USP-GEO
100
AcDbLine
 10
3.274400000000001
 20
1.312226743159911
 30
0.0
 11
3.274400000000001
 21
2.76220000000108
 31
0.0
  0
LINE
  5
F3
100
AcDbEntity
  8
USP-GEO
100
AcDbLine
 10
3.199700000000001
 20
2.68750000000108
 30
0.0
 11
3.199700000000001
 21
1.312226743159911
 31
0.0
  0
LINE
  5
F4
100
AcDbEntity
  8
USP-GEO
100
AcDbLine
 10
3.012200000000026
 20
0.0624999999999645
 30
0.0
 11
3.199699999999994
 21
0.0624999999999592
 31
0.0
  0
LINE
  5
F5
100
AcDbEntity
  8
USP-GEO
100
AcDbLine
 10
2.264479220613528
 20
0.3000000000000131
 30
0.0
 11
2.137199999999969
 21
0.1727207793864256
 31
0.0
  0
LINE
  5
F6
100
AcDbEntity
  8
USP-GEO
100
AcDbLine
 10
2.137199999999971
 20
0.4272792206135776
 30
0.0
 11
2.264479220613528
 21
0.3000000000000185
 31
0.0
  0
LINE
  5
F7
100
AcDbEntity
  8
USP-GEO
100
AcDbLine
 10
3.012199999999998
 20
0.0624999999999645
 30
0.0
 11
3.012200000000026
 21
-0.0000000000000231
 31
0.0
  0
LINE
  5
F8
100
AcDbEntity
  8
USP-GEO
100
AcDbLine
 10
3.274399999999999
 20
0.6562633715796747
 30
0.0
 11
3.274399999999999
 21
1.312226743159754
 31
0.0
  0
LINE
  5
F9
100
AcDbEntity
  8
USP-GEO
100
AcDbLine
 10
3.199699999999996
 20
1.312226743159754
 30
0.0
 11
3.199699999999996
 21
0.6562633715796747
 31
0.0
  0
LINE
  5
FA
100
AcDbEntity
  8
USP-GEO
100
AcDbLine
 10
3.274399999999996
 20
0.0000000000000568
 30
0.0
 11
3.274399999999996
 21
0.6562633715796729
 31
0.0
  0
LINE
  5
FB
100
AcDbEntity
  8
USP-GEO
100
AcDbLine
 10
3.199699999999996
 20
0.0000000000000497
 30
0.0
 11
3.199699999999996
 21
0.6562633715796658
 31
0.0
  0
LINE
  5
FC
100
AcDbEntity
  8
USP-HID
100
AcDbLine
 10
3.199699999999996
 20
0.0624999999999858
 30
0.0
 11
3.274399999999994
 21
0.0624999999999858
 31
0.0
  0
LINE
  5
FD
100
AcDbEntity
  8
USP-GEO
100
AcDbLine
 10
3.199699999999994
 20
-0.0000000000000071
 30
0.0
 11
3.274399999999996
 21
-0.0000000000000071
 31
0.0
  0
LINE
  5
FE
100
AcDbEntity
  8
USP-HID
100
AcDbLine
 10
3.199699999999996
 20
1.31252674315926
 30
0.0
 11
3.274399999999999
 21
1.31252674315926
 31
0.0
  0
LINE
  5
FF
100
AcDbEntity
  8
USP-GEO
100
AcDbLine
 10
3.199700000000003
 20
1.312226743159911
 30
0.0
 11
3.274400000000003
 21
1.312226743159911
 31
0.0
  0
LINE
  5
100
100
AcDbEntity
  8
USP-HID
100
AcDbLine
 10
3.199700000000005
 20
1.769226743159826
 30
0.0
 11
3.274400000000001
 21
1.769226743159826
 31
0.0
  0
LINE
  5
101
100
AcDbEntity
  8
USP-HID
100
AcDbLine
 10
3.199700000000005
 20
1.605226743159825
 30
0.0
 11
3.274400000000001
 21
1.605226743159825
 31
0.0
  0
LINE
  5
102
100
AcDbEntity
  8
USP-HID
100
AcDbLine
 10
3.199699999999999
 20
2.096500000000766
 30
0.0
 11
3.274400000000001
 21
2.096500000000766
 31
0.0
  0
LINE
  5
103
100
AcDbEntity
  8
USP-GEO
100
AcDbLine
 10
3.199700000000005
 20
2.68750000000108
 30
0.0
 11
2.074700000000012
 21
2.68750000000108
 31
0.0
  0
LINE
  5
104
100
AcDbEntity
  8
USP-GEO
100
AcDbLine
 10
3.012199999999998
 20
2.437473256841222
 30
0.0
 11
3.199699999999994
 21
2.437473256841226
 31
0.0
  0
LINE
  5
105
100
AcDbEntity
  8
USP-GEO
100
AcDbLine
 10
3.274400000000001
 20
2.76220000000108
 30
0.0
 11
2.074700000000008
 21
2.76220000000108
 31
0.0
  0
LINE
  5
106
100
AcDbEntity
  8
USP-GEO
100
AcDbLine
 10
2.074700000000012
 20
2.68750000000108
 30
0.0
 11
2.074700000000012
 21
2.76220000000108
 31
0.0
  0
LINE
  5
107
100
AcDbEntity
  8
USP-HID
100
AcDbLine
 10
2.363699999999937
 20
2.687500000000795
 30
0.0
 11
2.363699999999937
 21
2.762200000000795
 31
0.0
  0
LINE
  5
108
100
AcDbEntity
  8
USP-HID
100
AcDbLine
 10
2.551199999999939
 20
2.687500000001037
 30
0.0
 11
2.551199999999939
 21
2.762200000001037
 31
0.0
  0
LINE
  5
109
100
AcDbEntity
  8
USP-HID
100
AcDbLine
 10
2.535699999999938
 20
2.687500000000795
 30
0.0
 11
2.535699999999938
 21
2.762200000000795
 31
0.0
  0
LINE
  5
10A
100
AcDbEntity
  8
USP-HID
100
AcDbLine
 10
2.723199999999939
 20
2.687500000001037
 30
0.0
 11
2.723199999999939
 21
2.762200000001037
 31
0.0
  0
LINE
  5
10B
100
AcDbEntity
  8
USP-HID
100
AcDbLine
 10
2.738699999999937
 20
2.687500000000916
 30
0.0
 11
2.738699999999937
 21
2.762200000000916
 31
0.0
  0
LINE
  5
10C
100
AcDbEntity
  8
USP-GEO
100
AcDbLine
 10
3.012199999999998
 20
2.437473256841222
 30
0.0
 11
3.012200000000026
 21
2.499973256841222
 31
0.0
  0
LINE
  5
10D
100
AcDbEntity
  8
USP-HID
100
AcDbLine
 10
2.910699999999938
 20
2.687500000000916
 30
0.0
 11
2.910699999999938
 21
2.762200000000916
 31
0.0
  0
LINE
  5
10E
100
AcDbEntity
  8
USP-HID
100
AcDbLine
 10
3.10469999999999
 20
2.687500000000483
 30
0.0
 11
3.10469999999999
 21
2.762200000000483
 31
0.0
  0
LINE
  5
10F
100
AcDbEntity
  8
USP-HID
100
AcDbLine
 10
3.199699999999992
 20
2.499973256841279
 30
0.0
 11
3.274399999999994
 21
2.499973256841279
 31
0.0
  0
LINE
  5
110
100
AcDbEntity
  8
USP-HID
100
AcDbLine
 10
3.199699999999994
 20
2.437473256841265
 30
0.0
 11
3.274399999999996
 21
2.437473256841265
 31
0.0
  0
LINE
  5
111
100
AcDbEntity
  8
USP-HID
100
AcDbLine
 10
3.199699999999999
 20
2.403500000000768
 30
0.0
 11
3.274400000000001
 21
2.403500000000768
 31
0.0
  0
LINE
  5
112
100
AcDbEntity
  8
USP-HID
100
AcDbLine
 10
3.199699999999996
 20
2.687500000000099
 30
0.0
 11
3.274399999999994
 21
2.687500000000099
 31
0.0
  0
LINE
  5
113
100
AcDbEntity
  8
USP-HID
100
AcDbLine
 10
3.199699999999998
 20
2.592500000000462
 30
0.0
 11
3.274399999999998
 21
2.592500000000462
 31
0.0
  0
LINE
  5
114
100
AcDbEntity
  8
USP-HID
100
AcDbLine
 10
3.199699999999994
 20
2.762200000000099
 30
0.0
 11
3.199699999999994
 21
2.687500000000099
 31
0.0
  0
ENDBLK
  5
116
100
AcDbEntity
  8
0
100
AcDbBlockEnd
  0
ENDSEC
  0
SECTION
  2
ENTITIES
  0
INSERT
  5
3
100
AcDbEntity
  8
USP
100
AcDbBlockReference
  2
HD410IF_S
 10
1.904123485228058
 20
1.450922045556992
 30
0.0
  0
INSERT
  5
60
100
AcDbEntity
  8
USP
100
AcDbBlockReference
  2
HD410IF_F
 10
9.081447117830617
 20
1.450922045557284
 30
0.0
  0
INSERT
  5
C5
100
AcDbEntity
  8
USP
100
AcDbBlockReference
  2
HD410IF_T
 10
9.081447117830633
 20
14.88173160951755
 30
0.0
  0
ENDSEC
  0
SECTION
  2
OBJECTS
  0
DICTIONARY
  5
12B
102
{ACAD_XDICTIONARY
360
12C
102
}
100
AcDbDictionary
  3
ACAD_GROUP
350
129
  3
ACAD_MLINESTYLE
350
12A
1001
ACAD
1000
TREAT_AS_HARD
1070
     0
  0
DICTIONARY
  5
A
100
AcDbDictionary
280
     1
1001
ACAD
1000
TREAT_AS_HARD
1070
     1
  0
DICTIONARY
  5
117
100
AcDbDictionary
280
     1
  0
DICTIONARY
  5
11B
100
AcDbDictionary
280
     1
  0
DICTIONARY
  5
12C
100
AcDbDictionary
280
     1
  0
DICTIONARY
  5
129
102
{ACAD_REACTORS
330
12B
102
}
100
AcDbDictionary
1001
ACAD
1000
TREAT_AS_HARD
1070
     0
  0
DICTIONARY
  5
12A
102
{ACAD_REACTORS
330
12B
102
}
100
AcDbDictionary
  3
STANDARD
350
12D
1001
ACAD
1000
TREAT_AS_HARD
1070
     0
  0
MLINESTYLE
  5
12D
102
{ACAD_REACTORS
330
12A
102
}
100
AcDbMlineStyle
  2
STANDARD
 70
     0
  3

 62
     0
 51
90.0
 52
90.0
 71
     2
 49
0.5
 62
   256
  6
BYLAYER
 49
-0.5
 62
   256
  6
BYLAYER
  0
ENDSEC
  0
EOF
