  0
SECTION
  2
HEADER
  9
$ACADVER
  1
AC1018
  9
$ACADMAINTVER
 70
     0
  9
$DWGCODEPAGE
  3
ANSI_1252
  9
$INSBASE
 10
0.0
 20
0.0
 30
0.0
  9
$EXTMIN
 10
1.599557154554907
 20
3.423286291260924
 30
0.0
  9
$EXTMAX
 10
7.551039101441816
 20
8.968929571715618
 30
0.0
  9
$LIMMIN
 10
0.0
 20
0.0
  9
$LIMMAX
 10
8.5
 20
11.0
  9
$ORTHOMODE
 70
     0
  9
$REGENMODE
 70
     1
  9
$FILLMODE
 70
     1
  9
$QTEXTMODE
 70
     0
  9
$MIRRTEXT
 70
     1
  9
$LTSCALE
 40
1.0
  9
$ATTMODE
 70
     1
  9
$TEXTSIZE
 40
0.25
  9
$TRACEWID
 40
0.05
  9
$TEXTSTYLE
  7
Standard
  9
$CLAYER
  8
0
  9
$CELTYPE
  6
ByLayer
  9
$CECOLOR
 62
   256
  9
$CELTSCALE
 40
1.0
  9
$DISPSILH
 70
     0
  9
$DIMSCALE
 40
1.0
  9
$DIMASZ
 40
0.156
  9
$DIMEXO
 40
0.05
  9
$DIMDLI
 40
0.38
  9
$DIMRND
 40
0.0
  9
$DIMDLE
 40
0.0
  9
$DIMEXE
 40
0.125
  9
$DIMTP
 40
0.0
  9
$DIMTM
 40
0.0
  9
$DIMTXT
 40
0.125
  9
$DIMCEN
 40
0.09
  9
$DIMTSZ
 40
0.0
  9
$DIMTOL
 70
     0
  9
$DIMLIM
 70
     0
  9
$DIMTIH
 70
     1
  9
$DIMTOH
 70
     1
  9
$DIMSE1
 70
     0
  9
$DIMSE2
 70
     0
  9
$DIMTAD
 70
     0
  9
$DIMZIN
 70
     0
  9
$DIMBLK
  1

  9
$DIMASO
 70
     1
  9
$DIMSHO
 70
     1
  9
$DIMPOST
  1

  9
$DIMAPOST
  1

  9
$DIMALT
 70
     0
  9
$DIMALTD
 70
     2
  9
$DIMALTF
 40
25.4
  9
$DIMLFAC
 40
8.0
  9
$DIMTOFL
 70
     0
  9
$DIMTVP
 40
0.0
  9
$DIMTIX
 70
     0
  9
$DIMSOXD
 70
     0
  9
$DIMSAH
 70
     0
  9
$DIMBLK1
  1

  9
$DIMBLK2
  1

  9
$DIMSTYLE
  2
Standard
  9
$DIMCLRD
 70
     0
  9
$DIMCLRE
 70
     0
  9
$DIMCLRT
 70
     0
  9
$DIMTFAC
 40
1.0
  9
$DIMGAP
 40
0.06
  9
$DIMJUST
 70
     0
  9
$DIMSD1
 70
     0
  9
$DIMSD2
 70
     0
  9
$DIMTOLJ
 70
     1
  9
$DIMTZIN
 70
     0
  9
$DIMALTZ
 70
     0
  9
$DIMALTTZ
 70
     0
  9
$DIMUPT
 70
     0
  9
$DIMDEC
 70
     3
  9
$DIMTDEC
 70
     3
  9
$DIMALTU
 70
     2
  9
$DIMALTTD
 70
     2
  9
$DIMTXSTY
  7
Standard
  9
$DIMAUNIT
 70
     0
  9
$DIMADEC
 70
     0
  9
$DIMALTRND
 40
0.0
  9
$DIMAZIN
 70
     0
  9
$DIMDSEP
 70
    46
  9
$DIMATFIT
 70
     3
  9
$DIMFRAC
 70
     0
  9
$DIMLDRBLK
  1

  9
$DIMLUNIT
 70
     2
  9
$DIMLWD
 70
    -2
  9
$DIMLWE
 70
    -2
  9
$DIMTMOVE
 70
     0
  9
$LUNITS
 70
     2
  9
$LUPREC
 70
     3
  9
$SKETCHINC
 40
0.1
  9
$FILLETRAD
 40
0.5
  9
$AUNITS
 70
     0
  9
$AUPREC
 70
     0
  9
$MENU
  1
.
  9
$ELEVATION
 40
0.0
  9
$PELEVATION
 40
0.0
  9
$THICKNESS
 40
0.0
  9
$LIMCHECK
 70
     0
  9
$CHAMFERA
 40
0.5
  9
$CHAMFERB
 40
0.5
  9
$CHAMFERC
 40
1.0
  9
$CHAMFERD
 40
0.0
  9
$SKPOLY
 70
     0
  9
$TDCREATE
 40
2456499.567651007
  9
$TDUCREATE
 40
2456499.775984340
  9
$TDUPDATE
 40
2456570.390485567
  9
$TDUUPDATE
 40
2456570.598818901
  9
$TDINDWG
 40
0.0011651620
  9
$TDUSRTIMER
 40
0.0011651620
  9
$USRTIMER
 70
     1
  9
$ANGBASE
 50
0.0
  9
$ANGDIR
 70
     0
  9
$PDMODE
 70
     0
  9
$PDSIZE
 40
-1.0
  9
$PLINEWID
 40
0.0
  9
$SPLFRAME
 70
     0
  9
$SPLINETYPE
 70
     6
  9
$SPLINESEGS
 70
     8
  9
$HANDSEED
  5
105
  9
$SURFTAB1
 70
     6
  9
$SURFTAB2
 70
     6
  9
$SURFTYPE
 70
     6
  9
$SURFU
 70
     6
  9
$SURFV
 70
     6
  9
$UCSBASE
  2

  9
$UCSNAME
  2

  9
$UCSORG
 10
0.0
 20
0.0
 30
0.0
  9
$UCSXDIR
 10
1.0
 20
0.0
 30
0.0
  9
$UCSYDIR
 10
0.0
 20
1.0
 30
0.0
  9
$UCSORTHOREF
  2

  9
$UCSORTHOVIEW
 70
     0
  9
$UCSORGTOP
 10
0.0
 20
0.0
 30
0.0
  9
$UCSORGBOTTOM
 10
0.0
 20
0.0
 30
0.0
  9
$UCSORGLEFT
 10
0.0
 20
0.0
 30
0.0
  9
$UCSORGRIGHT
 10
0.0
 20
0.0
 30
0.0
  9
$UCSORGFRONT
 10
0.0
 20
0.0
 30
0.0
  9
$UCSORGBACK
 10
0.0
 20
0.0
 30
0.0
  9
$PUCSBASE
  2

  9
$PUCSNAME
  2

  9
$PUCSORG
 10
0.0
 20
0.0
 30
0.0
  9
$PUCSXDIR
 10
1.0
 20
0.0
 30
0.0
  9
$PUCSYDIR
 10
0.0
 20
1.0
 30
0.0
  9
$PUCSORTHOREF
  2

  9
$PUCSORTHOVIEW
 70
     0
  9
$PUCSORGTOP
 10
0.0
 20
0.0
 30
0.0
  9
$PUCSORGBOTTOM
 10
0.0
 20
0.0
 30
0.0
  9
$PUCSORGLEFT
 10
0.0
 20
0.0
 30
0.0
  9
$PUCSORGRIGHT
 10
0.0
 20
0.0
 30
0.0
  9
$PUCSORGFRONT
 10
0.0
 20
0.0
 30
0.0
  9
$PUCSORGBACK
 10
0.0
 20
0.0
 30
0.0
  9
$USERI1
 70
     0
  9
$USERI2
 70
     0
  9
$USERI3
 70
     0
  9
$USERI4
 70
     0
  9
$USERI5
 70
     0
  9
$USERR1
 40
0.0
  9
$USERR2
 40
0.0
  9
$USERR3
 40
0.0
  9
$USERR4
 40
0.0
  9
$USERR5
 40
0.0
  9
$WORLDVIEW
 70
     1
  9
$SHADEDGE
 70
     3
  9
$SHADEDIF
 70
    70
  9
$TILEMODE
 70
     1
  9
$MAXACTVP
 70
    64
  9
$PINSBASE
 10
0.0
 20
0.0
 30
0.0
  9
$PLIMCHECK
 70
     0
  9
$PEXTMIN
 10
1.000000000000000E+20
 20
1.000000000000000E+20
 30
1.000000000000000E+20
  9
$PEXTMAX
 10
-1.000000000000000E+20
 20
-1.000000000000000E+20
 30
-1.000000000000000E+20
  9
$PLIMMIN
 10
0.0
 20
0.0
  9
$PLIMMAX
 10
12.0
 20
9.0
  9
$UNITMODE
 70
     0
  9
$VISRETAIN
 70
     1
  9
$PLINEGEN
 70
     0
  9
$PSLTSCALE
 70
     1
  9
$TREEDEPTH
 70
  3020
  9
$CMLSTYLE
  2
Standard
  9
$CMLJUST
 70
     0
  9
$CMLSCALE
 40
1.0
  9
$PROXYGRAPHICS
 70
     1
  9
$MEASUREMENT
 70
     0
  9
$CELWEIGHT
370
    -1
  9
$ENDCAPS
280
     0
  9
$JOINSTYLE
280
     0
  9
$LWDISPLAY
290
     1
  9
$INSUNITS
 70
     1
  9
$HYPERLINKBASE
  1

  9
$STYLESHEET
  1

  9
$XEDIT
290
     1
  9
$CEPSNTYPE
380
     0
  9
$PSTYLEMODE
290
     1
  9
$FINGERPRINTGUID
  2
{B7563F0A-E287-4B0E-AAEE-1AE6F3134607}
  9
$VERSIONGUID
  2
{B2C7E22E-9CDC-42DB-AE13-D76A199822CE}
  9
$EXTNAMES
290
     1
  9
$PSVPSCALE
 40
0.0
  9
$OLESTARTUP
290
     0
  9
$SORTENTS
280
   127
  9
$INDEXCTL
280
     0
  9
$HIDETEXT
280
     0
  9
$XCLIPFRAME
290
     0
  9
$HALOGAP
280
     0
  9
$OBSCOLOR
 70
   257
  9
$OBSLTYPE
280
     0
  9
$INTERSECTIONDISPLAY
280
     0
  9
$INTERSECTIONCOLOR
 70
   257
  9
$DIMASSOC
280
     1
  9
$PROJECTNAME
  1

  0
ENDSEC
  0
SECTION
  2
CLASSES
  0
CLASS
  1
ACDBDICTIONARYWDFLT
  2
AcDbDictionaryWithDefault
  3
ObjectDBX Classes
 90
        0
 91
        1
280
     0
281
     0
  0
CLASS
  1
VISUALSTYLE
  2
AcDbVisualStyle
  3
ObjectDBX Classes
 90
     4095
 91
        0
280
     0
281
     0
  0
CLASS
  1
MATERIAL
  2
AcDbMaterial
  3
ObjectDBX Classes
 90
        0
 91
        0
280
     0
281
     0
  0
ENDSEC
  0
SECTION
  2
TABLES
  0
TABLE
  2
VPORT
  5
8
330
0
100
AcDbSymbolTable
 70
     3
  0
VPORT
  5
104
330
8
100
AcDbSymbolTableRecord
100
AcDbViewportTableRecord
  2
*Active
 70
     0
 10
0.0
 20
0.0
 11
1.0
 21
1.0
 12
5.098723869054801
 22
6.128306438024807
 13
0.0
 23
0.0
 14
0.5
 24
0.5
 15
0.5
 25
0.5
 16
0.0
 26
0.0
 36
1.0
 17
0.0
 27
0.0
 37
0.0
 40
8.626882244787886
 41
2.144329896907216
 42
50.0
 43
0.0
 44
0.0
 50
0.0
 51
0.0
 71
     0
 72
  2000
 73
     1
 74
     3
 75
     0
 76
     0
 77
     0
 78
     0
281
     0
 65
     1
110
0.0
120
0.0
130
0.0
111
1.0
121
0.0
131
0.0
112
0.0
122
1.0
132
0.0
 79
     0
146
0.0
  0
ENDTAB
  0
TABLE
  2
LTYPE
  5
5
330
0
100
AcDbSymbolTable
 70
     6
  0
LTYPE
  5
14
330
5
100
AcDbSymbolTableRecord
100
AcDbLinetypeTableRecord
  2
ByBlock
 70
     0
  3

 72
    65
 73
     0
 40
0.0
  0
LTYPE
  5
15
330
5
100
AcDbSymbolTableRecord
100
AcDbLinetypeTableRecord
  2
ByLayer
 70
     0
  3

 72
    65
 73
     0
 40
0.0
  0
LTYPE
  5
16
330
5
100
AcDbSymbolTableRecord
100
AcDbLinetypeTableRecord
  2
Continuous
 70
     0
  3
Solid line
 72
    65
 73
     0
 40
0.0
  0
LTYPE
  5
3F
330
5
100
AcDbSymbolTableRecord
100
AcDbLinetypeTableRecord
  2
HIDDEN
 70
     0
  3
Hidden __ __ __ __ __ __ __ __ __ __ __ __ __ __
 72
    65
 73
     2
 40
0.075
 49
0.05
 74
     0
 49
-0.025
 74
     0
  0
LTYPE
  5
40
330
5
100
AcDbSymbolTableRecord
100
AcDbLinetypeTableRecord
  2
PHANTOM
 70
     0
  3
Phantom ______  __  __  ______  __  __  ______
 72
    65
 73
     6
 40
0.5
 49
0.25
 74
     0
 49
-0.05
 74
     0
 49
0.05
 74
     0
 49
-0.05
 74
     0
 49
0.05
 74
     0
 49
-0.05
 74
     0
  0
LTYPE
  5
41
330
5
100
AcDbSymbolTableRecord
100
AcDbLinetypeTableRecord
  2
CENTER
 70
     0
  3
Center ____ _ ____ _ ____ _ ____ _ ____ _ ____
 72
    65
 73
     4
 40
0.4
 49
0.25
 74
     0
 49
-0.05
 74
     0
 49
0.05
 74
     0
 49
-0.05
 74
     0
  0
LTYPE
  5
42
330
5
100
AcDbSymbolTableRecord
100
AcDbLinetypeTableRecord
  2
CENTERX2
 70
     0
  3
Center (2x) ________  __  ________  __  _____
 72
    65
 73
     4
 40
0.8
 49
0.5
 74
     0
 49
-0.1
 74
     0
 49
0.1
 74
     0
 49
-0.1
 74
     0
  0
LTYPE
  5
43
330
5
100
AcDbSymbolTableRecord
100
AcDbLinetypeTableRecord
  2
DOT2
 70
     0
  3
Dot (.5x) ........................................
 72
    65
 73
     2
 40
0.025
 49
0.0
 74
     0
 49
-0.025
 74
     0
  0
ENDTAB
  0
TABLE
  2
LAYER
  5
2
330
0
100
AcDbSymbolTable
 70
     7
  0
LAYER
  5
10
330
2
100
AcDbSymbolTableRecord
100
AcDbLayerTableRecord
  2
0
 70
     0
 62
     7
  6
Continuous
370
    -3
390
F
  0
LAYER
  5
44
330
2
100
AcDbSymbolTableRecord
100
AcDbLayerTableRecord
  2
SLD-0
 70
     0
 62
   179
  6
Continuous
370
    -3
390
F
  0
LAYER
  5
45
330
2
100
AcDbSymbolTableRecord
100
AcDbLayerTableRecord
  2
SLD-DEFPOINTS
 70
     0
 62
   179
  6
Continuous
370
    -3
390
F
  0
LAYER
  5
46
330
2
100
AcDbSymbolTableRecord
100
AcDbLayerTableRecord
  2
OBJ
 70
     0
 62
   179
  6
Continuous
370
    -3
390
F
  0
LAYER
  5
47
330
2
100
AcDbSymbolTableRecord
100
AcDbLayerTableRecord
  2
FORMAT
 70
     0
 62
     7
  6
Continuous
370
    -3
390
F
  0
LAYER
  5
48
330
2
100
AcDbSymbolTableRecord
100
AcDbLayerTableRecord
  2
TOLERANCES
 70
     0
 62
     7
  6
Continuous
370
    -3
390
F
  0
LAYER
  5
49
330
2
100
AcDbSymbolTableRecord
100
AcDbLayerTableRecord
  2
QTY-BLANK-SIZE-1
 70
     0
 62
     7
  6
Continuous
370
    -3
390
F
  0
ENDTAB
  0
TABLE
  2
STYLE
  5
3
330
0
100
AcDbSymbolTable
 70
     2
  0
STYLE
  5
11
330
3
100
AcDbSymbolTableRecord
100
AcDbTextStyleTableRecord
  2
Standard
 70
     0
 40
0.0
 41
1.0
 50
0.0
 71
     0
 42
0.25
  3
txt
  4

  0
STYLE
  5
F5
330
3
100
AcDbSymbolTableRecord
100
AcDbTextStyleTableRecord
  2
SLDTEXTSTYLE0
 70
     0
 40
0.0
 41
0.7
 50
0.0
 71
     0
 42
0.2
  3
TXT
  4

  0
ENDTAB
  0
TABLE
  2
VIEW
  5
6
330
0
100
AcDbSymbolTable
 70
     0
  0
ENDTAB
  0
TABLE
  2
UCS
  5
7
330
0
100
AcDbSymbolTable
 70
     0
  0
ENDTAB
  0
TABLE
  2
APPID
  5
9
330
0
100
AcDbSymbolTable
 70
     1
  0
APPID
  5
12
330
9
100
AcDbSymbolTableRecord
100
AcDbRegAppTableRecord
  2
ACAD
 70
     0
  0
ENDTAB
  0
TABLE
  2
DIMSTYLE
  5
A
330
0
100
AcDbSymbolTable
 70
     1
100
AcDbDimStyleTable
 71
     0
  0
DIMSTYLE
105
27
330
A
100
AcDbSymbolTableRecord
100
AcDbDimStyleTableRecord
  2
Standard
 70
     0
340
11
  0
ENDTAB
  0
TABLE
  2
BLOCK_RECORD
  5
1
330
0
100
AcDbSymbolTable
 70
     1
  0
BLOCK_RECORD
  5
1F
330
1
100
AcDbSymbolTableRecord
100
AcDbBlockTableRecord
  2
*Model_Space
340
22
  0
BLOCK_RECORD
  5
1B
330
1
100
AcDbSymbolTableRecord
100
AcDbBlockTableRecord
  2
*Paper_Space
340
1E
  0
BLOCK_RECORD
  5
23
330
1
100
AcDbSymbolTableRecord
100
AcDbBlockTableRecord
  2
*Paper_Space0
340
26
  0
ENDTAB
  0
ENDSEC
  0
SECTION
  2
BLOCKS
  0
BLOCK
  5
20
330
1F
100
AcDbEntity
  8
0
100
AcDbBlockBegin
  2
*Model_Space
 70
     0
 10
0.0
 20
0.0
 30
0.0
  3
*Model_Space
  1

  0
ENDBLK
  5
21
330
1F
100
AcDbEntity
  8
0
100
AcDbBlockEnd
  0
BLOCK
  5
1C
330
1B
100
AcDbEntity
 67
     1
  8
0
100
AcDbBlockBegin
  2
*Paper_Space
 70
     0
 10
0.0
 20
0.0
 30
0.0
  3
*Paper_Space
  1

  0
ENDBLK
  5
1D
330
1B
100
AcDbEntity
 67
     1
  8
0
100
AcDbBlockEnd
  0
BLOCK
  5
24
330
23
100
AcDbEntity
  8
0
100
AcDbBlockBegin
  2
*Paper_Space0
 70
     0
 10
0.0
 20
0.0
 30
0.0
  3
*Paper_Space0
  1

  0
ENDBLK
  5
25
330
23
100
AcDbEntity
  8
0
100
AcDbBlockEnd
  0
ENDSEC
  0
SECTION
  2
ENTITIES
  0
LINE
  5
4A
330
1F
100
AcDbEntity
  8
0
  6
Continuous
 62
     7
370
    15
100
AcDbLine
 10
4.717677801334281
 20
5.547303187724701
 30
0.0
 11
4.730052181047299
 21
5.543987954639591
 31
0.0
  0
LINE
  5
4B
330
1F
100
AcDbEntity
  8
0
  6
Continuous
 62
     7
370
    15
100
AcDbLine
 10
4.757009017738578
 20
5.644606191066314
 30
0.0
 11
4.74463463802556
 21
5.647921424151424
 31
0.0
  0
LINE
  5
4C
330
1F
100
AcDbEntity
  8
0
  6
Continuous
 62
     7
370
    15
100
AcDbLine
 10
4.717677801334281
 20
6.350172875255649
 30
0.0
 11
4.730052181047299
 21
6.34685764217054
 31
0.0
  0
LINE
  5
4D
330
1F
100
AcDbEntity
  8
0
  6
Continuous
 62
     7
370
    15
100
AcDbLine
 10
4.757009017738578
 20
6.447475902147836
 30
0.0
 11
4.74463463802556
 21
6.450791135232946
 31
0.0
  0
LINE
  5
4E
330
1F
100
AcDbEntity
  8
0
  6
Continuous
 62
     7
370
    15
100
AcDbLine
 10
4.717677801334281
 20
7.153042562786597
 30
0.0
 11
4.730052181047299
 21
7.149727329701488
 31
0.0
  0
LINE
  5
4F
330
1F
100
AcDbEntity
  8
0
  6
Continuous
 62
     7
370
    15
100
AcDbLine
 10
4.757009017738578
 20
7.250345613229357
 30
0.0
 11
4.74463463802556
 21
7.253660846314467
 31
0.0
  0
LINE
  5
50
330
1F
100
AcDbEntity
  8
0
  6
Continuous
 62
     7
370
    15
100
AcDbLine
 10
4.715545707314634
 20
8.625928995824567
 30
0.0
 11
4.715545707314634
 21
8.642789321860139
 31
0.0
  0
LINE
  5
51
330
1F
100
AcDbEntity
  8
0
  6
Continuous
 62
     7
370
    15
100
AcDbLine
 10
4.606712394923152
 20
8.642789321860139
 30
0.0
 11
4.606712394923152
 21
8.625928995824567
 31
0.0
  0
LINE
  5
52
330
1F
100
AcDbEntity
  8
0
  6
Continuous
 62
     7
370
    15
100
AcDbLine
 10
4.42091794155593
 20
8.546994961191087
 30
0.0
 11
4.42091794155593
 21
8.56385528722666
 31
0.0
  0
LINE
  5
53
330
1F
100
AcDbEntity
  8
0
  6
Continuous
 62
     7
370
    15
100
AcDbLine
 10
4.312084560025917
 20
8.563855268703683
 30
0.0
 11
4.312084560025917
 21
8.54699494266811
 31
0.0
  0
LINE
  5
54
330
1F
100
AcDbEntity
  8
0
  6
Continuous
 62
     7
370
    15
100
AcDbLine
 10
5.480749397442321
 20
6.010113727742004
 30
0.0
 11
5.468374983160038
 21
6.006798485395406
 31
0.0
  0
LINE
  5
55
330
1F
100
AcDbEntity
  8
0
  6
Continuous
 62
     7
370
    15
100
AcDbLine
 10
5.496539393434144
 20
5.901672543502443
 30
0.0
 11
5.508913807716427
 21
5.90498778584904
 31
0.0
  0
LINE
  5
56
330
1F
100
AcDbEntity
  8
0
  6
Continuous
 62
     7
370
    15
100
AcDbLine
 10
5.781320657020315
 20
8.182528038729033
 30
0.0
 11
5.781320657020315
 21
8.199388364764605
 31
0.0
  0
LINE
  5
57
330
1F
100
AcDbEntity
  8
0
  6
Continuous
 62
     7
370
    15
100
AcDbLine
 10
5.672487275490301
 20
8.199388346241628
 30
0.0
 11
5.672487275490301
 21
8.182528020206056
 31
0.0
  0
LINE
  5
58
330
1F
100
AcDbEntity
  8
0
  6
Continuous
 62
     7
370
    15
100
AcDbLine
 10
6.075948422779021
 20
8.261462073362512
 30
0.0
 11
6.075948422779021
 21
8.278322399398085
 31
0.0
  0
LINE
  5
59
330
1F
100
AcDbEntity
  8
0
  6
Continuous
 62
     7
370
    15
100
AcDbLine
 10
5.967115110387537
 20
8.278322399398085
 30
0.0
 11
5.967115110387537
 21
8.261462073362512
 31
0.0
  0
LINE
  5
5A
330
1F
100
AcDbEntity
  8
0
  6
Continuous
 62
     7
370
    15
100
AcDbLine
 10
5.480749397442321
 20
7.214418282588999
 30
0.0
 11
5.468374983160038
 21
7.211103040242402
 31
0.0
  0
LINE
  5
5B
330
1F
100
AcDbEntity
  8
0
  6
Continuous
 62
     7
370
    15
100
AcDbLine
 10
5.496539393434144
 20
7.105977098349438
 30
0.0
 11
5.508913807716427
 21
7.109292340696036
 31
0.0
  0
LINE
  5
5C
330
1F
100
AcDbEntity
  8
0
  6
Continuous
 62
     7
370
    15
100
AcDbLine
 10
5.480749397442321
 20
7.615853149905047
 30
0.0
 11
5.468374983160038
 21
7.612537907558449
 31
0.0
  0
LINE
  5
5D
330
1F
100
AcDbEntity
  8
0
  6
Continuous
 62
     7
370
    15
100
AcDbLine
 10
5.496539393434144
 20
7.507411965665485
 30
0.0
 11
5.508913807716427
 21
7.510727208012084
 31
0.0
  0
LINE
  5
5E
330
1F
100
AcDbEntity
  8
0
  6
Continuous
 62
     7
370
    15
100
AcDbLine
 10
5.480749397442321
 20
6.812983415272952
 30
0.0
 11
5.468374983160038
 21
6.809668172926355
 31
0.0
  0
LINE
  5
5F
330
1F
100
AcDbEntity
  8
0
  6
Continuous
 62
     7
370
    15
100
AcDbLine
 10
5.496539393434144
 20
6.704542254583963
 30
0.0
 11
5.508913807716427
 21
6.707857496930562
 31
0.0
  0
LINE
  5
60
330
1F
100
AcDbEntity
  8
0
  6
Continuous
 62
     7
370
    15
100
AcDbLine
 10
5.480749397442321
 20
6.411548571507479
 30
0.0
 11
5.468374983160038
 21
6.40823332916088
 31
0.0
  0
LINE
  5
61
330
1F
100
AcDbEntity
  8
0
  6
Continuous
 62
     7
370
    15
100
AcDbLine
 10
5.496539393434144
 20
6.303107387267917
 30
0.0
 11
5.508913807716427
 21
6.306422629614515
 31
0.0
  0
LINE
  5
62
330
1F
100
AcDbEntity
  8
0
  6
Continuous
 62
     7
370
    15
100
AcDbLine
 10
4.611947771907712
 20
5.03115099307308
 30
0.0
 11
5.201203441702183
 21
5.189019099385991
 31
0.0
  0
LWPOLYLINE
  5
63
330
1F
100
AcDbEntity
  8
0
  6
Continuous
 62
     7
370
    15
100
AcDbPolyline
 90
        8
 70
   128
 43
0.0
 10
4.706702163242366
 20
5.584430280684111
 10
4.708338257440466
 20
5.599659310104913
 10
4.713101487396682
 20
5.614411823392561
 10
4.720568448747037
 20
5.627377074720469
 10
4.730075688147846
 20
5.637402983310093
 10
4.740778332750022
 20
5.643598789629616
 10
4.751725727752016
 20
5.645413913355295
 10
4.757009017738578
 20
5.644606191066314
  0
ARC
  5
64
330
1F
100
AcDbEntity
  8
0
  6
Continuous
 62
     7
370
    15
100
AcDbCircle
 10
4.745250183893198
 20
5.579724676833838
 30
0.0
 40
0.0388341679927963
100
AcDbArc
 50
173.0402679497001
 51
246.9610707993272
  0
LWPOLYLINE
  5
65
330
1F
100
AcDbEntity
  8
0
  6
Continuous
 62
     7
370
    15
100
AcDbPolyline
 90
       21
 70
   128
 43
0.0
 10
4.709059061195634
 20
5.584430252899647
 10
4.710803979441562
 20
5.569887731145749
 10
4.715867685453599
 20
5.557703528242964
 10
4.72375459424138
 20
5.549070486133587
 10
4.733692704967518
 20
5.544833640042067
 10
4.74470910022347
 20
5.545407670865971
 10
4.755725495479423
 20
5.550736468123664
 10
4.76566360620556
 20
5.560298373611595
 10
4.773550514993341
 20
5.57315739577959
 10
4.778614221005379
 20
5.58805484429043
 10
4.780359000974245
 20
5.603532294763748
 10
4.778614221005379
 20
5.618074947765891
 10
4.773550514993341
 20
5.630259150668675
 10
4.76566360620556
 20
5.638892192778051
 10
4.755725495479423
 20
5.643129038869574
 10
4.74470910022347
 20
5.642554913843378
 10
4.733692704967518
 20
5.637226210787976
 10
4.72375459424138
 20
5.627664305300045
 10
4.715867685453599
 20
5.614805283132048
 10
4.710803979441562
 20
5.59990783462121
 10
4.709059061195634
 20
5.584430252899647
  0
ARC
  5
66
330
1F
100
AcDbEntity
  8
0
  6
Continuous
 62
     7
370
    15
100
AcDbCircle
 10
4.732875804180178
 20
5.583039909918947
 30
0.0
 40
0.0388341679927944
100
AcDbArc
 50
173.0402679496996
 51
246.9610707993304
  0
LWPOLYLINE
  5
67
330
1F
100
AcDbEntity
  8
0
  6
Continuous
 62
     7
370
    15
100
AcDbPolyline
 90
        8
 70
   128
 43
0.0
 10
4.74463463802556
 20
5.647921424151424
 10
4.739351348038997
 20
5.648729146440405
 10
4.728403953037005
 20
5.646914022714726
 10
4.717701308434828
 20
5.640718216395202
 10
4.70819406903402
 20
5.630692307805579
 10
4.700727107683665
 20
5.61772705647767
 10
4.695963877727448
 20
5.602974543190022
 10
4.694327783529348
 20
5.58774551376922
  0
LWPOLYLINE
  5
68
330
1F
100
AcDbEntity
  8
0
  6
Continuous
 62
     7
370
    15
100
AcDbPolyline
 90
       13
 70
   128
 43
0.0
 10
4.730052181047299
 20
6.34685764217054
 10
4.725116381317651
 20
6.348776799480302
 10
4.716533385799543
 20
6.355803288051239
 10
4.710349220753767
 20
6.366505104170065
 10
4.707113399224883
 20
6.379931352348868
 10
4.707113399224883
 20
6.394889051163398
 10
4.710349220753767
 20
6.410049124041111
 10
4.716533385799543
 20
6.424064552484595
 10
4.725116381317651
 20
6.435689999770377
 10
4.735335471033861
 20
6.443892464080879
 10
4.746282727758792
 20
6.447943141866679
 10
4.75698551063803
 20
6.447482139128142
 10
4.757009017738578
 20
6.447475902147836
  0
LWPOLYLINE
  5
69
330
1F
100
AcDbEntity
  8
0
  6
Continuous
 62
     7
370
    15
100
AcDbPolyline
 90
       21
 70
   128
 43
0.0
 10
4.780359000974245
 20
6.406402041171129
 10
4.778614221005379
 20
6.420944670622699
 10
4.773550514993341
 20
6.433128832311981
 10
4.76566360620556
 20
6.441761868533713
 10
4.755725495479423
 20
6.445998708737592
 10
4.74470910022347
 20
6.445424660250758
 10
4.733692704967518
 20
6.440095880655994
 10
4.72375459424138
 20
6.430533981055706
 10
4.715867685453599
 20
6.417674964775354
 10
4.710803979441562
 20
6.402777557478017
 10
4.709059061195634
 20
6.387299999307026
 10
4.710803979441562
 20
6.37275740690141
 10
4.715867685453599
 20
6.360573251099771
 10
4.72375459424138
 20
6.351940208990396
 10
4.733692704967518
 20
6.34770337467416
 10
4.74470910022347
 20
6.348277417273351
 10
4.755725495479423
 20
6.353606202755758
 10
4.76566360620556
 20
6.363168096468403
 10
4.773550514993341
 20
6.376027118636398
 10
4.778614221005379
 20
6.390924520046091
 10
4.780359000974245
 20
6.406402041171129
  0
LWPOLYLINE
  5
6A
330
1F
100
AcDbEntity
  8
0
  6
Continuous
 62
     7
370
    15
100
AcDbPolyline
 90
       13
 70
   128
 43
0.0
 10
4.74463463802556
 20
6.450791135232946
 10
4.744611130925012
 20
6.450797372213252
 10
4.733908348045774
 20
6.451258374951789
 10
4.722961091320843
 20
6.447207697165989
 10
4.712742001604634
 20
6.439005232855487
 10
4.704159006086525
 20
6.427379785569705
 10
4.697974841040749
 20
6.413364357126221
 10
4.694739019511866
 20
6.398204284248508
 10
4.694739019511866
 20
6.383246585433976
 10
4.697974841040749
 20
6.369820337255174
 10
4.704159006086525
 20
6.359118521136349
 10
4.712742001604634
 20
6.352092032565411
 10
4.717677801334281
 20
6.350172875255649
  0
LWPOLYLINE
  5
6B
330
1F
100
AcDbEntity
  8
0
  6
Continuous
 62
     7
370
    15
100
AcDbPolyline
 90
       13
 70
   128
 43
0.0
 10
4.730052181047299
 20
7.149727329701488
 10
4.725116381317651
 20
7.151646522337109
 10
4.716533385799543
 20
7.158673022683333
 10
4.710349220753767
 20
7.1693748034763
 10
4.707113399224883
 20
7.182801063430388
 10
4.707113399224883
 20
7.197758738694347
 10
4.710349220753767
 20
7.212918823347346
 10
4.716533385799543
 20
7.226934263566117
 10
4.725116381317651
 20
7.238559722627186
 10
4.735335471033861
 20
7.246762157499471
 10
4.746282727758792
 20
7.250812852948201
 10
4.75698551063803
 20
7.250351844322021
 10
4.757009017738578
 20
7.250345613229357
  0
LWPOLYLINE
  5
6C
330
1F
100
AcDbEntity
  8
0
  6
Continuous
 62
     7
370
    15
100
AcDbPolyline
 90
       21
 70
   128
 43
0.0
 10
4.780359000974245
 20
7.209271764027938
 10
4.778614221005379
 20
7.223814369928933
 10
4.773550514993341
 20
7.235998525730573
 10
4.76566360620556
 20
7.244631567839948
 10
4.755725495479423
 20
7.24886841393147
 10
4.74470910022347
 20
7.248294383107565
 10
4.733692704967518
 20
7.242965585849872
 10
4.72375459424138
 20
7.233403680361941
 10
4.715867685453599
 20
7.220544658193946
 10
4.710803979441562
 20
7.205647256784252
 10
4.709059061195634
 20
7.190169722163834
 10
4.710803979441562
 20
7.175627106207645
 10
4.715867685453599
 20
7.163442950406007
 10
4.72375459424138
 20
7.15480990829663
 10
4.733692704967518
 20
7.150573062205108
 10
4.74470910022347
 20
7.151147140130158
 10
4.755725495479423
 20
7.156475890286706
 10
4.76566360620556
 20
7.166037795774637
 10
4.773550514993341
 20
7.178896817942632
 10
4.778614221005379
 20
7.193794219352326
 10
4.780359000974245
 20
7.209271764027938
  0
LWPOLYLINE
  5
6D
330
1F
100
AcDbEntity
  8
0
  6
Continuous
 62
     7
370
    15
100
AcDbPolyline
 90
       13
 70
   128
 43
0.0
 10
4.74463463802556
 20
7.253660846314467
 10
4.744611130925012
 20
7.253667077407129
 10
4.733908348045774
 20
7.254128086033311
 10
4.722961091320843
 20
7.25007739058458
 10
4.712742001604634
 20
7.241874955712294
 10
4.704159006086525
 20
7.230249496651226
 10
4.697974841040749
 20
7.216234056432456
 10
4.694739019511866
 20
7.201073971779456
 10
4.694739019511866
 20
7.186116296515498
 10
4.697974841040749
 20
7.172690036561409
 10
4.704159006086525
 20
7.161988255768443
 10
4.712742001604634
 20
7.154961755422219
 10
4.717677801334281
 20
7.153042562786597
  0
LWPOLYLINE
  5
6E
330
1F
100
AcDbEntity
  8
0
  6
Continuous
 62
     7
370
    15
100
AcDbPolyline
 90
       11
 70
   128
 43
0.0
 10
4.711411707129248
 20
8.63721559150327
 10
4.703045599182954
 20
8.633492491735566
 10
4.690954998570515
 20
8.630595442630999
 10
4.676214179786948
 20
8.628781876517955
 10
4.660133041440993
 20
8.62821294329259
 10
4.644140400414745
 20
8.628939173634991
 10
4.629657260936298
 20
8.630896089063718
 10
4.617970567622089
 20
8.633909721782817
 10
4.610118642931003
 20
8.637712377734892
 10
4.606799232918116
 20
8.641966123735389
 10
4.606712394923152
 20
8.642789321860139
  0
LWPOLYLINE
  5
6F
330
1F
100
AcDbEntity
  8
0
  6
Continuous
 62
     7
370
    15
100
AcDbPolyline
 90
        3
 70
   128
 43
0.0
 10
4.715545707314634
 20
8.642789321860139
 10
4.715310014062382
 20
8.641433940095543
 10
4.711411707129248
 20
8.63721559150327
  0
LWPOLYLINE
  5
70
330
1F
100
AcDbEntity
  8
0
  6
Continuous
 62
     7
370
    15
100
AcDbPolyline
 90
       22
 70
   128
 43
0.0
 10
4.709871715489268
 20
8.638991977304716
 10
4.713650620179327
 20
8.643081128135408
 10
4.712762743163945
 20
8.647287029287424
 10
4.707287040645549
 20
8.651235961185477
 10
4.697709902189877
 20
8.65457704308439
 10
4.684882492252339
 20
8.657013407238668
 10
4.669944421239767
 20
8.65832857562113
 10
4.654223079809249
 20
8.658405686772596
 10
4.639115411980081
 20
8.657237868668749
 10
4.62596367319352
 20
8.654928924070301
 10
4.615936650316489
 20
8.651683994942766
 10
4.609925055044143
 20
8.647791391416463
 10
4.608463189944217
 20
8.643597011555874
 10
4.611680966316503
 20
8.639473556172573
 10
4.619292427196694
 20
8.635787372697173
 10
4.630621190335803
 20
8.632866002924371
 10
4.644660736999216
 20
8.630969064893781
 10
4.660163600671705
 20
8.630265062123264
 10
4.67575219612266
 20
8.630816583750652
 10
4.690041471160124
 20
8.632574599456964
 10
4.701761834938941
 20
8.635382904980779
 10
4.709871715489268
 20
8.638991977304716
  0
LWPOLYLINE
  5
71
330
1F
100
AcDbEntity
  8
0
  6
Continuous
 62
     7
370
    15
100
AcDbPolyline
 90
        3
 70
   128
 43
0.0
 10
4.711411707129248
 20
8.620355265467699
 10
4.715310014062382
 20
8.62457361405997
 10
4.715545707314634
 20
8.625928995824567
  0
LWPOLYLINE
  5
72
330
1F
100
AcDbEntity
  8
0
  6
Continuous
 62
     7
370
    15
100
AcDbPolyline
 90
       11
 70
   128
 43
0.0
 10
4.606712394923152
 20
8.625928995824567
 10
4.606799232918116
 20
8.625105797699818
 10
4.610118642931003
 20
8.620852051699321
 10
4.617970567622089
 20
8.617049395747246
 10
4.629657260936298
 20
8.614035763028146
 10
4.644140400414745
 20
8.612078847599418
 10
4.660133041440993
 20
8.611352617257017
 10
4.676214179786948
 20
8.611921550482382
 10
4.690954998570515
 20
8.613735116595428
 10
4.703045599182954
 20
8.616632165699993
 10
4.711411707129248
 20
8.620355265467699
  0
LWPOLYLINE
  5
73
330
1F
100
AcDbEntity
  8
0
  6
Continuous
 62
     7
370
    15
100
AcDbPolyline
 90
       10
 70
   128
 43
0.0
 10
4.709871715489268
 20
8.618920295170402
 10
4.701761834938941
 20
8.615311222846465
 10
4.690041471160124
 20
8.612502917322649
 10
4.67575219612266
 20
8.610744901616339
 10
4.660163600671705
 20
8.610193379988951
 10
4.644660736999216
 20
8.610897382759468
 10
4.630621190335803
 20
8.612794320790058
 10
4.619292427196694
 20
8.615715690562861
 10
4.611680966316503
 20
8.61940187403826
 10
4.609739694642473
 20
8.621134253944996
  0
LWPOLYLINE
  5
74
330
1F
100
AcDbEntity
  8
0
  6
Continuous
 62
     7
370
    15
100
AcDbPolyline
 90
       11
 70
   128
 43
0.0
 10
4.416783872232012
 20
8.558281538346813
 10
4.408417764285718
 20
8.554558438579109
 10
4.396327163673279
 20
8.551661389474546
 10
4.381586414028245
 20
8.549847841884476
 10
4.365505206543757
 20
8.549278890136134
 10
4.349512634656042
 20
8.550005139001513
 10
4.335029426039063
 20
8.551962035907262
 10
4.323342732724853
 20
8.554975668626362
 10
4.315490808033768
 20
8.558778324578437
 10
4.312171398020881
 20
8.563032070578934
 10
4.312084560025917
 20
8.563855268703683
  0
LWPOLYLINE
  5
75
330
1F
100
AcDbEntity
  8
0
  6
Continuous
 62
     7
370
    15
100
AcDbPolyline
 90
        3
 70
   128
 43
0.0
 10
4.42091794155593
 20
8.56385528722666
 10
4.420682179165146
 20
8.562499886939086
 10
4.416783872232012
 20
8.558281538346813
  0
LWPOLYLINE
  5
76
330
1F
100
AcDbEntity
  8
0
  6
Continuous
 62
     7
370
    15
100
AcDbPolyline
 90
       22
 70
   128
 43
0.0
 10
4.415243880592032
 20
8.560057924148258
 10
4.419022785282092
 20
8.564147074978951
 10
4.41813490826671
 20
8.568352976130967
 10
4.412659205748314
 20
8.57230190802902
 10
4.403082067292642
 20
8.575642989927933
 10
4.390254657355104
 20
8.578079354082213
 10
4.375316586342531
 20
8.579394522464676
 10
4.359595244912014
 20
8.579471633616138
 10
4.344487577082845
 20
8.578303815512294
 10
4.331335907434815
 20
8.57599488943682
 10
4.321308815419254
 20
8.572749941786309
 10
4.315297220146907
 20
8.568857338260007
 10
4.313835424185513
 20
8.564662976922395
 10
4.317053131419268
 20
8.560539503016116
 10
4.324664592299459
 20
8.556853319540717
 10
4.335993355438568
 20
8.553931949767914
 10
4.350032902101981
 20
8.552035011737324
 10
4.36553576577447
 20
8.551331008966808
 10
4.381124361225425
 20
8.551882530594197
 10
4.395413636262889
 20
8.553640546300506
 10
4.407134000041706
 20
8.556448851824322
 10
4.415243880592032
 20
8.560057924148258
  0
LWPOLYLINE
  5
77
330
1F
100
AcDbEntity
  8
0
  6
Continuous
 62
     7
370
    15
100
AcDbPolyline
 90
        3
 70
   128
 43
0.0
 10
4.416783872232012
 20
8.541421212311242
 10
4.420682179165146
 20
8.545639560903513
 10
4.42091794155593
 20
8.546994961191087
  0
LWPOLYLINE
  5
78
330
1F
100
AcDbEntity
  8
0
  6
Continuous
 62
     7
370
    15
100
AcDbPolyline
 90
       11
 70
   128
 43
0.0
 10
4.312084560025917
 20
8.54699494266811
 10
4.312171398020881
 20
8.546171744543363
 10
4.315490808033768
 20
8.541917998542864
 10
4.323342732724853
 20
8.538115342590788
 10
4.335029426039063
 20
8.535101709871689
 10
4.349512634656042
 20
8.533144812965939
 10
4.365505206543757
 20
8.532418564100561
 10
4.381586414028245
 20
8.532987515848903
 10
4.396327163673279
 20
8.534801063438973
 10
4.408417764285718
 20
8.537698112543537
 10
4.416783872232012
 20
8.541421212311242
  0
LWPOLYLINE
  5
79
330
1F
100
AcDbEntity
  8
0
  6
Continuous
 62
     7
370
    15
100
AcDbPolyline
 90
       10
 70
   128
 43
0.0
 10
4.415243880592032
 20
8.539986242013945
 10
4.407134000041706
 20
8.536377169690009
 10
4.395413636262889
 20
8.533568864166195
 10
4.381124361225425
 20
8.531810848459883
 10
4.36553576577447
 20
8.531259326832495
 10
4.350032902101981
 20
8.53196332960301
 10
4.335993355438568
 20
8.533860267633603
 10
4.324664592299459
 20
8.536781637406404
 10
4.317053131419268
 20
8.540467820881803
 10
4.315111859745238
 20
8.542200200788542
  0
LWPOLYLINE
  5
7A
330
1F
100
AcDbEntity
  8
0
  6
Continuous
 62
     7
370
    15
100
AcDbPolyline
 90
        7
 70
   128
 43
0.0
 10
5.518000753987154
 20
5.964795233168715
 10
5.520766087812433
 20
5.948887612426084
 10
5.520127455201384
 20
5.933455135888759
 10
5.516141688026508
 20
5.919869094089453
 10
5.509162913843699
 20
5.909336676407791
 10
5.499811236137688
 20
5.902793681565385
 10
5.496539393434144
 20
5.901672543502443
  0
LWPOLYLINE
  5
7B
330
1F
100
AcDbEntity
  8
0
  6
Continuous
 62
     7
370
    15
100
AcDbPolyline
 90
        7
 70
   128
 43
0.0
 10
5.468374983160038
 20
6.006798485395406
 10
5.470415468626084
 20
6.007255589299178
 10
5.481722453127923
 20
6.006850186699037
 10
5.493094704403044
 20
6.001769748739493
 10
5.503521831959098
 20
5.992465650194205
 10
5.512077172064798
 20
5.979764650786918
 10
5.518000753987154
 20
5.964795233168715
  0
LWPOLYLINE
  5
7C
330
1F
100
AcDbEntity
  8
0
  6
Continuous
 62
     7
370
    15
100
AcDbPolyline
 90
       22
 70
   128
 43
0.0
 10
5.515733563277886
 20
5.964156106541512
 10
5.509991469999464
 20
5.978666980077115
 10
5.501698095787805
 20
5.990978968272431
 10
5.491590388245071
 20
5.999998111517151
 10
5.480566387750706
 20
6.004922981529386
 10
5.469605718150757
 20
6.005315957094071
 10
5.459682195654666
 20
6.001142180483364
 10
5.451677682225616
 20
5.992772477795181
 10
5.446303267655166
 20
5.980950591436066
 10
5.444036630054148
 20
5.966726828416189
 10
5.445079031686364
 20
5.951365158401249
 10
5.449337965197308
 20
5.936230439823912
 10
5.456434966268165
 20
5.922667490597421
 10
5.465739491496017
 20
5.911881465468629
 10
5.476424644049845
 20
5.904830702456046
 10
5.487541151898717
 20
5.902141762380703
 10
5.498101163711395
 20
5.904053490104119
 10
5.507166469621912
 20
5.910396063975484
 10
5.513931467466804
 20
5.920605931063562
 10
5.517795205134426
 20
5.933775839101246
 10
5.518414202402664
 20
5.948735640840746
 10
5.515733563277886
 20
5.964156106541512
  0
LWPOLYLINE
  5
7D
330
1F
100
AcDbEntity
  8
0
  6
Continuous
 62
     7
370
    15
100
AcDbPolyline
 90
        7
 70
   128
 43
0.0
 10
5.530375168269437
 20
5.968110475515314
 10
5.524451586347081
 20
5.983079893133516
 10
5.515896246241381
 20
5.995780892540802
 10
5.505469118685327
 20
6.005084991086091
 10
5.494096867410206
 20
6.010165429045635
 10
5.482789882908368
 20
6.010570831645775
 10
5.480749397442321
 20
6.010113727742004
  0
LWPOLYLINE
  5
7E
330
1F
100
AcDbEntity
  8
0
  6
Continuous
 62
     7
370
    15
100
AcDbPolyline
 90
        7
 70
   128
 43
0.0
 10
5.508913807716427
 20
5.90498778584904
 10
5.512185650419971
 20
5.906108923911983
 10
5.52153732812598
 20
5.912651918754389
 10
5.528516102308793
 20
5.923184336436052
 10
5.532501869483668
 20
5.936770378235356
 10
5.533140502094716
 20
5.952202854772682
 10
5.530375168269437
 20
5.968110475515314
  0
LWPOLYLINE
  5
7F
330
1F
100
AcDbEntity
  8
0
  6
Continuous
 62
     7
370
    15
100
AcDbPolyline
 90
       11
 70
   128
 43
0.0
 10
5.777186656834928
 20
8.193814597361782
 10
5.768820548888634
 20
8.190091497594078
 10
5.756729879137664
 20
8.18719446701249
 10
5.741989129492629
 20
8.185380919422421
 10
5.725907922008143
 20
8.184811967674079
 10
5.709915350120426
 20
8.185538216539457
 10
5.695432210641977
 20
8.18749509492223
 10
5.683745448189237
 20
8.190508746164306
 10
5.675893523498153
 20
8.194311402116381
 10
5.672574113485265
 20
8.198565148116879
 10
5.672487275490301
 20
8.199388346241628
  0
LWPOLYLINE
  5
80
330
1F
100
AcDbEntity
  8
0
  6
Continuous
 62
     7
370
    15
100
AcDbPolyline
 90
        3
 70
   128
 43
0.0
 10
5.781320657020315
 20
8.199388364764605
 10
5.781084894629531
 20
8.198032964477032
 10
5.777186656834928
 20
8.193814597361782
  0
LWPOLYLINE
  5
81
330
1F
100
AcDbEntity
  8
0
  6
Continuous
 62
     7
370
    15
100
AcDbPolyline
 90
       22
 70
   128
 43
0.0
 10
5.775646596056417
 20
8.195591001686205
 10
5.779425500746476
 20
8.199680152516897
 10
5.778537623731095
 20
8.203886053668913
 10
5.773061921212699
 20
8.207834985566966
 10
5.763484782757026
 20
8.21117606746588
 10
5.750657372819489
 20
8.213612431620157
 10
5.735719301806916
 20
8.214927600002619
 10
5.71999802951493
 20
8.215004692631106
 10
5.70489029254723
 20
8.213836893050238
 10
5.691738692037731
 20
8.21152794845179
 10
5.681711530883638
 20
8.208283019324255
 10
5.675699935611293
 20
8.204390415797952
 10
5.674238139649898
 20
8.20019605446034
 10
5.677455916022184
 20
8.196072562031085
 10
5.685067307763843
 20
8.192386397078662
 10
5.696396070902952
 20
8.18946502730586
 10
5.710435617566366
 20
8.18756808927527
 10
5.725938481238855
 20
8.186864086504753
 10
5.74152707668981
 20
8.187415608132143
 10
5.755816420865805
 20
8.189173605315476
 10
5.76753671550609
 20
8.191981929362269
 10
5.775646596056417
 20
8.195591001686205
  0
LWPOLYLINE
  5
82
330
1F
100
AcDbEntity
  8
0
  6
Continuous
 62
     7
370
    15
100
AcDbPolyline
 90
        3
 70
   128
 43
0.0
 10
5.777186656834928
 20
8.176954271326211
 10
5.781084894629531
 20
8.181172638441459
 10
5.781320657020315
 20
8.182528038729033
  0
LWPOLYLINE
  5
83
330
1F
100
AcDbEntity
  8
0
  6
Continuous
 62
     7
370
    15
100
AcDbPolyline
 90
       11
 70
   128
 43
0.0
 10
5.672487275490301
 20
8.182528020206056
 10
5.672574113485265
 20
8.181704822081307
 10
5.675893523498153
 20
8.17745107608081
 10
5.683745448189237
 20
8.173648420128735
 10
5.695432210641977
 20
8.170634768886658
 10
5.709915350120426
 20
8.168677890503886
 10
5.725907922008143
 20
8.167951641638506
 10
5.741989129492629
 20
8.168520593386849
 10
5.756729879137664
 20
8.170334140976919
 10
5.768820548888634
 20
8.173231171558505
 10
5.777186656834928
 20
8.176954271326211
  0
LWPOLYLINE
  5
84
330
1F
100
AcDbEntity
  8
0
  6
Continuous
 62
     7
370
    15
100
AcDbPolyline
 90
       10
 70
   128
 43
0.0
 10
5.775646596056417
 20
8.175519319551892
 10
5.76753671550609
 20
8.171910247227954
 10
5.755816420865805
 20
8.169101923181163
 10
5.74152707668981
 20
8.167343925997828
 10
5.725938481238855
 20
8.16679240437044
 10
5.710435617566366
 20
8.167496407140957
 10
5.696396070902952
 20
8.169393345171547
 10
5.685067307763843
 20
8.17231471494435
 10
5.677455916022184
 20
8.176000879896772
 10
5.675514575209622
 20
8.177733278326487
  0
LWPOLYLINE
  5
85
330
1F
100
AcDbEntity
  8
0
  6
Continuous
 62
     7
370
    15
100
AcDbPolyline
 90
       11
 70
   128
 43
0.0
 10
6.071814491732164
 20
8.27274865051824
 10
6.06344838378587
 20
8.269025550750534
 10
6.0513577140349
 20
8.266128520168946
 10
6.036616895251333
 20
8.264314954055899
 10
6.020535756905379
 20
8.263746020830536
 10
6.004543115879131
 20
8.264472251172938
 10
5.990060045539214
 20
8.266429148078687
 10
5.978373283086473
 20
8.269442799320762
 10
5.970521358395389
 20
8.273245455272837
 10
5.967201948382501
 20
8.277499201273336
 10
5.967115110387537
 20
8.278322399398085
  0
LWPOLYLINE
  5
86
330
1F
100
AcDbEntity
  8
0
  6
Continuous
 62
     7
370
    15
100
AcDbPolyline
 90
        3
 70
   128
 43
0.0
 10
6.075948422779021
 20
8.278322399398085
 10
6.075712729526766
 20
8.276967017633486
 10
6.071814491732164
 20
8.27274865051824
  0
LWPOLYLINE
  5
87
330
1F
100
AcDbEntity
  8
0
  6
Continuous
 62
     7
370
    15
100
AcDbPolyline
 90
       22
 70
   128
 43
0.0
 10
6.070274430953653
 20
8.27452505484266
 10
6.074053335643712
 20
8.278614205673353
 10
6.07316545862833
 20
8.282820106825369
 10
6.067689756109934
 20
8.286769038723422
 10
6.058112617654262
 20
8.290110120622335
 10
6.045285207716724
 20
8.292546484776615
 10
6.030347136704152
 20
8.293861653159076
 10
6.014625864412165
 20
8.293938745787563
 10
5.999518127444466
 20
8.292770946206696
 10
5.986366457796436
 20
8.29046198308527
 10
5.976339365780875
 20
8.287217072480711
 10
5.970327770508527
 20
8.283324468954409
 10
5.968865905408603
 20
8.279130089093818
 10
5.972083750919419
 20
8.275006615187542
 10
5.979695142661079
 20
8.271320450235119
 10
5.991023905800188
 20
8.268399080462316
 10
6.005063452463601
 20
8.266502142431727
 10
6.020566316136091
 20
8.265798139661209
 10
6.036154911587046
 20
8.266349661288597
 10
6.050444255763039
 20
8.268107658471931
 10
6.062164550403325
 20
8.270915982518724
 10
6.070274430953653
 20
8.27452505484266
  0
LWPOLYLINE
  5
88
330
1F
100
AcDbEntity
  8
0
  6
Continuous
 62
     7
370
    15
100
AcDbPolyline
 90
        3
 70
   128
 43
0.0
 10
6.071814491732164
 20
8.255888324482667
 10
6.075712729526766
 20
8.260106691597915
 10
6.075948422779021
 20
8.261462073362512
  0
LWPOLYLINE
  5
89
330
1F
100
AcDbEntity
  8
0
  6
Continuous
 62
     7
370
    15
100
AcDbPolyline
 90
       11
 70
   128
 43
0.0
 10
5.967115110387537
 20
8.261462073362512
 10
5.967201948382501
 20
8.260638875237763
 10
5.970521358395389
 20
8.256385129237266
 10
5.978373283086473
 20
8.252582473285189
 10
5.990060045539214
 20
8.249568822043114
 10
6.004543115879131
 20
8.247611925137364
 10
6.020535756905379
 20
8.246885694794963
 10
6.036616895251333
 20
8.247454628020328
 10
6.0513577140349
 20
8.249268194133373
 10
6.06344838378587
 20
8.252165224714962
 10
6.071814491732164
 20
8.255888324482667
  0
LWPOLYLINE
  5
8A
330
1F
100
AcDbEntity
  8
0
  6
Continuous
 62
     7
370
    15
100
AcDbPolyline
 90
       10
 70
   128
 43
0.0
 10
6.070274430953653
 20
8.254453372708347
 10
6.062164550403325
 20
8.250844300384411
 10
6.050444255763039
 20
8.24803597633762
 10
6.036154911587046
 20
8.246277979154283
 10
6.020566316136091
 20
8.245726457526895
 10
6.005063452463601
 20
8.246430460297412
 10
5.991023905800188
 20
8.248327398328004
 10
5.979695142661079
 20
8.251248768100804
 10
5.972083750919419
 20
8.254934933053228
 10
5.970142410106858
 20
8.256667331482942
  0
LWPOLYLINE
  5
8B
330
1F
100
AcDbEntity
  8
0
  6
Continuous
 62
     7
370
    15
100
AcDbPolyline
 90
        7
 70
   128
 43
0.0
 10
5.518000753987154
 20
7.169099835116856
 10
5.520766087812433
 20
7.15319216727308
 10
5.520127455201384
 20
7.137759690735753
 10
5.516141688026508
 20
7.12417364893645
 10
5.509162913843699
 20
7.113641231254787
 10
5.499811236137688
 20
7.10709823641238
 10
5.496539393434144
 20
7.105977098349438
  0
LWPOLYLINE
  5
8C
330
1F
100
AcDbEntity
  8
0
  6
Continuous
 62
     7
370
    15
100
AcDbPolyline
 90
        7
 70
   128
 43
0.0
 10
5.468374983160038
 20
7.211103040242402
 10
5.470415468626084
 20
7.211560144146172
 10
5.481722453127923
 20
7.211154741546032
 10
5.493094704403044
 20
7.206074303586488
 10
5.503521831959098
 20
7.1967702050412
 10
5.512077172064798
 20
7.184069205633913
 10
5.518000753987154
 20
7.169099835116856
  0
LWPOLYLINE
  5
8D
330
1F
100
AcDbEntity
  8
0
  6
Continuous
 62
     7
370
    15
100
AcDbPolyline
 90
       22
 70
   128
 43
0.0
 10
5.515733563277886
 20
7.168460661388507
 10
5.509991469999464
 20
7.182971534924111
 10
5.501698095787805
 20
7.195283570220572
 10
5.491590388245071
 20
7.204302666364148
 10
5.480566387750706
 20
7.209227536376382
 10
5.469605718150757
 20
7.209620559042213
 10
5.459682195654666
 20
7.205446782431505
 10
5.451677682225616
 20
7.197077079743322
 10
5.446303267655166
 20
7.185255146283062
 10
5.444036630054148
 20
7.171031383263184
 10
5.445079031686364
 20
7.155669713248244
 10
5.449337965197308
 20
7.140534994670908
 10
5.456434966268165
 20
7.126972045444416
 10
5.465739491496017
 20
7.116186020315624
 10
5.476424644049845
 20
7.109135304404186
 10
5.487541151898717
 20
7.106446317227699
 10
5.498101163711395
 20
7.108358044951114
 10
5.507166469621912
 20
7.114700618822479
 10
5.513931467466804
 20
7.124910485910558
 10
5.517795205134426
 20
7.138080393948243
 10
5.518414202402664
 20
7.153040242788887
 10
5.515733563277886
 20
7.168460661388507
  0
LWPOLYLINE
  5
8E
330
1F
100
AcDbEntity
  8
0
  6
Continuous
 62
     7
370
    15
100
AcDbPolyline
 90
        7
 70
   128
 43
0.0
 10
5.530375168269437
 20
7.172415077463454
 10
5.524451586347081
 20
7.187384447980511
 10
5.515896246241381
 20
7.200085447387799
 10
5.505469118685327
 20
7.209389545933086
 10
5.494096867410206
 20
7.21446998389263
 10
5.482789882908368
 20
7.214875386492771
 10
5.480749397442321
 20
7.214418282588999
  0
LWPOLYLINE
  5
8F
330
1F
100
AcDbEntity
  8
0
  6
Continuous
 62
     7
370
    15
100
AcDbPolyline
 90
        7
 70
   128
 43
0.0
 10
5.508913807716427
 20
7.109292340696036
 10
5.512185650419971
 20
7.110413478758977
 10
5.52153732812598
 20
7.116956473601384
 10
5.528516102308793
 20
7.127488891283046
 10
5.532501869483668
 20
7.141074933082351
 10
5.533140502094716
 20
7.156507409619678
 10
5.530375168269437
 20
7.172415077463454
  0
LWPOLYLINE
  5
90
330
1F
100
AcDbEntity
  8
0
  6
Continuous
 62
     7
370
    15
100
AcDbPolyline
 90
        7
 70
   128
 43
0.0
 10
5.518000753987154
 20
7.570534655331758
 10
5.520766087812433
 20
7.554627034589127
 10
5.520127455201384
 20
7.539194558051801
 10
5.516141688026508
 20
7.525608469151351
 10
5.509162913843699
 20
7.515076051469688
 10
5.499811236137688
 20
7.508533056627281
 10
5.496539393434144
 20
7.507411965665485
  0
LWPOLYLINE
  5
91
330
1F
100
AcDbEntity
  8
0
  6
Continuous
 62
     7
370
    15
100
AcDbPolyline
 90
        7
 70
   128
 43
0.0
 10
5.468374983160038
 20
7.612537907558449
 10
5.470415468626084
 20
7.612995058563365
 10
5.481722453127923
 20
7.612589608862078
 10
5.493094704403044
 20
7.607509123801389
 10
5.503521831959098
 20
7.598205072357247
 10
5.512077172064798
 20
7.585504025848814
 10
5.518000753987154
 20
7.570534655331758
  0
LWPOLYLINE
  5
92
330
1F
100
AcDbEntity
  8
0
  6
Continuous
 62
     7
370
    15
100
AcDbPolyline
 90
       22
 70
   128
 43
0.0
 10
5.515733563277886
 20
7.569895528704554
 10
5.509991469999464
 20
7.584406402240158
 10
5.501698095787805
 20
7.596718390435474
 10
5.491590388245071
 20
7.605737533680193
 10
5.480566387750706
 20
7.610662356591284
 10
5.469605718150757
 20
7.611055379257114
 10
5.459682195654666
 20
7.606881602646407
 10
5.451677682225616
 20
7.598511899958223
 10
5.446303267655166
 20
7.586689966497963
 10
5.444036630054148
 20
7.572466203478087
 10
5.445079031686364
 20
7.557104580564291
 10
5.449337965197308
 20
7.54196981488581
 10
5.456434966268165
 20
7.528406959861609
 10
5.465739491496017
 20
7.517620887631672
 10
5.476424644049845
 20
7.510570171720234
 10
5.487541151898717
 20
7.5078811374426
 10
5.498101163711395
 20
7.509792912267161
 10
5.507166469621912
 20
7.516135486138526
 10
5.513931467466804
 20
7.526345353226605
 10
5.517795205134426
 20
7.539515261264289
 10
5.518414202402664
 20
7.554475110104934
 10
5.515733563277886
 20
7.569895528704554
  0
LWPOLYLINE
  5
93
330
1F
100
AcDbEntity
  8
0
  6
Continuous
 62
     7
370
    15
100
AcDbPolyline
 90
        7
 70
   128
 43
0.0
 10
5.530375168269437
 20
7.573849897678355
 10
5.524451586347081
 20
7.588819268195412
 10
5.515896246241381
 20
7.601520314703845
 10
5.505469118685327
 20
7.610824366147987
 10
5.494096867410206
 20
7.615904851208677
 10
5.482789882908368
 20
7.616310300909963
 10
5.480749397442321
 20
7.615853149905047
  0
LWPOLYLINE
  5
94
330
1F
100
AcDbEntity
  8
0
  6
Continuous
 62
     7
370
    15
100
AcDbPolyline
 90
        7
 70
   128
 43
0.0
 10
5.508913807716427
 20
7.510727208012084
 10
5.512185650419971
 20
7.511848298973879
 10
5.52153732812598
 20
7.518391293816285
 10
5.528516102308793
 20
7.528923711497949
 10
5.532501869483668
 20
7.542509800398399
 10
5.533140502094716
 20
7.557942276935724
 10
5.530375168269437
 20
7.573849897678355
  0
LWPOLYLINE
  5
95
330
1F
100
AcDbEntity
  8
0
  6
Continuous
 62
     7
370
    15
100
AcDbPolyline
 90
        7
 70
   128
 43
0.0
 10
5.518000753987154
 20
6.76766496780081
 10
5.520766087812433
 20
6.751757299957032
 10
5.520127455201384
 20
6.736324846970279
 10
5.516141688026508
 20
6.722738805170975
 10
5.509162913843699
 20
6.712206375714026
 10
5.499811236137688
 20
6.705663392646905
 10
5.496539393434144
 20
6.704542254583963
  0
LWPOLYLINE
  5
96
330
1F
100
AcDbEntity
  8
0
  6
Continuous
 62
     7
370
    15
100
AcDbPolyline
 90
        7
 70
   128
 43
0.0
 10
5.468374983160038
 20
6.809668172926355
 10
5.470415468626084
 20
6.810125300380698
 10
5.481722453127923
 20
6.809719897780558
 10
5.493094704403044
 20
6.804639436270441
 10
5.503521831959098
 20
6.795335337725153
 10
5.512077172064798
 20
6.782634350093152
 10
5.518000753987154
 20
6.76766496780081
  0
LWPOLYLINE
  5
97
330
1F
100
AcDbEntity
  8
0
  6
Continuous
 62
     7
370
    15
100
AcDbPolyline
 90
       22
 70
   128
 43
0.0
 10
5.515733563277886
 20
6.767025805847747
 10
5.509991469999464
 20
6.781536702933923
 10
5.501698095787805
 20
6.793848702904525
 10
5.491590388245071
 20
6.802867822598673
 10
5.480566387750706
 20
6.807792692610908
 10
5.469605718150757
 20
6.808185691726166
 10
5.459682195654666
 20
6.804011915115458
 10
5.451677682225616
 20
6.795642200651988
 10
5.446303267655166
 20
6.783820278967015
 10
5.444036630054148
 20
6.76959653949771
 10
5.445079031686364
 20
6.754234845932198
 10
5.449337965197308
 20
6.739100139130147
 10
5.456434966268165
 20
6.725537201678942
 10
5.465739491496017
 20
6.714751164774864
 10
5.476424644049845
 20
6.707700425312853
 10
5.487541151898717
 20
6.705011461686938
 10
5.498101163711395
 20
6.70692320118564
 10
5.507166469621912
 20
6.713265775057005
 10
5.513931467466804
 20
6.723475630369797
 10
5.517795205134426
 20
6.736645550182768
 10
5.518414202402664
 20
6.751605363697553
 10
5.515733563277886
 20
6.767025805847747
  0
LWPOLYLINE
  5
98
330
1F
100
AcDbEntity
  8
0
  6
Continuous
 62
     7
370
    15
100
AcDbPolyline
 90
        7
 70
   128
 43
0.0
 10
5.530375168269437
 20
6.770980210147406
 10
5.524451586347081
 20
6.78594959243975
 10
5.515896246241381
 20
6.798650580071751
 10
5.505469118685327
 20
6.80795467861704
 10
5.494096867410206
 20
6.813035140127156
 10
5.482789882908368
 20
6.813440542727296
 10
5.480749397442321
 20
6.812983415272952
  0
LWPOLYLINE
  5
99
330
1F
100
AcDbEntity
  8
0
  6
Continuous
 62
     7
370
    15
100
AcDbPolyline
 90
        7
 70
   128
 43
0.0
 10
5.508913807716427
 20
6.707857496930562
 10
5.512185650419971
 20
6.708978634993504
 10
5.52153732812598
 20
6.715521618060624
 10
5.528516102308793
 20
6.726054047517572
 10
5.532501869483668
 20
6.739640089316877
 10
5.533140502094716
 20
6.755072542303631
 10
5.530375168269437
 20
6.770980210147406
  0
LWPOLYLINE
  5
9A
330
1F
100
AcDbEntity
  8
0
  6
Continuous
 62
     7
370
    15
100
AcDbPolyline
 90
        7
 70
   128
 43
0.0
 10
5.518000753987154
 20
6.366230100484762
 10
5.520766087812433
 20
6.350322456191558
 10
5.520127455201384
 20
6.334890003204804
 10
5.516141688026508
 20
6.321303961405501
 10
5.509162913843699
 20
6.310771520173266
 10
5.499811236137688
 20
6.304228525330858
 10
5.496539393434144
 20
6.303107387267917
  0
LWPOLYLINE
  5
9B
330
1F
100
AcDbEntity
  8
0
  6
Continuous
 62
     7
370
    15
100
AcDbPolyline
 90
        7
 70
   128
 43
0.0
 10
5.468374983160038
 20
6.40823332916088
 10
5.470415468626084
 20
6.408690456615223
 10
5.481722453127923
 20
6.408285042239797
 10
5.493094704403044
 20
6.40320458072968
 10
5.503521831959098
 20
6.393900482184394
 10
5.512077172064798
 20
6.381199494552392
 10
5.518000753987154
 20
6.366230100484762
  0
LWPOLYLINE
  5
9C
330
1F
100
AcDbEntity
  8
0
  6
Continuous
 62
     7
370
    15
100
AcDbPolyline
 90
       22
 70
   128
 43
0.0
 10
5.515733563277886
 20
6.365590950306986
 10
5.509991469999464
 20
6.380101847393162
 10
5.501698095787805
 20
6.392413835588478
 10
5.491590388245071
 20
6.401432955282627
 10
5.480566387750706
 20
6.40635782529486
 10
5.469605718150757
 20
6.406750824410119
 10
5.459682195654666
 20
6.402577047799411
 10
5.451677682225616
 20
6.394207345111229
 10
5.446303267655166
 20
6.38238543520154
 10
5.444036630054148
 20
6.368161672181663
 10
5.445079031686364
 20
6.352800002166723
 10
5.449337965197308
 20
6.337665283589386
 10
5.456434966268165
 20
6.324102357913467
 10
5.465739491496017
 20
6.313316309234103
 10
5.476424644049845
 20
6.306265569772094
 10
5.487541151898717
 20
6.303576606146178
 10
5.498101163711395
 20
6.305488357420166
 10
5.507166469621912
 20
6.31183093129153
 10
5.513931467466804
 20
6.322040774829036
 10
5.517795205134426
 20
6.335210706417294
 10
5.518414202402664
 20
6.350170508156793
 10
5.515733563277886
 20
6.365590950306986
  0
LWPOLYLINE
  5
9D
330
1F
100
AcDbEntity
  8
0
  6
Continuous
 62
     7
370
    15
100
AcDbPolyline
 90
        7
 70
   128
 43
0.0
 10
5.530375168269437
 20
6.369545342831361
 10
5.524451586347081
 20
6.38451473689899
 10
5.515896246241381
 20
6.39721572453099
 10
5.505469118685327
 20
6.406519823076279
 10
5.494096867410206
 20
6.411600284586395
 10
5.482789882908368
 20
6.412005698961822
 10
5.480749397442321
 20
6.411548571507479
  0
LWPOLYLINE
  5
9E
330
1F
100
AcDbEntity
  8
0
  6
Continuous
 62
     7
370
    15
100
AcDbPolyline
 90
        7
 70
   128
 43
0.0
 10
5.508913807716427
 20
6.306422629614515
 10
5.512185650419971
 20
6.307543767677456
 10
5.52153732812598
 20
6.314086762519863
 10
5.528516102308793
 20
6.324619203752099
 10
5.532501869483668
 20
6.338205245551403
 10
5.533140502094716
 20
6.353637698538157
 10
5.530375168269437
 20
6.369545342831361
  0
LINE
  5
9F
330
1F
100
AcDbEntity
  8
0
  6
Continuous
 62
     7
370
    15
100
AcDbLine
 10
5.252942086037326
 20
8.163802240633549
 30
0.0
 11
5.252942086037326
 21
7.913520507093967
 31
0.0
  0
LINE
  5
A0
330
1F
100
AcDbEntity
  8
0
  6
Continuous
 62
     7
370
    15
100
AcDbLine
 10
5.252942086037326
 20
5.274655469479011
 30
0.0
 11
5.252942086037326
 21
5.233327794008468
 31
0.0
  0
LINE
  5
A1
330
1F
100
AcDbEntity
  8
0
  6
Continuous
 62
     7
370
    15
100
AcDbLine
 10
5.252942086037326
 20
5.233327794008468
 30
0.0
 11
5.229779571928524
 21
5.227122300489706
 31
0.0
  0
LINE
  5
A2
330
1F
100
AcDbEntity
  8
0
  6
Continuous
 62
     7
370
    15
100
AcDbLine
 10
4.609569199024969
 20
5.060961087106625
 30
0.0
 11
2.6012917793778
 21
4.522921371169292
 31
0.0
  0
LINE
  5
A3
330
1F
100
AcDbEntity
  8
0
  6
Continuous
 62
     7
370
    15
100
AcDbLine
 10
2.6012917793778
 20
4.522921371169292
 30
0.0
 11
2.6012917793778
 21
5.898509830314069
 31
0.0
  0
LINE
  5
A4
330
1F
100
AcDbEntity
  8
0
  6
Continuous
 62
     7
370
    15
100
AcDbLine
 10
2.6012917793778
 20
5.898509830314069
 30
0.0
 11
2.424515064611752
 21
5.940798125029415
 31
0.0
  0
LINE
  5
A5
330
1F
100
AcDbEntity
  8
0
  6
Continuous
 62
     7
370
    15
100
AcDbLine
 10
2.424515064611752
 20
5.940798125029415
 30
0.0
 11
2.542366115604409
 21
6.045836256454551
 31
0.0
  0
LINE
  5
A6
330
1F
100
AcDbEntity
  8
0
  6
Continuous
 62
     7
370
    15
100
AcDbLine
 10
2.542366115604409
 20
6.045836256454551
 30
0.0
 11
2.542366115604409
 21
7.437608981230916
 31
0.0
  0
LINE
  5
A7
330
1F
100
AcDbEntity
  8
0
  6
Continuous
 62
     7
370
    15
100
AcDbLine
 10
5.252942086037326
 20
8.163802240633549
 30
0.0
 11
2.542366115604409
 21
7.437608981230916
 31
0.0
  0
LINE
  5
A8
330
1F
100
AcDbEntity
  8
0
  6
Continuous
 62
     7
370
    15
100
AcDbLine
 10
4.427984175980482
 20
8.384817582062435
 30
0.0
 11
5.252942086037326
 21
8.163802240633549
 31
0.0
  0
LINE
  5
A9
330
1F
100
AcDbEntity
  8
0
  6
Continuous
 62
     7
370
    15
100
AcDbLine
 10
1.717408205547565
 20
7.658624322659802
 30
0.0
 11
2.542366115604409
 21
7.437608981230916
 31
0.0
  0
LINE
  5
AA
330
1F
100
AcDbEntity
  8
0
  6
Continuous
 62
     7
370
    15
100
AcDbLine
 10
4.427984175980482
 20
8.384817582062435
 30
0.0
 11
1.717408205547565
 21
7.658624322659802
 31
0.0
  0
LINE
  5
AB
330
1F
100
AcDbEntity
  8
0
  6
Continuous
 62
     7
370
    15
100
AcDbLine
 10
1.717408205547565
 20
6.266851597883439
 30
0.0
 11
2.542366115604409
 21
6.045836256454551
 31
0.0
  0
LINE
  5
AC
330
1F
100
AcDbEntity
  8
0
  6
Continuous
 62
     7
370
    15
100
AcDbLine
 10
1.717408205547565
 20
6.266851597883439
 30
0.0
 11
1.717408205547565
 21
7.658624322659802
 31
0.0
  0
LINE
  5
AD
330
1F
100
AcDbEntity
  8
0
  6
Continuous
 62
     7
370
    15
100
AcDbLine
 10
1.599557154554907
 20
6.161813466458303
 30
0.0
 11
2.424515064611752
 21
5.940798125029415
 31
0.0
  0
LINE
  5
AE
330
1F
100
AcDbEntity
  8
0
  6
Continuous
 62
     7
370
    15
100
AcDbLine
 10
1.599557154554907
 20
6.161813466458303
 30
0.0
 11
1.717408205547565
 21
6.266851597883439
 31
0.0
  0
LINE
  5
AF
330
1F
100
AcDbEntity
  8
0
  6
Continuous
 62
     7
370
    15
100
AcDbLine
 10
1.776333869320955
 20
4.74393671259818
 30
0.0
 11
2.6012917793778
 21
4.522921371169292
 31
0.0
  0
LINE
  5
B0
330
1F
100
AcDbEntity
  8
0
  6
Continuous
 62
     7
370
    15
100
AcDbLine
 10
1.776333869320955
 20
4.74393671259818
 30
0.0
 11
1.776333869320955
 21
6.114453043678575
 31
0.0
  0
LINE
  5
B1
330
1F
100
AcDbEntity
  8
0
  6
Continuous
 62
     7
370
    15
100
AcDbLine
 10
6.60823014039231
 20
7.800705592409253
 30
0.0
 11
5.609052880693385
 21
8.068396223056243
 31
0.0
  0
LINE
  5
B2
330
1F
100
AcDbEntity
  8
0
  6
Continuous
 62
     7
370
    15
100
AcDbLine
 10
5.291792685943224
 20
8.153393735547117
 30
0.0
 11
4.366501250790923
 21
8.401289537221797
 31
0.0
  0
LINE
  5
B3
330
1F
100
AcDbEntity
  8
0
  6
Continuous
 62
     7
370
    15
100
AcDbLine
 10
4.056606764012435
 20
8.48431369514224
 30
0.0
 11
3.072696121625497
 21
8.747914230286731
 31
0.0
  0
LINE
  5
B4
330
1F
100
AcDbEntity
  8
0
  6
Continuous
 62
     7
370
    15
100
AcDbLine
 10
6.60823014039231
 20
7.800705592409253
 30
0.0
 11
6.60823014039231
 21
6.407299376357115
 31
0.0
  0
LINE
  5
B5
330
1F
100
AcDbEntity
  8
0
  6
Continuous
 62
     7
370
    15
100
AcDbLine
 10
6.60823014039231
 20
6.407299376357115
 30
0.0
 11
6.726081191384968
 21
6.283822993725102
 31
0.0
  0
LINE
  5
B6
330
1F
100
AcDbEntity
  8
0
  6
Continuous
 62
     7
370
    15
100
AcDbLine
 10
6.726081191384968
 20
6.283822993725102
 30
0.0
 11
6.549304476618921
 21
6.265671653044031
 31
0.0
  0
LINE
  5
B7
330
1F
100
AcDbEntity
  8
0
  6
Continuous
 62
     7
370
    15
100
AcDbLine
 10
6.549304476618921
 20
6.265671653044031
 30
0.0
 11
6.549304476618921
 21
4.845874429674424
 31
0.0
  0
LINE
  5
B8
330
1F
100
AcDbEntity
  8
0
  6
Continuous
 62
     7
370
    15
100
AcDbLine
 10
5.219715974768583
 20
5.2020858837547
 30
0.0
 11
6.549304476618921
 21
4.845874429674424
 31
0.0
  0
LINE
  5
B9
330
1F
100
AcDbEntity
  8
0
  6
Continuous
 62
     7
370
    15
100
AcDbLine
 10
3.072696121625497
 20
8.021720921390944
 30
0.0
 11
3.072696121625497
 21
8.747914230286731
 31
0.0
  0
LINE
  5
BA
330
1F
100
AcDbEntity
  8
0
  6
Continuous
 62
     7
370
    15
100
AcDbLine
 10
7.433188050449158
 20
8.021720933838141
 30
0.0
 11
6.60823014039231
 21
7.800705592409253
 31
0.0
  0
LINE
  5
BB
330
1F
100
AcDbEntity
  8
0
  6
Continuous
 62
     7
370
    15
100
AcDbLine
 10
3.897654031682344
 20
8.968929571715618
 30
0.0
 11
3.072696121625497
 21
8.747914230286731
 31
0.0
  0
LINE
  5
BC
330
1F
100
AcDbEntity
  8
0
  6
Continuous
 62
     7
370
    15
100
AcDbLine
 10
7.433188050449158
 20
8.021720933838141
 30
0.0
 11
3.897654031682344
 21
8.968929571715618
 31
0.0
  0
LINE
  5
BD
330
1F
100
AcDbEntity
  8
0
  6
Continuous
 62
     7
370
    15
100
AcDbLine
 10
7.433188050449158
 20
8.021720933838141
 30
0.0
 11
7.433188050449158
 21
6.628314717786002
 31
0.0
  0
LINE
  5
BE
330
1F
100
AcDbEntity
  8
0
  6
Continuous
 62
     7
370
    15
100
AcDbLine
 10
7.433188050449158
 20
6.628314717786002
 30
0.0
 11
6.60823014039231
 21
6.407299376357115
 31
0.0
  0
LINE
  5
BF
330
1F
100
AcDbEntity
  8
0
  6
Continuous
 62
     7
370
    15
100
AcDbLine
 10
7.433188050449158
 20
6.628314717786002
 30
0.0
 11
7.551039101441816
 21
6.504838335153989
 31
0.0
  0
LINE
  5
C0
330
1F
100
AcDbEntity
  8
0
  6
Continuous
 62
     7
370
    15
100
AcDbLine
 10
7.551039101441816
 20
6.504838335153989
 30
0.0
 11
6.726081191384968
 21
6.283822993725102
 31
0.0
  0
LINE
  5
C1
330
1F
100
AcDbEntity
  8
0
  6
Continuous
 62
     7
370
    15
100
AcDbLine
 10
7.374262386675768
 20
6.457477907958526
 30
0.0
 11
7.374262386675768
 21
5.066889771103309
 31
0.0
  0
LINE
  5
C2
330
1F
100
AcDbEntity
  8
0
  6
Continuous
 62
     7
370
    15
100
AcDbLine
 10
7.374262386675768
 20
5.066889771103309
 30
0.0
 11
6.549304476618921
 21
4.845874429674424
 31
0.0
  0
LINE
  5
C3
330
1F
100
AcDbEntity
  8
0
  6
Continuous
 62
     7
370
    15
100
AcDbLine
 10
5.213556181054992
 20
7.908442673030068
 30
0.0
 11
4.616934906996642
 21
7.748601239931188
 31
0.0
  0
LINE
  5
C4
330
1F
100
AcDbEntity
  8
0
  6
Continuous
 62
     7
370
    15
100
AcDbLine
 10
5.238210635524713
 20
7.901837472199892
 30
0.0
 11
4.641589361466365
 21
7.741996039101012
 31
0.0
  0
LINE
  5
C5
330
1F
100
AcDbEntity
  8
0
  6
Continuous
 62
     7
370
    15
100
AcDbLine
 10
4.641589361466365
 20
7.741996039101012
 30
0.0
 11
4.616934906996642
 21
7.748601239931188
 31
0.0
  0
LINE
  5
C6
330
1F
100
AcDbEntity
  8
0
  6
Continuous
 62
     7
370
    15
100
AcDbLine
 10
4.616934906996642
 20
5.089095349939954
 30
0.0
 11
4.616934906996642
 21
7.748601239931188
 31
0.0
  0
LINE
  5
C7
330
1F
100
AcDbEntity
  8
0
  6
Continuous
 62
     7
370
    15
100
AcDbLine
 10
4.641589361466365
 20
5.082490149109777
 30
0.0
 11
4.641589361466365
 21
7.741996039101012
 31
0.0
  0
LINE
  5
C8
330
1F
100
AcDbEntity
  8
0
  6
Continuous
 62
     7
370
    15
100
AcDbLine
 10
5.230845031260836
 20
5.27046587282645
 30
0.0
 11
5.238210635524713
 21
5.272439199612419
 31
0.0
  0
LINE
  5
C9
330
1F
100
AcDbEntity
  8
0
  6
Continuous
 62
     7
370
    15
100
AcDbLine
 10
5.230845031260836
 20
5.240358255422689
 30
0.0
 11
5.230845031260836
 21
5.27046587282645
 31
0.0
  0
ARC
  5
CA
330
1F
100
AcDbEntity
  8
0
  6
Continuous
 62
     7
370
    15
100
AcDbCircle
 10
5.360442730026452
 20
8.117176959510391
 30
0.0
 40
0.0781725605174366
100
AcDbArc
 50
113.5919969909038
 51
183.3633143499089
  0
ARC
  5
CB
330
1F
100
AcDbEntity
  8
0
  6
Continuous
 62
     7
370
    15
100
AcDbCircle
 10
5.662436272895361
 20
8.036269551783503
 30
0.0
 40
0.0781725605174376
100
AcDbArc
 50
113.5919969909044
 51
183.3633143499101
  0
LINE
  5
CC
330
1F
100
AcDbEntity
  8
0
  6
Continuous
 62
     7
370
    15
100
AcDbLine
 10
5.584398357085134
 20
8.031683386299327
 30
0.0
 11
5.584398357085134
 21
5.191531791885529
 31
0.0
  0
LINE
  5
CD
330
1F
100
AcDbEntity
  8
0
  6
Continuous
 62
     7
370
    15
100
AcDbLine
 10
5.584398357085134
 20
5.191531791885529
 30
0.0
 11
5.282404814216225
 21
5.272439199612419
 31
0.0
  0
LINE
  5
CE
330
1F
100
AcDbEntity
  8
0
  6
Continuous
 62
     7
370
    15
100
AcDbLine
 10
5.282404814216225
 20
8.112590794026218
 30
0.0
 11
5.282404814216225
 21
7.901837472199892
 31
0.0
  0
LINE
  5
CF
330
1F
100
AcDbEntity
  8
0
  6
Continuous
 62
     7
370
    15
100
AcDbLine
 10
5.609052880693385
 20
8.038288605652482
 30
0.0
 11
5.609052880693385
 21
5.198137011238682
 31
0.0
  0
LINE
  5
D0
330
1F
100
AcDbEntity
  8
0
  6
Continuous
 62
     7
370
    15
100
AcDbLine
 10
5.609052880693385
 20
5.198137011238682
 30
0.0
 11
5.584398357085134
 21
5.191531791885529
 31
0.0
  0
LINE
  5
D1
330
1F
100
AcDbEntity
  8
0
  6
Continuous
 62
     7
370
    15
100
AcDbLine
 10
5.329156427170233
 20
8.188815751176926
 30
0.0
 11
5.896315007618949
 21
8.340763803040029
 31
0.0
  0
LINE
  5
D2
330
1F
100
AcDbEntity
  8
0
  6
Continuous
 62
     7
370
    15
100
AcDbLine
 10
5.896315007618949
 20
8.340763803040029
 30
0.0
 11
6.198308550487857
 21
8.259856395313141
 31
0.0
  0
LINE
  5
D3
330
1F
100
AcDbEntity
  8
0
  6
Continuous
 62
     7
370
    15
100
AcDbLine
 10
6.198308550487857
 20
8.259856395313141
 30
0.0
 11
5.631149970039142
 21
8.107908343450038
 31
0.0
  0
LINE
  5
D4
330
1F
100
AcDbEntity
  8
0
  6
Continuous
 62
     7
370
    15
100
AcDbLine
 10
6.198308550487857
 20
8.259856395313141
 30
0.0
 11
6.198308550487857
 21
8.226264329369154
 31
0.0
  0
LINE
  5
D5
330
1F
100
AcDbEntity
  8
0
  6
Continuous
 62
     7
370
    15
100
AcDbLine
 10
6.198308550487857
 20
8.226264329369154
 30
0.0
 11
5.631149970039142
 21
8.074316277506051
 31
0.0
  0
ARC
  5
D6
330
1F
100
AcDbEntity
  8
0
  6
Continuous
 62
     7
370
    15
100
AcDbCircle
 10
5.260307724870469
 20
5.176851707401205
 30
0.0
 40
0.0981083585877536
100
AcDbArc
 50
76.98351048654533
 51
103.0164895134547
  0
ARC
  5
D7
330
1F
100
AcDbEntity
  8
0
  6
Continuous
 62
     7
370
    15
100
AcDbCircle
 10
5.260307724870469
 20
7.806249979988677
 30
0.0
 40
0.0981083585877536
100
AcDbArc
 50
76.98351048654533
 51
103.0164895134547
  0
ARC
  5
D8
330
1F
100
AcDbEntity
  8
0
  6
Continuous
 62
     7
370
    15
100
AcDbCircle
 10
5.260454340913407
 20
7.704558950871149
 30
0.0
 40
0.2092080532854331
100
AcDbArc
 50
83.97732318204301
 51
102.9540733337381
  0
LWPOLYLINE
  5
D9
330
1F
100
AcDbEntity
  8
0
  6
Continuous
 62
     7
370
    15
100
AcDbPolyline
 90
        9
 70
   128
 43
0.0
 10
4.594837817650887
 20
5.031315721042015
 10
4.603958572663284
 20
5.030096140339239
 10
4.612728864461931
 20
5.031371292192039
 10
4.620811573569567
 20
5.035092357850435
 10
4.62789612970484
 20
5.041116174420006
 10
4.633710299901854
 20
5.049211402721208
 10
4.638030593859079
 20
5.059066761249431
 10
4.640691044532798
 20
5.070303557718955
 10
4.641589361466365
 20
5.082490149109777
  0
ARC
  5
DA
330
1F
100
AcDbEntity
  8
0
  6
Continuous
 62
     7
370
    15
100
AcDbCircle
 10
4.588993257121167
 20
5.087553483691313
 30
0.0
 40
0.0279841588991413
100
AcDbArc
 50
318.3075755137878
 51
3.158472191224807
  0
ARC
  5
DB
330
1F
100
AcDbEntity
  8
0
  6
Continuous
 62
     7
370
    15
100
AcDbCircle
 10
5.181623365381887
 20
5.234550642039409
 30
0.0
 40
0.0495630988247166
100
AcDbArc
 50
293.2693115897151
 51
6.729158350359116
  0
LINE
  5
DC
330
1F
100
AcDbEntity
  8
0
  6
Continuous
 62
     7
370
    15
100
AcDbLine
 10
4.546876626096652
 20
5.044165054320079
 30
0.0
 11
4.594837817650887
 21
5.031315721042015
 31
0.0
  0
ARC
  5
DD
330
1F
100
AcDbEntity
  8
0
  6
Continuous
 62
     7
370
    15
100
AcDbCircle
 10
4.419884642992898
 20
8.369162865949057
 30
0.0
 40
0.0781725605174385
100
AcDbArc
 50
113.5919969909039
 51
183.3633143499088
  0
ARC
  5
DE
330
1F
100
AcDbEntity
  8
0
  6
Continuous
 62
     7
370
    15
100
AcDbCircle
 10
4.125256773526404
 20
8.448096928366998
 30
0.0
 40
0.0781725605174439
100
AcDbArc
 50
113.5919969909065
 51
183.363314349906
  0
LINE
  5
DF
330
1F
100
AcDbEntity
  8
0
  6
Continuous
 62
     7
370
    15
100
AcDbLine
 10
4.04721885771617
 20
8.28280636462389
 30
0.0
 11
4.04721885771617
 21
8.443510762882828
 31
0.0
  0
LINE
  5
E0
330
1F
100
AcDbEntity
  8
0
  6
Continuous
 62
     7
370
    15
100
AcDbLine
 10
4.34184672718267
 20
8.361740363686443
 30
0.0
 11
4.34184672718267
 21
8.364576700464883
 31
0.0
  0
LINE
  5
E1
330
1F
100
AcDbEntity
  8
0
  6
Continuous
 62
     7
370
    15
100
AcDbLine
 10
4.366501250790923
 20
8.368345583039598
 30
0.0
 11
4.366501250790923
 21
8.371181919818036
 31
0.0
  0
LINE
  5
E2
330
1F
100
AcDbEntity
  8
0
  6
Continuous
 62
     7
370
    15
100
AcDbLine
 10
4.388598340136678
 20
8.440801657615594
 30
0.0
 11
4.955756920585393
 21
8.592749709478697
 31
0.0
  0
LINE
  5
E3
330
1F
100
AcDbEntity
  8
0
  6
Continuous
 62
     7
370
    15
100
AcDbLine
 10
4.955756920585393
 20
8.592749709478697
 30
0.0
 11
4.955756920585393
 21
8.55915764353471
 31
0.0
  0
LINE
  5
E4
330
1F
100
AcDbEntity
  8
0
  6
Continuous
 62
     7
370
    15
100
AcDbLine
 10
4.388598340136678
 20
8.407209591671607
 30
0.0
 11
4.955756920585393
 21
8.55915764353471
 31
0.0
  0
LINE
  5
E5
330
1F
100
AcDbEntity
  8
0
  6
Continuous
 62
     7
370
    15
100
AcDbLine
 10
4.661129051118893
 20
8.671683771896642
 30
0.0
 11
4.093970470670178
 21
8.519735720033539
 31
0.0
  0
LINE
  5
E6
330
1F
100
AcDbEntity
  8
0
  6
Continuous
 62
     7
370
    15
100
AcDbLine
 10
4.955756920585393
 20
8.592749709478697
 30
0.0
 11
4.661129051118893
 21
8.671683771896642
 31
0.0
  0
LINE
  5
E7
330
1F
100
AcDbEntity
  8
0
  6
Continuous
 62
     8
370
    15
100
AcDbLine
 10
5.238210635524713
 20
7.901837472199892
 30
0.0
 11
5.213556181054992
 21
7.908442673030068
 31
0.0
  0
LINE
  5
E8
330
1F
100
AcDbEntity
  8
0
  6
Continuous
 62
     8
370
    15
100
AcDbLine
 10
4.616934906996642
 20
5.089095349939954
 30
0.0
 11
4.641589361466365
 21
5.082490149109777
 31
0.0
  0
LINE
  5
E9
330
1F
100
AcDbEntity
  8
0
  6
Continuous
 62
     8
370
    15
100
AcDbLine
 10
5.238210635524713
 20
7.901837472199892
 30
0.0
 11
5.238210635524713
 21
5.272439199612419
 31
0.0
  0
LINE
  5
EA
330
1F
100
AcDbEntity
  8
0
  6
Continuous
 62
     8
370
    15
100
AcDbLine
 10
4.641589361466365
 20
5.082490149109777
 30
0.0
 11
5.230845031260836
 21
5.240358255422689
 31
0.0
  0
LINE
  5
EB
330
1F
100
AcDbEntity
  8
0
  6
Continuous
 62
     8
370
    15
100
AcDbLine
 10
5.631149970039142
 20
8.107908343450038
 30
0.0
 11
5.329156427170233
 21
8.188815751176926
 31
0.0
  0
LINE
  5
EC
330
1F
100
AcDbEntity
  8
0
  6
Continuous
 62
     8
370
    15
100
AcDbLine
 10
5.584398357085134
 20
8.031683386299327
 30
0.0
 11
5.282404814216225
 21
8.112590794026218
 31
0.0
  0
LINE
  5
ED
330
1F
100
AcDbEntity
  8
0
  6
Continuous
 62
     8
370
    15
100
AcDbLine
 10
5.609052880693385
 20
8.038288605652482
 30
0.0
 11
5.584398357085134
 21
8.031683386299327
 31
0.0
  0
LINE
  5
EE
330
1F
100
AcDbEntity
  8
0
  6
Continuous
 62
     8
370
    15
100
AcDbLine
 10
5.631149970039142
 20
8.074316277506051
 30
0.0
 11
5.631149970039142
 21
8.107908343450038
 31
0.0
  0
LINE
  5
EF
330
1F
100
AcDbEntity
  8
0
  6
Continuous
 62
     8
370
    15
100
AcDbLine
 10
5.282404814216225
 20
5.272439199612419
 30
0.0
 11
5.282404814216225
 21
7.901837472199892
 31
0.0
  0
LINE
  5
F0
330
1F
100
AcDbEntity
  8
0
  6
Continuous
 62
     8
370
    15
100
AcDbLine
 10
4.594837817650887
 20
5.031315721042015
 30
0.0
 11
4.594837817650887
 21
5.057014388622091
 31
0.0
  0
LINE
  5
F1
330
1F
100
AcDbEntity
  8
0
  6
Continuous
 62
     8
370
    15
100
AcDbLine
 10
4.366501250790923
 20
8.371181919818036
 30
0.0
 11
4.34184672718267
 21
8.364576700464883
 31
0.0
  0
LINE
  5
F2
330
1F
100
AcDbEntity
  8
0
  6
Continuous
 62
     8
370
    15
100
AcDbLine
 10
4.388598340136678
 20
8.407209591671607
 30
0.0
 11
4.388598340136678
 21
8.440801657615594
 31
0.0
  0
LINE
  5
F3
330
1F
100
AcDbEntity
  8
0
  6
Continuous
 62
     8
370
    15
100
AcDbLine
 10
4.388598340136678
 20
8.440801657615594
 30
0.0
 11
4.093970470670178
 21
8.519735720033539
 31
0.0
  0
LINE
  5
F4
330
1F
100
AcDbEntity
  8
0
  6
Continuous
 62
     8
370
    15
100
AcDbLine
 10
4.34184672718267
 20
8.364576700464883
 30
0.0
 11
4.04721885771617
 21
8.443510762882828
 31
0.0
  0
TEXT
  5
FC
330
1F
100
AcDbEntity
  8
0
100
AcDbText
 10
3.659389824049192
 20
3.879654455585075
 30
0.0
 40
0.25
  1
USP  HDO
100
AcDbText
  0
TEXT
  5
FD
330
1F
100
AcDbEntity
  8
0
100
AcDbText
 10
2.736794952496282
 20
3.423286291260925
 30
0.0
 40
0.25
  1
SIMPSON  BA
100
AcDbText
  0
ENDSEC
  0
SECTION
  2
OBJECTS
  0
DICTIONARY
  5
C
330
0
100
AcDbDictionary
281
     1
  3
ACAD_COLOR
350
F9
  3
ACAD_GROUP
350
D
  3
ACAD_LAYOUT
350
1A
  3
ACAD_MATERIAL
350
F8
  3
ACAD_MLINESTYLE
350
17
  3
ACAD_PLOTSETTINGS
350
19
  3
ACAD_PLOTSTYLENAME
350
E
  0
DICTIONARY
  5
F9
102
{ACAD_REACTORS
330
C
102
}
330
C
100
AcDbDictionary
281
     1
  0
DICTIONARY
  5
D
102
{ACAD_REACTORS
330
C
102
}
330
C
100
AcDbDictionary
281
     1
  0
DICTIONARY
  5
1A
102
{ACAD_REACTORS
330
C
102
}
330
C
100
AcDbDictionary
281
     1
  3
Layout1
350
1E
  3
Layout2
350
26
  3
Model
350
22
  0
DICTIONARY
  5
F8
102
{ACAD_REACTORS
330
C
102
}
330
C
100
AcDbDictionary
281
     1
  0
DICTIONARY
  5
17
102
{ACAD_REACTORS
330
C
102
}
330
C
100
AcDbDictionary
281
     1
  3
Standard
350
18
  0
DICTIONARY
  5
19
102
{ACAD_REACTORS
330
C
102
}
330
C
100
AcDbDictionary
281
     1
  0
ACDBDICTIONARYWDFLT
  5
E
102
{ACAD_REACTORS
330
C
102
}
330
C
100
AcDbDictionary
281
     1
  3
Normal
350
F
100
AcDbDictionaryWithDefault
340
F
  0
LAYOUT
  5
1E
102
{ACAD_REACTORS
330
1A
102
}
330
1A
100
AcDbPlotSettings
  1

  2
none_device
  4

  6

 40
0.0
 41
0.0
 42
0.0
 43
0.0
 44
0.0
 45
0.0
 46
0.0
 47
0.0
 48
0.0
 49
0.0
140
0.0
141
0.0
142
1.0
143
1.0
 70
   688
 72
     0
 73
     0
 74
     5
  7

 75
    16
147
1.0
 76
     0
 77
     2
 78
   300
148
0.0
149
0.0
100
AcDbLayout
  1
Layout1
 70
     1
 71
     1
 10
0.0
 20
0.0
 11
12.0
 21
9.0
 12
0.0
 22
0.0
 32
0.0
 14
1.000000000000000E+20
 24
1.000000000000000E+20
 34
1.000000000000000E+20
 15
-1.000000000000000E+20
 25
-1.000000000000000E+20
 35
-1.000000000000000E+20
146
0.0
 13
0.0
 23
0.0
 33
0.0
 16
1.0
 26
0.0
 36
0.0
 17
0.0
 27
1.0
 37
0.0
 76
     0
330
1B
  0
LAYOUT
  5
26
102
{ACAD_REACTORS
330
1A
102
}
330
1A
100
AcDbPlotSettings
  1

  2
none_device
  4

  6

 40
0.0
 41
0.0
 42
0.0
 43
0.0
 44
0.0
 45
0.0
 46
0.0
 47
0.0
 48
0.0
 49
0.0
140
0.0
141
0.0
142
1.0
143
1.0
 70
   688
 72
     0
 73
     0
 74
     5
  7

 75
    16
147
1.0
 76
     0
 77
     2
 78
   300
148
0.0
149
0.0
100
AcDbLayout
  1
Layout2
 70
     1
 71
     2
 10
0.0
 20
0.0
 11
0.0
 21
0.0
 12
0.0
 22
0.0
 32
0.0
 14
0.0
 24
0.0
 34
0.0
 15
0.0
 25
0.0
 35
0.0
146
0.0
 13
0.0
 23
0.0
 33
0.0
 16
1.0
 26
0.0
 36
0.0
 17
0.0
 27
1.0
 37
0.0
 76
     0
330
23
  0
LAYOUT
  5
22
102
{ACAD_REACTORS
330
1A
102
}
330
1A
100
AcDbPlotSettings
  1

  2
none_device
  4

  6

 40
0.0
 41
0.0
 42
0.0
 43
0.0
 44
0.0
 45
0.0
 46
0.0
 47
0.0
 48
0.0
 49
0.0
140
0.0
141
0.0
142
1.0
143
1.0
 70
  1712
 72
     0
 73
     0
 74
     0
  7

 75
     0
147
1.0
 76
     0
 77
     2
 78
   300
148
0.0
149
0.0
100
AcDbLayout
  1
Model
 70
     1
 71
     0
 10
0.0
 20
0.0
 11
8.5
 21
11.0
 12
0.0
 22
0.0
 32
0.0
 14
0.0
 24
0.0
 34
0.0
 15
8.5
 25
11.0
 35
0.0
146
0.0
 13
0.0
 23
0.0
 33
0.0
 16
1.0
 26
0.0
 36
0.0
 17
0.0
 27
1.0
 37
0.0
 76
     0
330
1F
  0
MLINESTYLE
  5
18
102
{ACAD_REACTORS
330
17
102
}
330
17
100
AcDbMlineStyle
  2
STANDARD
 70
     0
  3

 62
   256
 51
90.0
 52
90.0
 71
     2
 49
0.5
 62
   256
  6
BYLAYER
 49
-0.5
 62
   256
  6
BYLAYER
  0
ACDBPLACEHOLDER
  5
F
102
{ACAD_REACTORS
330
E
102
}
330
E
  0
ENDSEC
  0
EOF
