  0
SECTION
  2
HEADER
  9
$ACADVER
  1
AC1014
  9
$ACADMAINTVER
 70
     8
  9
$DWGCODEPAGE
  3
ANSI_1252
  9
$INSBASE
 10
0.0
 20
0.0
 30
0.0
  9
$EXTMIN
 10
-0.0072850461125169
 20
0.0002815681426344
 30
0.0
  9
$EXTMAX
 10
14.71418134643572
 20
18.48361351420731
 30
0.0
  9
$LIMMIN
 10
0.0
 20
0.0
  9
$LIMMAX
 10
12.0
 20
9.0
  9
$ORTHOMODE
 70
     0
  9
$REGENMODE
 70
     1
  9
$FILLMODE
 70
     1
  9
$QTEXTMODE
 70
     0
  9
$MIRRTEXT
 70
     0
  9
$DRAGMODE
 70
     2
  9
$LTSCALE
 40
1.5
  9
$OSMODE
 70
     1
  9
$ATTMODE
 70
     1
  9
$TEXTSIZE
 40
0.25
  9
$TRACEWID
 40
0.05
  9
$TEXTSTYLE
  7
STANDARD
  9
$CLAYER
  8
USP
  9
$CELTYPE
  6
BYLAYER
  9
$CECOLOR
 62
   256
  9
$CELTSCALE
 40
1.0
  9
$DELOBJ
 70
     1
  9
$DISPSILH
 70
     1
  9
$DIMSCALE
 40
5.0
  9
$DIMASZ
 40
0.125
  9
$DIMEXO
 40
0.0625
  9
$DIMDLI
 40
0.38
  9
$DIMRND
 40
0.0
  9
$DIMDLE
 40
0.0
  9
$DIMEXE
 40
0.09375
  9
$DIMTP
 40
0.0
  9
$DIMTM
 40
0.0
  9
$DIMTXT
 40
0.109375
  9
$DIMCEN
 40
0.0
  9
$DIMTSZ
 40
0.0
  9
$DIMTOL
 70
     0
  9
$DIMLIM
 70
     0
  9
$DIMTIH
 70
     1
  9
$DIMTOH
 70
     1
  9
$DIMSE1
 70
     0
  9
$DIMSE2
 70
     0
  9
$DIMTAD
 70
     0
  9
$DIMZIN
 70
     8
  9
$DIMBLK
  1

  9
$DIMASO
 70
     1
  9
$DIMSHO
 70
     1
  9
$DIMPOST
  1

  9
$DIMAPOST
  1

  9
$DIMALT
 70
     0
  9
$DIMALTD
 70
     2
  9
$DIMALTF
 40
25.4
  9
$DIMLFAC
 40
1.0
  9
$DIMTOFL
 70
     0
  9
$DIMTVP
 40
0.0
  9
$DIMTIX
 70
     0
  9
$DIMSOXD
 70
     0
  9
$DIMSAH
 70
     0
  9
$DIMBLK1
  1

  9
$DIMBLK2
  1

  9
$DIMSTYLE
  2
STANDARD
  9
$DIMCLRD
 70
   256
  9
$DIMCLRE
 70
   256
  9
$DIMCLRT
 70
   256
  9
$DIMTFAC
 40
1.0
  9
$DIMGAP
 40
0.09
  9
$DIMJUST
 70
     0
  9
$DIMSD1
 70
     0
  9
$DIMSD2
 70
     0
  9
$DIMTOLJ
 70
     1
  9
$DIMTZIN
 70
     0
  9
$DIMALTZ
 70
     0
  9
$DIMALTTZ
 70
     0
  9
$DIMFIT
 70
     3
  9
$DIMUPT
 70
     1
  9
$DIMUNIT
 70
     7
  9
$DIMDEC
 70
     4
  9
$DIMTDEC
 70
     4
  9
$DIMALTU
 70
     2
  9
$DIMALTTD
 70
     2
  9
$DIMTXSTY
  7
STANDARD
  9
$DIMAUNIT
 70
     0
  9
$LUNITS
 70
     5
  9
$LUPREC
 70
     6
  9
$SKETCHINC
 40
0.1
  9
$FILLETRAD
 40
0.0
  9
$AUNITS
 70
     0
  9
$AUPREC
 70
     1
  9
$MENU
  1
CUSTOM
  9
$ELEVATION
 40
0.0
  9
$PELEVATION
 40
0.0
  9
$THICKNESS
 40
0.0
  9
$LIMCHECK
 70
     0
  9
$BLIPMODE
 70
     0
  9
$CHAMFERA
 40
0.0
  9
$CHAMFERB
 40
0.0
  9
$CHAMFERC
 40
0.0
  9
$CHAMFERD
 40
0.0
  9
$SKPOLY
 70
     0
  9
$TDCREATE
 40
2451263.621564698
  9
$TDUPDATE
 40
2452990.857345011
  9
$TDINDWG
 40
0.9796654630
  9
$TDUSRTIMER
 40
0.9796654630
  9
$USRTIMER
 70
     1
  9
$ANGBASE
 50
0.0
  9
$ANGDIR
 70
     0
  9
$PDMODE
 70
     0
  9
$PDSIZE
 40
0.0
  9
$PLINEWID
 40
0.0
  9
$COORDS
 70
     2
  9
$SPLFRAME
 70
     0
  9
$SPLINETYPE
 70
     6
  9
$SPLINESEGS
 70
     8
  9
$ATTDIA
 70
     0
  9
$ATTREQ
 70
     0
  9
$HANDLING
 70
     1
  9
$HANDSEED
  5
1CE
  9
$SURFTAB1
 70
     6
  9
$SURFTAB2
 70
     6
  9
$SURFTYPE
 70
     6
  9
$SURFU
 70
     6
  9
$SURFV
 70
     6
  9
$UCSNAME
  2

  9
$UCSORG
 10
0.0
 20
0.0
 30
0.0
  9
$UCSXDIR
 10
1.0
 20
0.0
 30
0.0
  9
$UCSYDIR
 10
0.0
 20
1.0
 30
0.0
  9
$PUCSNAME
  2

  9
$PUCSORG
 10
0.0
 20
0.0
 30
0.0
  9
$PUCSXDIR
 10
1.0
 20
0.0
 30
0.0
  9
$PUCSYDIR
 10
0.0
 20
1.0
 30
0.0
  9
$USERI1
 70
     0
  9
$USERI2
 70
     0
  9
$USERI3
 70
     0
  9
$USERI4
 70
     0
  9
$USERI5
 70
     0
  9
$USERR1
 40
0.0
  9
$USERR2
 40
0.0
  9
$USERR3
 40
0.0
  9
$USERR4
 40
0.0
  9
$USERR5
 40
0.0
  9
$WORLDVIEW
 70
     1
  9
$SHADEDGE
 70
     3
  9
$SHADEDIF
 70
    70
  9
$TILEMODE
 70
     1
  9
$MAXACTVP
 70
    16
  9
$PINSBASE
 10
0.0
 20
0.0
 30
0.0
  9
$PLIMCHECK
 70
     0
  9
$PEXTMIN
 10
1.000000000000000E+20
 20
1.000000000000000E+20
 30
1.000000000000000E+20
  9
$PEXTMAX
 10
-1.000000000000000E+20
 20
-1.000000000000000E+20
 30
-1.000000000000000E+20
  9
$PLIMMIN
 10
0.0
 20
0.0
  9
$PLIMMAX
 10
12.0
 20
9.0
  9
$UNITMODE
 70
     0
  9
$VISRETAIN
 70
     0
  9
$PLINEGEN
 70
     0
  9
$PSLTSCALE
 70
     0
  9
$TREEDEPTH
 70
  3020
  9
$PICKSTYLE
 70
     1
  9
$CMLSTYLE
  2
STANDARD
  9
$CMLJUST
 70
     0
  9
$CMLSCALE
 40
1.0
  9
$PROXYGRAPHICS
 70
     1
  9
$MEASUREMENT
 70
     0
  0
ENDSEC
  0
SECTION
  2
CLASSES
  0
CLASS
  1
ACDBDICTIONARYWDFLT
  2
AcDbDictionaryWithDefault
  3
AutoCAD 2000
 90
        0
280
     0
281
     0
  0
CLASS
  1
ACDBPLACEHOLDER
  2
AcDbPlaceHolder
  3
AutoCAD 2000
 90
        0
280
     0
281
     0
  0
CLASS
  1
LAYOUT
  2
AcDbLayout
  3
AutoCAD 2000
 90
        0
280
     0
281
     0
  0
CLASS
  1
DICTIONARYVAR
  2
AcDbDictionaryVar
  3
"AutoCAD"
 90
        0
280
     0
281
     0
  0
CLASS
  1
SORTENTSTABLE
  2
AcDbSortentsTable
  3
"AutoCAD"
 90
        0
280
     0
281
     0
  0
CLASS
  1
LONG_TRANSACTION
  2
AcDbLongTransaction
  3
AutoCAD 2000
 90
        0
280
     0
281
     0
  0
CLASS
  1
LWPOLYLINE
  2
AcDbPolyline
  3
"AutoCAD"
 90
        0
280
     0
281
     1
  0
CLASS
  1
HATCH
  2
AcDbHatch
  3
"ACAD_SEDONA"
 90
        0
280
     0
281
     1
  0
CLASS
  1
XRECORD
  2
AcDbXrecord
  3
"<Built In>"
 90
        0
280
     0
281
     0
  0
CLASS
  1
LONG_TRANSACTION
  2
AcDbLongTransaction
  3
AutoCAD 2000
 90
        0
280
     0
281
     0
  0
CLASS
  1
LWPOLYLINE
  2
AcDbPolyline
  3
"AutoCAD"
 90
        0
280
     0
281
     1
  0
CLASS
  1
HATCH
  2
AcDbHatch
  3
"ACAD_SEDONA"
 90
        0
280
     0
281
     1
  0
CLASS
  1
XRECORD
  2
AcDbXrecord
  3
"<Built In>"
 90
        0
280
     0
281
     0
  0
CLASS
  1
LONG_TRANSACTION
  2
AcDbLongTransaction
  3
AutoCAD 2000
 90
        0
280
     0
281
     0
  0
CLASS
  1
LWPOLYLINE
  2
AcDbPolyline
  3
"AutoCAD"
 90
        0
280
     0
281
     1
  0
CLASS
  1
HATCH
  2
AcDbHatch
  3
"ACAD_SEDONA"
 90
        0
280
     0
281
     1
  0
CLASS
  1
XRECORD
  2
AcDbXrecord
  3
"<Built In>"
 90
        0
280
     0
281
     0
  0
CLASS
  1
LONG_TRANSACTION
  2
AcDbLongTransaction
  3
AutoCAD 2000
 90
        0
280
     0
281
     0
  0
CLASS
  1
LWPOLYLINE
  2
AcDbPolyline
  3
"AutoCAD"
 90
        0
280
     0
281
     1
  0
CLASS
  1
HATCH
  2
AcDbHatch
  3
"ACAD_SEDONA"
 90
        0
280
     0
281
     1
  0
CLASS
  1
XRECORD
  2
AcDbXrecord
  3
"<Built In>"
 90
        0
280
     0
281
     0
  0
ENDSEC
  0
SECTION
  2
TABLES
  0
TABLE
  2
VPORT
  5
1BD
100
AcDbSymbolTable
 70
     1
  0
VPORT
  5
1BE
100
AcDbSymbolTableRecord
100
AcDbViewportTableRecord
  2
*ACTIVE
 70
     0
 10
0.0
 20
0.0
 11
1.0
 21
1.0
 12
1.484381856082713
 22
7.463223279982295
 13
0.0
 23
0.0
 14
1.0
 24
1.0
 15
0.0
 25
0.0
 16
0.0
 26
0.0
 36
1.0
 17
7.353448184437687
 27
3.240458081764455
 37
-7.674440124212828
 40
21.52031275232141
 41
1.45617529880478
 42
50.0
 43
0.0
 44
0.0
 50
0.0
 51
0.0
 71
     0
 72
   100
 73
     1
 74
     1
 75
     0
 76
     0
 77
     0
 78
     0
  0
ENDTAB
  0
TABLE
  2
LTYPE
  5
1B8
100
AcDbSymbolTable
 70
     1
  0
LTYPE
  5
1B9
100
AcDbSymbolTableRecord
100
AcDbLinetypeTableRecord
  2
BYBLOCK
 70
     0
  3

 72
    65
 73
     0
 40
0.0
  0
LTYPE
  5
1BA
100
AcDbSymbolTableRecord
100
AcDbLinetypeTableRecord
  2
BYLAYER
 70
     0
  3

 72
    65
 73
     0
 40
0.0
  0
LTYPE
  5
5
100
AcDbSymbolTableRecord
100
AcDbLinetypeTableRecord
  2
CONTINUOUS
 70
     0
  3
Solid line
 72
    65
 73
     0
 40
0.0
  0
ENDTAB
  0
TABLE
  2
LAYER
  5
1B6
100
AcDbSymbolTable
 70
     4
  0
LAYER
  5
94
100
AcDbSymbolTableRecord
100
AcDbLayerTableRecord
  2
0
 70
     0
 62
     7
  6
CONTINUOUS
  0
LAYER
  5
D
102
{ACAD_XDICTIONARY
360
E
102
}
100
AcDbSymbolTableRecord
100
AcDbLayerTableRecord
  2
USP-GEO
 70
     0
 62
     7
  6
CONTINUOUS
  0
LAYER
  5
8
102
{ACAD_XDICTIONARY
360
9
102
}
100
AcDbSymbolTableRecord
100
AcDbLayerTableRecord
  2
USP-TXT
 70
     0
 62
     7
  6
CONTINUOUS
  0
LAYER
  5
4
100
AcDbSymbolTableRecord
100
AcDbLayerTableRecord
  2
USP
 70
     0
 62
     7
  6
CONTINUOUS
  0
ENDTAB
  0
TABLE
  2
STYLE
  5
1B7
100
AcDbSymbolTable
 70
     1
  0
STYLE
  5
B
100
AcDbSymbolTableRecord
100
AcDbTextStyleTableRecord
  2
STANDARD
 70
     0
 40
0.0
 41
1.0
 50
0.0
 71
     0
 42
0.25
  3
txt
  4

  0
ENDTAB
  0
TABLE
  2
VIEW
  5
1BB
100
AcDbSymbolTable
 70
     0
  0
ENDTAB
  0
TABLE
  2
UCS
  5
1BC
100
AcDbSymbolTable
 70
     0
  0
ENDTAB
  0
TABLE
  2
APPID
  5
1BF
100
AcDbSymbolTable
 70
     1
  0
APPID
  5
14
100
AcDbSymbolTableRecord
100
AcDbRegAppTableRecord
  2
ACAD
 70
     0
  0
ENDTAB
  0
TABLE
  2
DIMSTYLE
  5
1C0
100
AcDbSymbolTable
 70
     1
  0
DIMSTYLE
105
1C8
102
{ACAD_XDICTIONARY
360
1C9
102
}
100
AcDbSymbolTableRecord
100
AcDbDimStyleTableRecord
  2
STANDARD
 70
     0
  3

  4

  5

  6

  7

 40
1.0
 41
0.125
 42
0.0625
 43
0.38
 44
0.09375
 45
0.0
 46
0.0
 47
0.0
 48
0.0
140
0.109375
141
0.0
142
0.0
143
25.4
144
1.0
145
0.0
146
1.0
147
0.09
 71
     0
 72
     0
 73
     1
 74
     1
 75
     0
 76
     0
 77
     0
 78
     8
170
     0
171
     2
172
     0
173
     0
174
     0
175
     0
176
     0
177
     0
178
     0
270
     7
271
     4
272
     4
273
     2
274
     2
340
B
275
     0
280
     0
281
     0
282
     0
283
     1
284
     0
285
     0
286
     0
287
     3
288
     0
  0
ENDTAB
  0
TABLE
  2
BLOCK_RECORD
  5
1
100
AcDbSymbolTable
 70
     3
  0
BLOCK_RECORD
  5
2
102
{ACAD_XDICTIONARY
360
1AD
102
}
100
AcDbSymbolTableRecord
100
AcDbBlockTableRecord
  2
*MODEL_SPACE
  0
BLOCK_RECORD
  5
1B1
102
{ACAD_XDICTIONARY
360
1B2
102
}
100
AcDbSymbolTableRecord
100
AcDbBlockTableRecord
  2
*PAPER_SPACE
  0
BLOCK_RECORD
  5
6
100
AcDbSymbolTableRecord
100
AcDbBlockTableRecord
  2
HLPTA75PR_T
  0
BLOCK_RECORD
  5
97
100
AcDbSymbolTableRecord
100
AcDbBlockTableRecord
  2
HLPTA75PR_F
  0
BLOCK_RECORD
  5
15A
100
AcDbSymbolTableRecord
100
AcDbBlockTableRecord
  2
HLPTA75PR_S
  0
ENDTAB
  0
ENDSEC
  0
SECTION
  2
BLOCKS
  0
BLOCK
  5
1AF
100
AcDbEntity
  8
0
100
AcDbBlockBegin
  2
*MODEL_SPACE
 70
     0
 10
0.0
 20
0.0
 30
0.0
  3
*MODEL_SPACE
  1

  0
ENDBLK
  5
1B0
100
AcDbEntity
  8
0
100
AcDbBlockEnd
  0
BLOCK
  5
1B4
100
AcDbEntity
 67
     1
  8
0
100
AcDbBlockBegin
  2
*PAPER_SPACE
 70
     0
 10
0.0
 20
0.0
 30
0.0
  3
*PAPER_SPACE
  1

  0
ENDBLK
  5
1B5
100
AcDbEntity
 67
     1
  8
0
100
AcDbBlockEnd
  0
BLOCK
  5
93
100
AcDbEntity
  8
0
100
AcDbBlockBegin
  2
HLPTA75PR_T
 70
     0
 10
0.0
 20
0.0
 30
0.0
  3
HLPTA75PR_T
  1

  0
TEXT
  5
7
100
AcDbEntity
  8
USP-TXT
100
AcDbText
 10
1.044095364128394
 20
-1.602214158834026
 30
0.0
 40
0.2953678525692794
  1
HLPTA75 - TOP VIEW
 72
     1
 11
3.70240603725191
 21
-1.602214158834026
 31
0.0
100
AcDbText
  0
LWPOLYLINE
  5
C
100
AcDbEntity
  8
USP-GEO
100
AcDbPolyline
 90
        2
 70
   128
 43
0.0
 10
5.397117502836388
 20
1.714353876332864
 10
4.052210685226978
 20
1.714353876332864
  0
LWPOLYLINE
  5
10
100
AcDbEntity
  8
USP-GEO
100
AcDbPolyline
 90
        2
 70
   128
 43
0.0
 10
4.052210685226978
 20
1.769586189171032
 10
5.397117502836388
 20
1.769586189171032
  0
LWPOLYLINE
  5
11
100
AcDbEntity
  8
USP-GEO
100
AcDbPolyline
 90
        2
 70
   128
 43
0.0
 10
5.194599022429769
 20
0.1660080397695367
 10
5.28665287716005
 20
0.0739541850392556
  0
LWPOLYLINE
  5
12
100
AcDbEntity
  8
USP-GEO
100
AcDbPolyline
 90
        2
 70
   128
 43
0.0
 10
5.194599022429769
 20
0.1660080397695367
 10
5.28665287716005
 20
0.0739541850392556
  0
ELLIPSE
  5
13
100
AcDbEntity
  8
USP-GEO
  6
CONTINUOUS
100
AcDbEllipse
 10
0.3827670965334198
 20
1.287336653379909
 30
0.0
 11
0.375
 21
0.0
 31
0.0
210
0.0
220
0.0
230
1.0
 40
0.9998476951563915
 41
1.560908006648109
 42
3.13467117608414
1001
ACAD
1000
RTLwPs
1070
   128
  0
LWPOLYLINE
  5
15
100
AcDbEntity
  8
USP-GEO
100
AcDbPolyline
 90
        2
 70
   128
 43
0.0
 10
0.0
 20
0.0739541850392556
 10
2.099748426397714
 20
0.0739541850392556
  0
LWPOLYLINE
  5
16
100
AcDbEntity
  8
USP-GEO
100
AcDbPolyline
 90
        2
 70
   128
 43
0.0
 10
0.2577507932447878
 20
0.0555434140931972
 10
1.32557550811605
 20
0.0555434140931972
  0
LWPOLYLINE
  5
17
100
AcDbEntity
  8
USP-GEO
100
AcDbPolyline
 90
        2
 70
   128
 43
0.0
 10
1.32557550811605
 20
0.0003111012550292
 10
0.2577507932447878
 20
0.0003111012550292
  0
LWPOLYLINE
  5
18
100
AcDbEntity
  8
USP-GEO
100
AcDbPolyline
 90
        2
 70
   128
 43
0.0
 10
0.0
 20
1.289985606026267
 10
0.0
 20
0.0739541850392556
  0
ELLIPSE
  5
19
100
AcDbEntity
  8
USP-GEO
  6
CONTINUOUS
100
AcDbEllipse
 10
0.2577670965334269
 20
0.0589067136902344
 30
0.0
 11
0.25
 21
0.0
 31
0.0
210
0.0
220
0.0
230
1.0
 40
0.0348994967025015
 41
2.109624201321196
 42
4.712219808252902
1001
ACAD
1000
RTLwPs
1070
   128
  0
ELLIPSE
  5
1A
100
AcDbEntity
  8
USP-GEO
  6
CONTINUOUS
100
AcDbEllipse
 10
0.2577670965334198
 20
0.0069383906852494
 30
0.0
 11
0.25
 21
0.0
 31
0.0
210
0.0
220
0.0
230
1.0
 40
0.0348994967025015
 41
2.222841591209967
 42
4.712303126798174
1001
ACAD
1000
RTLwPs
1070
   128
  0
LWPOLYLINE
  5
1B
100
AcDbEntity
  8
USP-GEO
100
AcDbPolyline
 90
        2
 70
   128
 43
0.0
 10
0.0
 20
0.0739541850392556
 10
0.0009205385473026
 20
0.0739541850392556
  0
LWPOLYLINE
  5
1C
100
AcDbEntity
  8
USP-GEO
100
AcDbPolyline
 90
        2
 70
   128
 43
0.0
 10
0.0
 20
0.0739541850392556
 10
0.0
 20
0.018721872201084
  0
LWPOLYLINE
  5
1D
100
AcDbEntity
  8
USP-GEO
100
AcDbPolyline
 90
        2
 70
   128
 43
0.0
 10
0.2577507932447878
 20
0.0555434140931972
 10
0.2577507932447878
 20
0.0003111012550292
  0
LWPOLYLINE
  5
1E
100
AcDbEntity
  8
USP-GEO
100
AcDbPolyline
 90
        2
 70
   128
 43
0.0
 10
1.989283800721376
 20
1.714353876332864
 10
3.35260138927684
 20
1.714353876332864
  0
LWPOLYLINE
  5
1F
100
AcDbEntity
  8
USP-GEO
100
AcDbPolyline
 90
        2
 70
   128
 43
0.0
 10
1.989283800721376
 20
1.769586189171032
 10
3.35260138927684
 20
1.769586189171032
  0
LWPOLYLINE
  5
20
100
AcDbEntity
  8
USP-GEO
100
AcDbPolyline
 90
        2
 70
   128
 43
0.0
 10
2.725714638563625
 20
1.327727686465685
 10
2.909822348024188
 20
1.714353876332864
  0
LWPOLYLINE
  5
21
100
AcDbEntity
  8
USP-GEO
100
AcDbPolyline
 90
        2
 70
   128
 43
0.0
 10
2.449553074372782
 20
0.9585917289972556
 10
3.094850596032054
 20
0.9585917289972556
  0
LWPOLYLINE
  5
22
100
AcDbEntity
  8
USP-GEO
100
AcDbPolyline
 90
        2
 70
   128
 43
0.0
 10
1.233521653385769
 20
1.714353876332864
 10
1.989283800721376
 20
1.714353876332864
  0
LWPOLYLINE
  5
23
100
AcDbEntity
  8
USP-GEO
100
AcDbPolyline
 90
        2
 70
   128
 43
0.0
 10
1.233521653385769
 20
1.769586189171032
 10
1.989283800721376
 20
1.769586189171032
  0
LWPOLYLINE
  5
24
100
AcDbEntity
  8
USP-GEO
100
AcDbPolyline
 90
        2
 70
   128
 43
0.0
 10
1.417629362846331
 20
0.0555434140931972
 10
2.099748426397714
 20
0.0739541850392556
  0
LWPOLYLINE
  5
25
100
AcDbEntity
  8
USP-GEO
100
AcDbPolyline
 90
        2
 70
   128
 43
0.0
 10
2.099748426397714
 20
0.018721872201084
 10
1.417629362846331
 20
0.0003111012550292
  0
LWPOLYLINE
  5
26
100
AcDbEntity
  8
USP-GEO
100
AcDbPolyline
 90
        2
 70
   128
 43
0.0
 10
0.994181631087037
 20
1.677532334440751
 10
0.3866261898671812
 20
1.677532334440751
  0
ELLIPSE
  5
27
100
AcDbEntity
  8
USP-GEO
  6
CONTINUOUS
100
AcDbEllipse
 10
0.6327677405500785
 20
0.0545445707131478
 30
0.0
 11
0.082
 21
0.0
 31
0.0
210
0.0
220
0.0
230
1.0
 40
0.0348994967025015
 41
0.3238933867729378
 42
6.603852191628271
1001
ACAD
1000
RTLwPs
1070
   128
  0
ELLIPSE
  5
28
100
AcDbEntity
  8
USP-GEO
  6
CONTINUOUS
100
AcDbEllipse
 10
0.6327677405500785
 20
0.0545445707131478
 30
0.0
 11
0.082
 21
0.0
 31
0.0
210
0.0
220
0.0
230
1.0
 40
0.0348994967025015
 41
0.0
 42
6.283185307179586
1001
ACAD
1000
RTLwPs
1070
   128
  0
ELLIPSE
  5
29
100
AcDbEntity
  8
USP-GEO
  6
CONTINUOUS
100
AcDbEllipse
 10
0.6327677405500785
 20
0.0545445707131478
 30
0.0
 11
0.082
 21
0.0
 31
0.0
210
0.0
220
0.0
230
1.0
 40
0.0348994967025015
 41
0.0
 42
6.283185307179586
1001
ACAD
1000
RTLwPs
1070
   128
  0
ELLIPSE
  5
2A
100
AcDbEntity
  8
USP-GEO
  6
CONTINUOUS
100
AcDbEllipse
 10
0.6327677405500785
 20
0.0545445707131478
 30
0.0
 11
0.082
 21
0.0
 31
0.0
210
0.0
220
0.0
230
1.0
 40
0.0348994967025015
 41
0.0
 42
6.283185307179586
1001
ACAD
1000
RTLwPs
1070
   128
  0
ELLIPSE
  5
2B
100
AcDbEntity
  8
USP-GEO
  6
CONTINUOUS
100
AcDbEllipse
 10
0.6327677405500785
 20
0.0545445707131478
 30
0.0
 11
0.082
 21
0.0
 31
0.0
210
0.0
220
0.0
230
1.0
 40
0.0348994967025015
 41
0.0
 42
6.283185307179586
1001
ACAD
1000
RTLwPs
1070
   128
  0
ELLIPSE
  5
2C
100
AcDbEntity
  8
USP-GEO
  6
CONTINUOUS
100
AcDbEllipse
 10
0.6327677405500785
 20
0.0545445707131478
 30
0.0
 11
0.082
 21
0.0
 31
0.0
210
0.0
220
0.0
230
1.0
 40
0.0348994967025015
 41
0.0
 42
6.283185307179586
1001
ACAD
1000
RTLwPs
1070
   128
  0
ELLIPSE
  5
2D
100
AcDbEntity
  8
USP-GEO
  6
CONTINUOUS
100
AcDbEllipse
 10
0.6327677405500785
 20
0.0545445707131478
 30
0.0
 11
0.082
 21
0.0
 31
0.0
210
0.0
220
0.0
230
1.0
 40
0.0348994967025015
 41
0.0
 42
6.283185307179586
1001
ACAD
1000
RTLwPs
1070
   128
  0
ELLIPSE
  5
2E
100
AcDbEntity
  8
USP-GEO
  6
CONTINUOUS
100
AcDbEllipse
 10
0.6327677405500785
 20
0.0545445707131478
 30
0.0
 11
0.082
 21
0.0
 31
0.0
210
0.0
220
0.0
230
1.0
 40
0.0348994967025015
 41
0.0
 42
6.283185307179586
1001
ACAD
1000
RTLwPs
1070
   128
  0
ELLIPSE
  5
2F
100
AcDbEntity
  8
USP-GEO
  6
CONTINUOUS
100
AcDbEllipse
 10
0.6327677405500785
 20
0.0545445707131478
 30
0.0
 11
0.082
 21
0.0
 31
0.0
210
0.0
220
0.0
230
1.0
 40
0.0348994967025015
 41
0.0
 42
6.283185307179586
1001
ACAD
1000
RTLwPs
1070
   128
  0
ELLIPSE
  5
30
100
AcDbEntity
  8
USP-GEO
  6
CONTINUOUS
100
AcDbEllipse
 10
0.6327677405500785
 20
0.0545445707131478
 30
0.0
 11
0.082
 21
0.0
 31
0.0
210
0.0
220
0.0
230
1.0
 40
0.0348994967025015
 41
2.799778112358072
 42
9.079312548660249
1001
ACAD
1000
RTLwPs
1070
   128
  0
ELLIPSE
  5
31
100
AcDbEntity
  8
USP-GEO
  6
CONTINUOUS
100
AcDbEllipse
 10
1.336016241790232
 20
0.0545460447160124
 30
0.0
 11
0.125
 21
0.0
 31
0.0
210
0.0
220
0.0
230
1.0
 40
0.0348994967025015
 41
0.3368247817144808
 42
1.921068897669565
1001
ACAD
1000
RTLwPs
1070
   128
  0
LWPOLYLINE
  5
32
100
AcDbEntity
  8
USP-GEO
100
AcDbPolyline
 90
        2
 70
   128
 43
0.0
 10
1.417629362846331
 20
0.0555434140931972
 10
1.417629362846331
 20
0.0003111012550292
  0
LWPOLYLINE
  5
33
100
AcDbEntity
  8
USP-GEO
100
AcDbPolyline
 90
        2
 70
   128
 43
0.0
 10
1.32557550811605
 20
0.0555434140931972
 10
1.32557550811605
 20
0.0003111012550292
  0
ELLIPSE
  5
34
100
AcDbEntity
  8
USP-GEO
  6
CONTINUOUS
100
AcDbEllipse
 10
1.336016241790217
 20
0.0025777217110203
 30
0.0
 11
0.125
 21
0.0
 31
0.0
210
0.0
220
0.0
230
1.0
 40
0.0348994967025015
 41
5.611015395767845
 42
10.83618047236694
1001
ACAD
1000
RTLwPs
1070
   128
  0
LWPOLYLINE
  5
35
100
AcDbEntity
  8
USP-GEO
100
AcDbPolyline
 90
        2
 70
   128
 43
0.0
 10
1.123057027709431
 20
1.769586189171032
 10
1.233521653385769
 20
1.769586189171032
  0
ELLIPSE
  5
36
100
AcDbEntity
  8
USP-GEO
  6
CONTINUOUS
100
AcDbEllipse
 10
1.000090026703964
 20
1.912241462852648
 30
0.0
 11
0.25
 21
0.0
 31
0.0
210
0.0
220
0.0
230
1.0
 40
0.9998476951563915
 41
4.68722486006838
 42
5.268325803001022
1001
ACAD
1000
RTLwPs
1070
   128
  0
LWPOLYLINE
  5
37
100
AcDbEntity
  8
USP-GEO
100
AcDbPolyline
 90
        2
 70
   128
 43
0.0
 10
1.123057027709431
 20
1.769586189171032
 10
1.123057027709431
 20
1.714353876332864
  0
LWPOLYLINE
  5
38
100
AcDbEntity
  8
USP-GEO
100
AcDbPolyline
 90
        2
 70
   128
 43
0.0
 10
1.233521653385769
 20
1.769586189171032
 10
1.233521653385769
 20
1.714353876332864
  0
LWPOLYLINE
  5
39
100
AcDbEntity
  8
USP-GEO
100
AcDbPolyline
 90
        2
 70
   128
 43
0.0
 10
2.099748426397714
 20
0.0739541850392556
 10
2.191802281127995
 20
0.1660080397695367
  0
LWPOLYLINE
  5
3A
100
AcDbEntity
  8
USP-GEO
100
AcDbPolyline
 90
        2
 70
   128
 43
0.0
 10
2.191802281127995
 20
0.1660080397695367
 10
2.099748426397714
 20
0.0739541850392556
  0
LWPOLYLINE
  5
3B
100
AcDbEntity
  8
USP-GEO
100
AcDbPolyline
 90
        2
 70
   128
 43
0.0
 10
2.099748426397714
 20
0.0739541850392556
 10
2.100668964945017
 20
0.0739541850392556
  0
LWPOLYLINE
  5
3C
100
AcDbEntity
  8
USP-GEO
100
AcDbPolyline
 90
        2
 70
   128
 43
0.0
 10
2.099748426397714
 20
0.0739541850392556
 10
2.100668964945017
 20
0.0739541850392556
  0
LWPOLYLINE
  5
3D
100
AcDbEntity
  8
USP-GEO
100
AcDbPolyline
 90
        2
 70
   128
 43
0.0
 10
2.099748426397714
 20
0.0739541850392556
 10
2.099748426397714
 20
0.018721872201084
  0
LWPOLYLINE
  5
3E
100
AcDbEntity
  8
USP-GEO
100
AcDbPolyline
 90
        2
 70
   128
 43
0.0
 10
1.989283800721376
 20
1.769586189171032
 10
1.989283800721376
 20
1.714353876332864
  0
LWPOLYLINE
  5
3F
100
AcDbEntity
  8
USP-GEO
100
AcDbPolyline
 90
        2
 70
   128
 43
0.0
 10
2.320677677750389
 20
1.087467125619649
 10
2.449553074372782
 20
0.9585917289972556
  0
LWPOLYLINE
  5
40
100
AcDbEntity
  8
USP-GEO
100
AcDbPolyline
 90
        2
 70
   128
 43
0.0
 10
2.247034593966163
 20
0.2580618944998179
 10
2.247034593966163
 20
1.714353876332864
  0
ELLIPSE
  5
41
100
AcDbEntity
  8
USP-GEO
  6
CONTINUOUS
100
AcDbEllipse
 10
2.120267096533392
 20
0.2567374873578885
 30
0.0
 11
0.125
 21
0.0
 31
0.0
210
0.0
220
0.0
230
1.0
 40
0.9998476951563915
 41
5.379970351423271
 42
6.2936340476494
1001
ACAD
1000
RTLwPs
1070
   128
  0
LWPOLYLINE
  5
42
100
AcDbEntity
  8
USP-GEO
100
AcDbPolyline
 90
        2
 70
   128
 43
0.0
 10
2.191802281127995
 20
0.1660080397695367
 10
2.192722819675299
 20
0.1660080397695367
  0
ELLIPSE
  5
43
100
AcDbEntity
  8
USP-GEO
  6
CONTINUOUS
100
AcDbEllipse
 10
2.120267096533399
 20
0.2558299622231601
 30
0.0
 11
0.125
 21
0.0
 31
0.0
210
0.0
220
0.0
230
1.0
 40
0.9998476951563915
 41
5.384863567302303
 42
6.300792672004782
1001
ACAD
1000
RTLwPs
1070
   128
  0
LWPOLYLINE
  5
44
100
AcDbEntity
  8
USP-GEO
100
AcDbPolyline
 90
        2
 70
   128
 43
0.0
 10
2.247034593966163
 20
0.2580618944998179
 10
2.247955132513467
 20
0.2580618944998179
  0
ARC
  5
45
100
AcDbEntity
  8
USP-GEO
100
AcDbCircle
 10
2.195267096533409
 20
1.629278902310929
 30
0.0
 40
0.125
100
AcDbArc
 50
5.208442855685405
 51
38.488021311403
  0
LWPOLYLINE
  5
46
100
AcDbEntity
  8
USP-GEO
100
AcDbPolyline
 90
        2
 70
   128
 43
0.0
 10
2.320677677750389
 20
1.087467125619649
 10
2.320677677750389
 20
1.640710792548638
  0
LWPOLYLINE
  5
47
100
AcDbEntity
  8
USP-GEO
100
AcDbPolyline
 90
        2
 70
   128
 43
0.0
 10
2.725714638563625
 20
1.714353876332864
 10
2.725714638563625
 20
1.327727686465685
  0
LWPOLYLINE
  5
48
100
AcDbEntity
  8
USP-GEO
100
AcDbPolyline
 90
        2
 70
   128
 43
0.0
 10
2.541606929103063
 20
1.714353876332864
 10
2.725714638563625
 20
1.327727686465685
  0
LWPOLYLINE
  5
49
100
AcDbEntity
  8
USP-GEO
100
AcDbPolyline
 90
        3
 70
   128
 43
0.0
 10
4.125853769011203
 20
1.530246166872302
 10
4.089032227119091
 20
1.58547847971047
 10
3.99697837238881
 20
1.640710792548638
  0
LWPOLYLINE
  5
4A
100
AcDbEntity
  8
USP-GEO
100
AcDbPolyline
 90
        2
 70
   128
 43
0.0
 10
3.794459891982191
 20
1.714353876332864
 10
4.052210685226978
 20
1.714353876332864
  0
LWPOLYLINE
  5
4B
100
AcDbEntity
  8
USP-GEO
100
AcDbPolyline
 90
        5
 70
   128
 43
0.0
 10
4.199496852795429
 20
1.511835395926247
 10
4.181086081849373
 20
1.548656937818357
 10
4.144264539957259
 20
1.58547847971047
 10
4.070621456173035
 20
1.640710792548638
 10
3.978567601442754
 20
1.714353876332864
  0
LWPOLYLINE
  5
4C
100
AcDbEntity
  8
USP-GEO
100
AcDbPolyline
 90
        2
 70
   128
 43
0.0
 10
3.794459891982191
 20
1.769586189171032
 10
4.052210685226978
 20
1.769586189171032
  0
LWPOLYLINE
  5
4D
100
AcDbEntity
  8
USP-GEO
100
AcDbPolyline
 90
        2
 70
   128
 43
0.0
 10
3.481476785899235
 20
1.714353876332864
 10
3.389422931168954
 20
1.640710792548638
  0
LWPOLYLINE
  5
4E
100
AcDbEntity
  8
USP-GEO
100
AcDbPolyline
 90
        5
 70
   128
 43
0.0
 10
3.40783370211501
 20
1.714353876332864
 10
3.315779847384729
 20
1.640710792548638
 10
3.260547534546559
 20
1.58547847971047
 10
3.205315221708391
 20
1.548656937818357
 10
3.205315221708391
 20
1.511835395926247
  0
LWPOLYLINE
  5
4F
100
AcDbEntity
  8
USP-GEO
100
AcDbPolyline
 90
        2
 70
   128
 43
0.0
 10
3.35260138927684
 20
1.714353876332864
 10
3.591941411575573
 20
1.714353876332864
  0
LWPOLYLINE
  5
50
100
AcDbEntity
  8
USP-GEO
100
AcDbPolyline
 90
        2
 70
   128
 43
0.0
 10
3.35260138927684
 20
1.769586189171032
 10
3.591941411575573
 20
1.769586189171032
  0
LWPOLYLINE
  5
51
100
AcDbEntity
  8
USP-GEO
100
AcDbPolyline
 90
        2
 70
   128
 43
0.0
 10
3.094850596032054
 20
0.9585917289972556
 10
3.094850596032054
 20
1.714353876332864
  0
LWPOLYLINE
  5
52
100
AcDbEntity
  8
USP-GEO
100
AcDbPolyline
 90
        2
 70
   128
 43
0.0
 10
3.205315221708391
 20
1.511835395926247
 10
3.260547534546559
 20
1.530246166872302
  0
LWPOLYLINE
  5
53
100
AcDbEntity
  8
USP-GEO
100
AcDbPolyline
 90
        3
 70
   128
 43
0.0
 10
3.389422931168954
 20
1.640710792548638
 10
3.315779847384729
 20
1.58547847971047
 10
3.260547534546559
 20
1.530246166872302
  0
LWPOLYLINE
  5
54
100
AcDbEntity
  8
USP-GEO
100
AcDbPolyline
 90
        2
 70
   128
 43
0.0
 10
3.205315221708391
 20
1.511835395926247
 10
3.131672137924167
 20
1.714353876332864
  0
LWPOLYLINE
  5
55
100
AcDbEntity
  8
USP-GEO
100
AcDbPolyline
 90
        2
 70
   128
 43
0.0
 10
3.35260138927684
 20
1.769586189171032
 10
3.35260138927684
 20
1.714353876332864
  0
LWPOLYLINE
  5
56
100
AcDbEntity
  8
USP-GEO
100
AcDbPolyline
 90
        2
 70
   128
 43
0.0
 10
3.794459891982191
 20
1.714353876332864
 10
3.70240603725191
 20
1.714353876332864
  0
LWPOLYLINE
  5
57
100
AcDbEntity
  8
USP-GEO
100
AcDbPolyline
 90
        2
 70
   128
 43
0.0
 10
3.70240603725191
 20
1.769586189171032
 10
3.794459891982191
 20
1.769586189171032
  0
LWPOLYLINE
  5
58
100
AcDbEntity
  8
USP-GEO
100
AcDbPolyline
 90
        2
 70
   128
 43
0.0
 10
3.70240603725191
 20
1.714353876332864
 10
3.591941411575573
 20
1.714353876332864
  0
LWPOLYLINE
  5
59
100
AcDbEntity
  8
USP-GEO
100
AcDbPolyline
 90
        2
 70
   128
 43
0.0
 10
3.591941411575573
 20
1.769586189171032
 10
3.70240603725191
 20
1.769586189171032
  0
LWPOLYLINE
  5
5A
100
AcDbEntity
  8
USP-GEO
100
AcDbPolyline
 90
        2
 70
   128
 43
0.0
 10
3.70240603725191
 20
1.769586189171032
 10
3.70240603725191
 20
1.714353876332864
  0
LWPOLYLINE
  5
5B
100
AcDbEntity
  8
USP-GEO
100
AcDbPolyline
 90
        2
 70
   128
 43
0.0
 10
3.591941411575573
 20
1.769586189171032
 10
3.591941411575573
 20
1.714353876332864
  0
LWPOLYLINE
  5
5C
100
AcDbEntity
  8
USP-GEO
100
AcDbPolyline
 90
        2
 70
   128
 43
0.0
 10
3.904924517658529
 20
1.714353876332864
 10
3.905845056205831
 20
1.714353876332864
  0
LWPOLYLINE
  5
5D
100
AcDbEntity
  8
USP-GEO
100
AcDbPolyline
 90
        2
 70
   128
 43
0.0
 10
3.99697837238881
 20
1.640710792548638
 10
3.904924517658529
 20
1.714353876332864
  0
ELLIPSE
  5
5E
100
AcDbEntity
  8
USP-GEO
  6
CONTINUOUS
100
AcDbEllipse
 10
3.611058018714945
 20
2.59587850113921
 30
0.0
 11
0.0
 21
-1.096929112019549
 31
0.0
210
0.0
220
0.0
230
1.0
 40
0.4614259408145122
 41
0.6256410905663227
 42
0.6271264757296357
1001
ACAD
1000
RTLwPs
1070
   128
  0
LWPOLYLINE
  5
5F
100
AcDbEntity
  8
USP-GEO
100
AcDbPolyline
 90
        2
 70
   128
 43
0.0
 10
3.794459891982191
 20
1.769586189171032
 10
3.794459891982191
 20
1.714353876332864
  0
LWPOLYLINE
  5
60
100
AcDbEntity
  8
USP-GEO
100
AcDbPolyline
 90
        2
 70
   128
 43
0.0
 10
4.494069187932328
 20
1.714353876332864
 10
4.660686664994137
 20
1.327727686465685
  0
LWPOLYLINE
  5
61
100
AcDbEntity
  8
USP-GEO
100
AcDbPolyline
 90
        2
 70
   128
 43
0.0
 10
4.955259000131037
 20
0.9585917289972556
 10
4.29155070752571
 20
0.9585917289972556
  0
LWPOLYLINE
  5
62
100
AcDbEntity
  8
USP-GEO
100
AcDbPolyline
 90
        2
 70
   128
 43
0.0
 10
4.29155070752571
 20
0.9585917289972556
 10
4.29155070752571
 20
1.714353876332864
  0
LWPOLYLINE
  5
63
100
AcDbEntity
  8
USP-GEO
100
AcDbPolyline
 90
        2
 70
   128
 43
0.0
 10
4.199496852795429
 20
1.511835395926247
 10
4.125853769011203
 20
1.530246166872302
  0
LWPOLYLINE
  5
64
100
AcDbEntity
  8
USP-GEO
100
AcDbPolyline
 90
        2
 70
   128
 43
0.0
 10
4.199496852795429
 20
1.511835395926247
 10
4.254729165633597
 20
1.714353876332864
  0
LWPOLYLINE
  5
65
100
AcDbEntity
  8
USP-GEO
100
AcDbPolyline
 90
        2
 70
   128
 43
0.0
 10
4.052210685226978
 20
1.769586189171032
 10
4.052210685226978
 20
1.714353876332864
  0
LWPOLYLINE
  5
66
100
AcDbEntity
  8
USP-GEO
100
AcDbPolyline
 90
        2
 70
   128
 43
0.0
 10
5.065723625807375
 20
1.087467125619649
 10
4.955259000131037
 20
0.9585917289972556
  0
LWPOLYLINE
  5
67
100
AcDbEntity
  8
USP-GEO
100
AcDbPolyline
 90
        2
 70
   128
 43
0.0
 10
5.139366709591599
 20
1.714353876332864
 10
5.139366709591599
 20
0.2580618944998179
  0
ELLIPSE
  5
68
100
AcDbEntity
  8
USP-GEO
  6
CONTINUOUS
100
AcDbEllipse
 10
5.272273832318037
 20
0.255829962223153
 30
0.0
 11
0.125
 21
0.0
 31
0.0
210
0.0
220
0.0
230
1.0
 40
0.9998476951563915
 41
3.124798501803025
 42
3.999460927949847
1001
ACAD
1000
RTLwPs
1070
   128
  0
LWPOLYLINE
  5
69
100
AcDbEntity
  8
USP-GEO
100
AcDbPolyline
 90
        2
 70
   128
 43
0.0
 10
5.194599022429769
 20
0.1660080397695367
 10
5.195519560977071
 20
0.1660080397695367
  0
ELLIPSE
  5
6A
100
AcDbEntity
  8
USP-GEO
  6
CONTINUOUS
100
AcDbEllipse
 10
5.272273832318037
 20
0.2567374873578814
 30
0.0
 11
0.125
 21
0.0
 31
0.0
210
0.0
220
0.0
230
1.0
 40
0.9998476951563915
 41
3.131626558439355
 42
4.004430984195765
1001
ACAD
1000
RTLwPs
1070
   128
  0
LWPOLYLINE
  5
6B
100
AcDbEntity
  8
USP-GEO
100
AcDbPolyline
 90
        2
 70
   128
 43
0.0
 10
5.139366709591599
 20
0.2580618944998179
 10
5.140287248138903
 20
0.2580618944998179
  0
LWPOLYLINE
  5
6C
100
AcDbEntity
  8
USP-GEO
100
AcDbPolyline
 90
        2
 70
   128
 43
0.0
 10
4.660686664994137
 20
1.714353876332864
 10
4.660686664994137
 20
1.327727686465685
  0
LWPOLYLINE
  5
6D
100
AcDbEntity
  8
USP-GEO
100
AcDbPolyline
 90
        2
 70
   128
 43
0.0
 10
4.660686664994137
 20
1.327727686465685
 10
4.844794374454699
 20
1.714353876332864
  0
LWPOLYLINE
  5
6E
100
AcDbEntity
  8
USP-GEO
100
AcDbPolyline
 90
        2
 70
   128
 43
0.0
 10
5.065723625807375
 20
1.087467125619649
 10
5.065723625807375
 20
1.640710792548638
  0
ARC
  5
6F
100
AcDbEntity
  8
USP-GEO
100
AcDbCircle
 10
5.197273832318042
 20
1.629278902310929
 30
0.0
 40
0.125
100
AcDbArc
 50
143.0587367670076
 51
175.0333968015399
  0
LWPOLYLINE
  5
70
100
AcDbEntity
  8
USP-GEO
100
AcDbPolyline
 90
        2
 70
   128
 43
0.0
 10
7.018185884636639
 20
1.677532334440751
 10
6.392219672470727
 20
1.677532334440751
  0
LWPOLYLINE
  5
71
100
AcDbEntity
  8
USP-GEO
100
AcDbPolyline
 90
        2
 70
   128
 43
0.0
 10
5.28665287716005
 20
0.0739541850392556
 10
7.386401303557764
 20
0.0739541850392556
  0
LWPOLYLINE
  5
72
100
AcDbEntity
  8
USP-GEO
100
AcDbPolyline
 90
        2
 70
   128
 43
0.0
 10
6.059905256894412
 20
0.0555434140931972
 10
7.128650510312977
 20
0.0555434140931972
  0
LWPOLYLINE
  5
73
100
AcDbEntity
  8
USP-GEO
100
AcDbPolyline
 90
        2
 70
   128
 43
0.0
 10
6.059905256894412
 20
0.0003111012550292
 10
7.128650510312977
 20
0.0003111012550292
  0
LWPOLYLINE
  5
74
100
AcDbEntity
  8
USP-GEO
100
AcDbPolyline
 90
        2
 70
   128
 43
0.0
 10
6.152879650171995
 20
1.714353876332864
 10
5.397117502836388
 20
1.714353876332864
  0
LWPOLYLINE
  5
75
100
AcDbEntity
  8
USP-GEO
100
AcDbPolyline
 90
        2
 70
   128
 43
0.0
 10
5.397117502836388
 20
1.769586189171032
 10
6.152879650171995
 20
1.769586189171032
  0
LWPOLYLINE
  5
76
100
AcDbEntity
  8
USP-GEO
100
AcDbPolyline
 90
        2
 70
   128
 43
0.0
 10
5.28665287716005
 20
0.0739541850392556
 10
5.96785140216413
 20
0.0555434140931972
  0
LWPOLYLINE
  5
77
100
AcDbEntity
  8
USP-GEO
100
AcDbPolyline
 90
        2
 70
   128
 43
0.0
 10
5.28665287716005
 20
0.018721872201084
 10
5.96785140216413
 20
0.0003111012550292
  0
LWPOLYLINE
  5
78
100
AcDbEntity
  8
USP-GEO
100
AcDbPolyline
 90
        2
 70
   128
 43
0.0
 10
5.28665287716005
 20
0.0739541850392556
 10
5.287573415707352
 20
0.0739541850392556
  0
LWPOLYLINE
  5
79
100
AcDbEntity
  8
USP-GEO
100
AcDbPolyline
 90
        2
 70
   128
 43
0.0
 10
5.28665287716005
 20
0.0739541850392556
 10
5.287573415707352
 20
0.0739541850392556
  0
LWPOLYLINE
  5
7A
100
AcDbEntity
  8
USP-GEO
100
AcDbPolyline
 90
        2
 70
   128
 43
0.0
 10
5.28665287716005
 20
0.0739541850392556
 10
5.28665287716005
 20
0.018721872201084
  0
LWPOLYLINE
  5
7B
100
AcDbEntity
  8
USP-GEO
100
AcDbPolyline
 90
        2
 70
   128
 43
0.0
 10
5.397117502836388
 20
1.769586189171032
 10
5.397117502836388
 20
1.714353876332864
  0
ELLIPSE
  5
7C
100
AcDbEntity
  8
USP-GEO
  6
CONTINUOUS
100
AcDbEllipse
 10
6.056524687061208
 20
0.0545460447160124
 30
0.0
 11
0.125
 21
0.0
 31
0.0
210
0.0
220
0.0
230
1.0
 40
0.0348994967025015
 41
1.453052118934635
 42
2.82981566272485
1001
ACAD
1000
RTLwPs
1070
   128
  0
LWPOLYLINE
  5
7D
100
AcDbEntity
  8
USP-GEO
100
AcDbPolyline
 90
        2
 70
   128
 43
0.0
 10
6.059905256894412
 20
0.0555434140931972
 10
6.059905256894412
 20
0.0003111012550292
  0
LWPOLYLINE
  5
7E
100
AcDbEntity
  8
USP-GEO
100
AcDbPolyline
 90
        2
 70
   128
 43
0.0
 10
5.96785140216413
 20
0.0555434140931972
 10
5.96785140216413
 20
0.0003111012550292
  0
ELLIPSE
  5
7F
100
AcDbEntity
  8
USP-GEO
  6
CONTINUOUS
100
AcDbEllipse
 10
6.056524687061215
 20
0.0025777217110203
 30
0.0
 11
0.125
 21
0.0
 31
0.0
210
0.0
220
0.0
230
1.0
 40
0.0348994967025015
 41
4.764393192009018
 42
10.05693990340913
1001
ACAD
1000
RTLwPs
1070
   128
  0
LWPOLYLINE
  5
80
100
AcDbEntity
  8
USP-GEO
100
AcDbPolyline
 90
        2
 70
   128
 43
0.0
 10
6.263344275848333
 20
1.769586189171032
 10
6.152879650171995
 20
1.769586189171032
  0
LWPOLYLINE
  5
81
100
AcDbEntity
  8
USP-GEO
100
AcDbPolyline
 90
        2
 70
   128
 43
0.0
 10
6.152879650171995
 20
1.769586189171032
 10
6.152879650171995
 20
1.714353876332864
  0
LWPOLYLINE
  5
82
100
AcDbEntity
  8
USP-GEO
100
AcDbPolyline
 90
        2
 70
   128
 43
0.0
 10
6.263344275848333
 20
1.714353876332864
 10
6.263344275848333
 20
1.769586189171032
  0
ELLIPSE
  5
83
100
AcDbEntity
  8
USP-GEO
  6
CONTINUOUS
100
AcDbEllipse
 10
6.392450902147476
 20
1.912241462852648
 30
0.0
 11
0.25
 21
0.0
 31
0.0
210
0.0
220
0.0
230
1.0
 40
0.9998476951563915
 41
4.134381251987251
 42
4.711403955276638
1001
ACAD
1000
RTLwPs
1070
   128
  0
ELLIPSE
  5
84
100
AcDbEntity
  8
USP-GEO
  6
CONTINUOUS
100
AcDbEllipse
 10
7.00977383231802
 20
1.287336653379895
 30
0.0
 11
0.375
 21
0.0
 31
0.0
210
0.0
220
0.0
230
1.0
 40
0.9998476951563915
 41
0.0070343048776849
 42
1.549244399741598
1001
ACAD
1000
RTLwPs
1070
   128
  0
ELLIPSE
  5
85
100
AcDbEntity
  8
USP-GEO
  6
CONTINUOUS
100
AcDbEllipse
 10
6.759773832318042
 20
0.0545445707131478
 30
0.0
 11
0.082
 21
0.0
 31
0.0
210
0.0
220
0.0
230
1.0
 40
0.0348994967025015
 41
0.3676658321562285
 42
6.646740118252001
1001
ACAD
1000
RTLwPs
1070
   128
  0
ELLIPSE
  5
86
100
AcDbEntity
  8
USP-GEO
  6
CONTINUOUS
100
AcDbEllipse
 10
6.759773832318042
 20
0.0545445707131478
 30
0.0
 11
0.082
 21
0.0
 31
0.0
210
0.0
220
0.0
230
1.0
 40
0.0348994967025015
 41
0.0
 42
6.283185307179586
1001
ACAD
1000
RTLwPs
1070
   128
  0
ELLIPSE
  5
87
100
AcDbEntity
  8
USP-GEO
  6
CONTINUOUS
100
AcDbEllipse
 10
6.759773832318042
 20
0.0545445707131478
 30
0.0
 11
0.082
 21
0.0
 31
0.0
210
0.0
220
0.0
230
1.0
 40
0.0348994967025015
 41
0.0
 42
6.283185307179586
1001
ACAD
1000
RTLwPs
1070
   128
  0
ELLIPSE
  5
88
100
AcDbEntity
  8
USP-GEO
  6
CONTINUOUS
100
AcDbEllipse
 10
6.759773832318042
 20
0.0545445707131478
 30
0.0
 11
0.082
 21
0.0
 31
0.0
210
0.0
220
0.0
230
1.0
 40
0.0348994967025015
 41
0.0
 42
6.283185307179586
1001
ACAD
1000
RTLwPs
1070
   128
  0
ELLIPSE
  5
89
100
AcDbEntity
  8
USP-GEO
  6
CONTINUOUS
100
AcDbEllipse
 10
6.759773832318042
 20
0.0545445707131478
 30
0.0
 11
0.082
 21
0.0
 31
0.0
210
0.0
220
0.0
230
1.0
 40
0.0348994967025015
 41
0.0
 42
6.283185307179586
1001
ACAD
1000
RTLwPs
1070
   128
  0
ELLIPSE
  5
8A
100
AcDbEntity
  8
USP-GEO
  6
CONTINUOUS
100
AcDbEllipse
 10
6.759773832318042
 20
0.0545445707131478
 30
0.0
 11
0.082
 21
0.0
 31
0.0
210
0.0
220
0.0
230
1.0
 40
0.0348994967025015
 41
0.0
 42
6.283185307179586
1001
ACAD
1000
RTLwPs
1070
   128
  0
ELLIPSE
  5
8B
100
AcDbEntity
  8
USP-GEO
  6
CONTINUOUS
100
AcDbEllipse
 10
6.759773832318042
 20
0.0545445707131478
 30
0.0
 11
0.082
 21
0.0
 31
0.0
210
0.0
220
0.0
230
1.0
 40
0.0348994967025015
 41
0.0
 42
6.283185307179586
1001
ACAD
1000
RTLwPs
1070
   128
  0
ELLIPSE
  5
8C
100
AcDbEntity
  8
USP-GEO
  6
CONTINUOUS
100
AcDbEllipse
 10
6.759773832318042
 20
0.0545445707131478
 30
0.0
 11
0.082
 21
0.0
 31
0.0
210
0.0
220
0.0
230
1.0
 40
0.0348994967025015
 41
0.0
 42
6.283185307179586
1001
ACAD
1000
RTLwPs
1070
   128
  0
LWPOLYLINE
  5
8D
100
AcDbEntity
  8
USP-GEO
100
AcDbPolyline
 90
        2
 70
   128
 43
0.0
 10
7.386401303557764
 20
0.0739541850392556
 10
7.386401303557764
 20
1.289985606026267
  0
ELLIPSE
  5
8E
100
AcDbEntity
  8
USP-GEO
  6
CONTINUOUS
100
AcDbEllipse
 10
7.13477383231802
 20
0.0589067136902344
 30
0.0
 11
0.25
 21
0.0
 31
0.0
210
0.0
220
0.0
230
1.0
 40
0.0348994967025015
 41
4.648935232223937
 42
7.32411873453253
1001
ACAD
1000
RTLwPs
1070
   128
  0
ELLIPSE
  5
8F
100
AcDbEntity
  8
USP-GEO
  6
CONTINUOUS
100
AcDbEllipse
 10
7.13477383231802
 20
0.0069383906852423
 30
0.0
 11
0.25
 21
0.0
 31
0.0
210
0.0
220
0.0
230
1.0
 40
0.0348994967025015
 41
4.680154559752708
 42
7.211775127140061
1001
ACAD
1000
RTLwPs
1070
   128
  0
LWPOLYLINE
  5
90
100
AcDbEntity
  8
USP-GEO
100
AcDbPolyline
 90
        2
 70
   128
 43
0.0
 10
7.128650510312977
 20
0.0555434140931972
 10
7.128650510312977
 20
0.0003111012550292
  0
LWPOLYLINE
  5
91
100
AcDbEntity
  8
USP-GEO
100
AcDbPolyline
 90
        2
 70
   128
 43
0.0
 10
7.386401303557764
 20
0.0739541850392556
 10
7.387321842105067
 20
0.0739541850392556
  0
LWPOLYLINE
  5
92
100
AcDbEntity
  8
USP-GEO
100
AcDbPolyline
 90
        2
 70
   128
 43
0.0
 10
7.386401303557764
 20
0.0739541850392556
 10
7.386401303557764
 20
0.018721872201084
  0
ENDBLK
  5
95
100
AcDbEntity
  8
0
100
AcDbBlockEnd
  0
BLOCK
  5
157
100
AcDbEntity
  8
0
100
AcDbBlockBegin
  2
HLPTA75PR_F
 70
     0
 10
0.0
 20
0.0
 30
0.0
  3
HLPTA75PR_F
  1

  0
TEXT
  5
98
100
AcDbEntity
  8
USP-TXT
100
AcDbText
 10
0.7450448771150882
 20
-1.934810481202029
 30
0.0
 40
0.2953678525692794
  1
HLPTA75 - FRONT VIEW
 72
     1
 11
3.698723402807884
 21
-1.934810481202029
 31
0.0
100
AcDbText
  0
LWPOLYLINE
  5
99
100
AcDbEntity
  8
USP-GEO
100
AcDbPolyline
 90
        2
 70
   128
 43
0.0
 10
7.386401303557764
 20
5.141207786686205
 10
7.386401303557764
 20
5.122797015740149
  0
LWPOLYLINE
  5
9A
100
AcDbEntity
  8
USP-GEO
100
AcDbPolyline
 90
        2
 70
   128
 43
0.0
 10
7.386401303557764
 20
5.565576056992801
 10
7.387321842105066
 20
5.565576056992801
  0
LWPOLYLINE
  5
9B
100
AcDbEntity
  8
USP-GEO
100
AcDbPolyline
 90
        2
 70
   128
 43
0.0
 10
7.386401303557764
 20
5.565576056992801
 10
7.386401303557764
 20
5.141207786686205
  0
CIRCLE
  5
9C
100
AcDbEntity
  8
USP-GEO
100
AcDbCircle
 10
5.049980138592557
 20
8.10244909213778
 30
0.0
 40
0.082
  0
ARC
  5
9D
100
AcDbEntity
  8
USP-GEO
100
AcDbCircle
 10
5.049980138592543
 20
5.113727854925917
 30
0.0
 40
0.1
100
AcDbArc
 50
185.6324238416696
 51
355.0471783695858
  0
ARC
  5
9E
100
AcDbEntity
  8
USP-GEO
100
AcDbCircle
 10
5.274980138592551
 20
6.55671980475717
 30
0.0
 40
0.3250000000000001
100
AcDbArc
 50
130.6982182048992
 51
179.2906653579415
  0
LWPOLYLINE
  5
9F
100
AcDbEntity
  8
USP-GEO
100
AcDbPolyline
 90
        2
 70
   128
 43
0.0
 10
5.415528273782443
 20
9.619627819314386
 10
4.052210685226979
 20
9.619627819314386
  0
LWPOLYLINE
  5
A0
100
AcDbEntity
  8
USP-GEO
100
AcDbPolyline
 90
        2
 70
   128
 43
0.0
 10
5.065723625807374
 20
0.055232312838168
 10
4.955259000131038
 20
0.055232312838168
  0
LWPOLYLINE
  5
A1
100
AcDbEntity
  8
USP-GEO
100
AcDbPolyline
 90
        2
 70
   128
 43
0.0
 10
5.065723625807374
 20
0.0
 10
4.955259000131038
 20
0.0
  0
ELLIPSE
  5
A2
100
AcDbEntity
  8
USP-GEO
  6
CONTINUOUS
100
AcDbEllipse
 10
0.3854734028079196
 20
5.121837806548816
 30
0.0
 11
0.375
 21
0.0
 31
0.0
210
0.0
220
0.0
230
1.0
 40
0.0174524064372832
 41
4.713541822729899
 42
9.283150912651663
1001
ACAD
1000
RTLwPs
1070
   128
  0
LWPOLYLINE
  5
A3
100
AcDbEntity
  8
USP-GEO
100
AcDbPolyline
 90
        2
 70
   128
 43
0.0
 10
2.099748426397713
 20
5.141207786686205
 10
0.0
 20
5.141207786686205
  0
ELLIPSE
  5
A4
100
AcDbEntity
  8
USP-GEO
  6
CONTINUOUS
100
AcDbEllipse
 10
0.2604734028079196
 20
5.572482312839751
 30
0.0
 11
0.25
 21
0.0
 31
0.0
210
0.0
220
0.0
230
1.0
 40
0.9993908270190956
 41
1.581643062156145
 42
3.168116839116984
1001
ACAD
1000
RTLwPs
1070
   128
  0
ELLIPSE
  5
A5
100
AcDbEntity
  8
USP-GEO
  6
CONTINUOUS
100
AcDbEllipse
 10
0.2604734028079196
 20
5.570667539011216
 30
0.0
 11
0.25
 21
0.0
 31
0.0
210
0.0
220
0.0
230
1.0
 40
0.9993908270190956
 41
1.581565159449693
 42
3.161149107138435
1001
ACAD
1000
RTLwPs
1070
   128
  0
LWPOLYLINE
  5
A6
100
AcDbEntity
  8
USP-GEO
100
AcDbPolyline
 90
        2
 70
   128
 43
0.0
 10
0.0
 20
5.141207786686205
 10
0.0
 20
5.122797015740149
  0
LWPOLYLINE
  5
A7
100
AcDbEntity
  8
USP-GEO
100
AcDbPolyline
 90
        2
 70
   128
 43
0.0
 10
0.0
 20
5.565576056992801
 10
0.0
 20
5.141207786686205
  0
LWPOLYLINE
  5
A8
100
AcDbEntity
  8
USP-GEO
100
AcDbPolyline
 90
        2
 70
   128
 43
0.0
 10
0.0
 20
5.565576056992801
 10
0.0009205385473026
 20
5.565576056992801
  0
LWPOLYLINE
  5
A9
100
AcDbEntity
  8
USP-GEO
100
AcDbPolyline
 90
        2
 70
   128
 43
0.0
 10
3.794459891982191
 20
8.532471794949765
 10
3.794459891982191
 20
9.380287797015654
  0
LWPOLYLINE
  5
AA
100
AcDbEntity
  8
USP-GEO
100
AcDbPolyline
 90
        2
 70
   128
 43
0.0
 10
3.591941411575572
 20
8.532471794949765
 10
3.591941411575572
 20
9.380287797015654
  0
LWPOLYLINE
  5
AB
100
AcDbEntity
  8
USP-GEO
100
AcDbPolyline
 90
        2
 70
   128
 43
0.0
 10
1.233521653385768
 20
8.863865671978778
 10
1.989283800721377
 20
9.619627819314386
  0
CIRCLE
  5
AC
100
AcDbEntity
  8
USP-GEO
100
AcDbCircle
 10
2.586747958050734
 20
7.360191444186616
 30
0.0
 40
0.082
  0
LWPOLYLINE
  5
AD
100
AcDbEntity
  8
USP-GEO
100
AcDbPolyline
 90
        2
 70
   128
 43
0.0
 10
2.725714638563626
 20
0.441858502705351
 10
2.541606929103064
 20
0.055232312838168
  0
LWPOLYLINE
  5
AE
100
AcDbEntity
  8
USP-GEO
100
AcDbPolyline
 90
        2
 70
   128
 43
0.0
 10
2.449553074372783
 20
0.055232312838168
 10
3.094850596032054
 20
0.055232312838168
  0
LWPOLYLINE
  5
AF
100
AcDbEntity
  8
USP-GEO
100
AcDbPolyline
 90
        2
 70
   128
 43
0.0
 10
3.094850596032054
 20
0.0
 10
2.449553074372783
 20
0.0
  0
LWPOLYLINE
  5
B0
100
AcDbEntity
  8
USP-GEO
100
AcDbPolyline
 90
        2
 70
   128
 43
0.0
 10
2.228623823020107
 20
3.814711740022852
 10
1.436960672339688
 20
4.754581596819024
  0
LWPOLYLINE
  5
B1
100
AcDbEntity
  8
USP-GEO
100
AcDbPolyline
 90
        2
 70
   128
 43
0.0
 10
2.320677677750389
 20
1.474702752779105
 10
2.320677677750389
 20
3.575371717724122
  0
LWPOLYLINE
  5
B2
100
AcDbEntity
  8
USP-GEO
100
AcDbPolyline
 90
        2
 70
   128
 43
0.0
 10
2.191802281127996
 20
1.363317588555464
 10
2.191802281127996
 20
0.110464625676336
  0
ARC
  5
B3
100
AcDbEntity
  8
USP-GEO
100
AcDbCircle
 10
2.197973402807901
 20
-0.012959190782988
 30
0.0
 40
0.125
100
AcDbArc
 50
33.17835662929961
 51
92.86237320857672
  0
LWPOLYLINE
  5
B4
100
AcDbEntity
  8
USP-GEO
100
AcDbPolyline
 90
        2
 70
   128
 43
0.0
 10
2.302266906804332
 20
0.055232312838168
 10
2.320677677750389
 20
0.055232312838168
  0
LWPOLYLINE
  5
B5
100
AcDbEntity
  8
USP-GEO
100
AcDbPolyline
 90
        2
 70
   128
 43
0.0
 10
2.320677677750389
 20
0.055232312838168
 10
2.449553074372783
 20
0.055232312838168
  0
LWPOLYLINE
  5
B6
100
AcDbEntity
  8
USP-GEO
100
AcDbPolyline
 90
        2
 70
   128
 43
0.0
 10
2.320677677750389
 20
0.0
 10
2.302266906804332
 20
0.0
  0
LWPOLYLINE
  5
B7
100
AcDbEntity
  8
USP-GEO
100
AcDbPolyline
 90
        2
 70
   128
 43
0.0
 10
2.302266906804332
 20
0.0
 10
2.302266906804332
 20
0.055232312838168
  0
LWPOLYLINE
  5
B8
100
AcDbEntity
  8
USP-GEO
100
AcDbPolyline
 90
        2
 70
   128
 43
0.0
 10
2.320677677750389
 20
0.0
 10
2.320677677750389
 20
0.055232312838168
  0
LWPOLYLINE
  5
B9
100
AcDbEntity
  8
USP-GEO
100
AcDbPolyline
 90
        2
 70
   128
 43
0.0
 10
2.449553074372783
 20
0.0
 10
2.320677677750389
 20
0.0
  0
LWPOLYLINE
  5
BA
100
AcDbEntity
  8
USP-GEO
100
AcDbPolyline
 90
        2
 70
   128
 43
0.0
 10
2.449553074372783
 20
0.0
 10
2.449553074372783
 20
0.055232312838168
  0
ARC
  5
BB
100
AcDbEntity
  8
USP-GEO
100
AcDbCircle
 10
2.197973402807894
 20
1.488259455859184
 30
0.0
 40
0.125
100
AcDbArc
 50
267.1723480008867
 51
353.6953753114528
  0
ARC
  5
BC
100
AcDbEntity
  8
USP-GEO
100
AcDbCircle
 10
1.947973402807908
 20
3.571494923887135
 30
0.0
 40
0.375
100
AcDbArc
 50
0.5959575172082714
 51
40.91280368107152
  0
ARC
  5
BD
100
AcDbEntity
  8
USP-GEO
100
AcDbCircle
 10
1.338722548077486
 20
7.238710091433281
 30
0.0
 40
0.3250000000000001
100
AcDbArc
 50
49.39180702113798
 51
88.88262124696622
  0
LWPOLYLINE
  5
BE
100
AcDbEntity
  8
USP-GEO
100
AcDbPolyline
 90
        2
 70
   128
 43
0.0
 10
1.12305702770943
 20
5.104386244794092
 10
2.247034593966164
 20
5.104386244794092
  0
ELLIPSE
  5
BF
100
AcDbEntity
  8
USP-GEO
  6
CONTINUOUS
100
AcDbEllipse
 10
1.338722548064724
 20
5.697355534068568
 30
0.0
 11
0.125
 21
0.0
 31
0.0
210
0.0
220
0.0
230
1.0
 40
0.9993908270190956
 41
0.8408148329068836
 42
1.52177286297196
1001
ACAD
1000
RTLwPs
1070
   128
  0
ELLIPSE
  5
C0
100
AcDbEntity
  8
USP-GEO
  6
CONTINUOUS
100
AcDbEllipse
 10
1.338722548064724
 20
5.69554076024004
 30
0.0
 11
0.125
 21
0.0
 31
0.0
210
0.0
220
0.0
230
1.0
 40
0.9993908270190956
 41
0.8508172078266358
 42
1.522467985895836
1001
ACAD
1000
RTLwPs
1070
   128
  0
LWPOLYLINE
  5
C1
100
AcDbEntity
  8
USP-GEO
100
AcDbPolyline
 90
        2
 70
   128
 43
0.0
 10
0.3866261898671812
 20
5.104386244794092
 10
0.9941816310870379
 20
5.104386244794092
  0
LWPOLYLINE
  5
C2
100
AcDbEntity
  8
USP-GEO
100
AcDbPolyline
 90
        2
 70
   128
 43
0.0
 10
0.2577507932447878
 20
5.823326850237588
 10
1.344906817609407
 20
5.823326850237588
  0
LWPOLYLINE
  5
C3
100
AcDbEntity
  8
USP-GEO
100
AcDbPolyline
 90
        2
 70
   128
 43
0.0
 10
1.344906817609407
 20
5.823326850237588
 10
0.2577507932447878
 20
5.823326850237588
  0
ELLIPSE
  5
C4
100
AcDbEntity
  8
USP-GEO
  6
CONTINUOUS
100
AcDbEllipse
 10
0.6354740468245712
 20
5.695582970159454
 30
0.0
 11
0.082
 21
0.0
 31
0.0
210
0.0
220
0.0
230
1.0
 40
0.9993908270190956
 41
4.842936718578456
 42
7.719407881061802
1001
ACAD
1000
RTLwPs
1070
   128
  0
ELLIPSE
  5
C5
100
AcDbEntity
  8
USP-GEO
  6
CONTINUOUS
100
AcDbEllipse
 10
0.6354740468245712
 20
5.695582970159454
 30
0.0
 11
0.082
 21
0.0
 31
0.0
210
0.0
220
0.0
230
1.0
 40
0.9993908270190956
 41
3.858236254950953
 42
4.830823221991865
1001
ACAD
1000
RTLwPs
1070
   128
  0
ELLIPSE
  5
C6
100
AcDbEntity
  8
USP-GEO
  6
CONTINUOUS
100
AcDbEllipse
 10
0.6354740468245712
 20
5.695582970159454
 30
0.0
 11
0.082
 21
0.0
 31
0.0
210
0.0
220
0.0
230
1.0
 40
0.9993908270190956
 41
1.448701917290087
 42
2.44518257653841
1001
ACAD
1000
RTLwPs
1070
   128
  0
ELLIPSE
  5
C7
100
AcDbEntity
  8
USP-GEO
  6
CONTINUOUS
100
AcDbEllipse
 10
0.6354740468245712
 20
5.695582970159454
 30
0.0
 11
0.082
 21
0.0
 31
0.0
210
0.0
220
0.0
230
1.0
 40
0.9993908270190956
 41
2.438126459992733
 42
3.86533590804692
1001
ACAD
1000
RTLwPs
1070
   128
  0
ELLIPSE
  5
C8
100
AcDbEntity
  8
USP-GEO
  6
CONTINUOUS
100
AcDbEllipse
 10
0.6354740468245712
 20
5.697397743987982
 30
0.0
 11
0.082
 21
0.0
 31
0.0
210
0.0
220
0.0
230
1.0
 40
0.9993908270190956
 41
3.177032453580964
 42
6.247486023639432
1001
ACAD
1000
RTLwPs
1070
   128
  0
LWPOLYLINE
  5
C9
100
AcDbEntity
  8
USP-GEO
100
AcDbPolyline
 90
        2
 70
   128
 43
0.0
 10
0.2577507932447878
 20
5.823326850237588
 10
0.2586713317920903
 20
5.823326850237588
  0
ELLIPSE
  5
CA
100
AcDbEntity
  8
USP-GEO
  6
CONTINUOUS
100
AcDbEllipse
 10
1.002796332978464
 20
5.110930052525509
 30
0.0
 11
0.25
 21
0.0
 31
0.0
210
0.0
220
0.0
230
1.0
 40
0.0174524064372832
 41
5.022759943888899
 42
10.97260282530625
1001
ACAD
1000
RTLwPs
1070
   128
  0
LWPOLYLINE
  5
CB
100
AcDbEntity
  8
USP-GEO
100
AcDbPolyline
 90
        2
 70
   128
 43
0.0
 10
1.344906817609407
 20
5.823326850237588
 10
1.345827356156711
 20
5.823326850237588
  0
LWPOLYLINE
  5
CC
100
AcDbEntity
  8
USP-GEO
100
AcDbPolyline
 90
        2
 70
   128
 43
0.0
 10
1.233521653385768
 20
7.55578039626148
 10
1.233521653385768
 20
8.863865671978778
  0
LWPOLYLINE
  5
CD
100
AcDbEntity
  8
USP-GEO
100
AcDbPolyline
 90
        2
 70
   128
 43
0.0
 10
1.344906817609407
 20
7.55578039626148
 10
1.233521653385768
 20
7.55578039626148
  0
LWPOLYLINE
  5
CE
100
AcDbEntity
  8
USP-GEO
100
AcDbPolyline
 90
        2
 70
   128
 43
0.0
 10
2.339088448696445
 20
6.800018248925873
 10
1.547425298016026
 20
7.482137312477256
  0
LWPOLYLINE
  5
CF
100
AcDbEntity
  8
USP-GEO
100
AcDbPolyline
 90
        2
 70
   128
 43
0.0
 10
1.418549901393634
 20
5.786505308345477
 10
2.099748426397713
 20
5.196440099524373
  0
LWPOLYLINE
  5
D0
100
AcDbEntity
  8
USP-GEO
100
AcDbPolyline
 90
        2
 70
   128
 43
0.0
 10
2.099748426397713
 20
5.196440099524373
 10
1.418549901393634
 20
5.786505308345477
  0
LWPOLYLINE
  5
D1
100
AcDbEntity
  8
USP-GEO
100
AcDbPolyline
 90
        2
 70
   128
 43
0.0
 10
1.436960672339688
 20
4.754581596819024
 10
1.436960672339688
 20
5.104386244794092
  0
LWPOLYLINE
  5
D2
100
AcDbEntity
  8
USP-GEO
100
AcDbPolyline
 90
        2
 70
   128
 43
0.0
 10
1.418549901393634
 20
5.786505308345477
 10
1.419470439940935
 20
5.786505308345477
  0
LWPOLYLINE
  5
D3
100
AcDbEntity
  8
USP-GEO
100
AcDbPolyline
 90
        2
 70
   128
 43
0.0
 10
2.449553074372783
 20
6.560678226627141
 10
2.449553074372783
 20
5.104386244794092
  0
ARC
  5
D4
100
AcDbEntity
  8
USP-GEO
100
AcDbCircle
 10
2.347973402807907
 20
5.113727854925917
 30
0.0
 40
0.1
100
AcDbArc
 50
185.2875058768912
 51
354.7456655177701
  0
LWPOLYLINE
  5
D5
100
AcDbEntity
  8
USP-GEO
100
AcDbPolyline
 90
        2
 70
   128
 43
0.0
 10
2.247034593966164
 20
5.104386244794092
 10
2.247955132513467
 20
5.104386244794092
  0
ELLIPSE
  5
D6
100
AcDbEntity
  8
USP-GEO
  6
CONTINUOUS
100
AcDbEllipse
 10
2.122973402807899
 20
5.191819062054824
 30
0.0
 11
0.125
 21
0.0
 31
0.0
210
0.0
220
0.0
230
1.0
 40
0.0174524064372832
 41
1.252517305352619
 42
7.412965775637231
1001
ACAD
1000
RTLwPs
1070
   128
  0
LWPOLYLINE
  5
D7
100
AcDbEntity
  8
USP-GEO
100
AcDbPolyline
 90
        2
 70
   128
 43
0.0
 10
2.210213052074051
 20
5.196440099524373
 10
2.210213052074051
 20
5.141207786686205
  0
ELLIPSE
  5
D8
100
AcDbEntity
  8
USP-GEO
  6
CONTINUOUS
100
AcDbEllipse
 10
2.122973402807899
 20
5.139826981906692
 30
0.0
 11
0.125
 21
0.0
 31
0.0
210
0.0
220
0.0
230
1.0
 40
0.0174524064372832
 41
0.7366183863744968
 42
6.847544565811565
1001
ACAD
1000
RTLwPs
1070
   128
  0
LWPOLYLINE
  5
D9
100
AcDbEntity
  8
USP-GEO
100
AcDbPolyline
 90
        2
 70
   128
 43
0.0
 10
2.247034593966164
 20
5.196440099524373
 10
2.247034593966164
 20
5.141207786686205
  0
LWPOLYLINE
  5
DA
100
AcDbEntity
  8
USP-GEO
100
AcDbPolyline
 90
        2
 70
   128
 43
0.0
 10
2.099748426397713
 20
5.196440099524373
 10
2.210213052074051
 20
5.196440099524373
  0
LWPOLYLINE
  5
DB
100
AcDbEntity
  8
USP-GEO
100
AcDbPolyline
 90
        2
 70
   128
 43
0.0
 10
2.210213052074051
 20
5.141207786686205
 10
2.099748426397713
 20
5.141207786686205
  0
LWPOLYLINE
  5
DC
100
AcDbEntity
  8
USP-GEO
100
AcDbPolyline
 90
        2
 70
   128
 43
0.0
 10
2.247034593966164
 20
5.141207786686205
 10
2.247034593966164
 20
5.104386244794092
  0
LWPOLYLINE
  5
DD
100
AcDbEntity
  8
USP-GEO
100
AcDbPolyline
 90
        2
 70
   128
 43
0.0
 10
2.099748426397713
 20
5.141207786686205
 10
2.100668964945016
 20
5.141207786686205
  0
LWPOLYLINE
  5
DE
100
AcDbEntity
  8
USP-GEO
100
AcDbPolyline
 90
        2
 70
   128
 43
0.0
 10
2.099748426397713
 20
5.196440099524373
 10
2.100668964945016
 20
5.196440099524373
  0
LWPOLYLINE
  5
DF
100
AcDbEntity
  8
USP-GEO
100
AcDbPolyline
 90
        2
 70
   128
 43
0.0
 10
2.099748426397713
 20
5.141207786686205
 10
2.099748426397713
 20
5.196440099524373
  0
ARC
  5
E0
100
AcDbEntity
  8
USP-GEO
100
AcDbCircle
 10
2.122973402807899
 20
6.55671980475717
 30
0.0
 40
0.3250000000000001
100
AcDbArc
 50
0.6944393071515469
 51
48.38623094021595
  0
CIRCLE
  5
E1
100
AcDbEntity
  8
USP-GEO
100
AcDbCircle
 10
1.615426917404617
 20
8.692518277690593
 30
0.0
 40
0.082
  0
CIRCLE
  5
E2
100
AcDbEntity
  8
USP-GEO
100
AcDbCircle
 10
2.347973402807893
 20
8.10244909213778
 30
0.0
 40
0.082
  0
ARC
  5
E3
100
AcDbEntity
  8
USP-GEO
100
AcDbCircle
 10
3.699230138592552
 20
3.885803459010324
 30
0.0
 40
0.344
100
AcDbArc
 50
53.57211045382227
 51
89.45511993909864
  0
LWPOLYLINE
  5
E4
100
AcDbEntity
  8
USP-GEO
100
AcDbPolyline
 90
        2
 70
   128
 43
0.0
 10
3.131672137924166
 20
3.667425572454403
 10
3.131672137924166
 20
0.2577507932447887
  0
LWPOLYLINE
  5
E5
100
AcDbEntity
  8
USP-GEO
100
AcDbPolyline
 90
        2
 70
   128
 43
0.0
 10
3.20531522170839
 20
0.2577507932447887
 10
3.20531522170839
 20
3.667425572454403
  0
LWPOLYLINE
  5
E6
100
AcDbEntity
  8
USP-GEO
100
AcDbPolyline
 90
        2
 70
   128
 43
0.0
 10
3.242136763600504
 20
3.667425572454403
 10
3.242136763600504
 20
0.2577507932447887
  0
LWPOLYLINE
  5
E7
100
AcDbEntity
  8
USP-GEO
100
AcDbPolyline
 90
        2
 70
   128
 43
0.0
 10
3.20531522170839
 20
0.2577507932447887
 10
3.131672137924166
 20
0.2577507932447887
  0
LWPOLYLINE
  5
E8
100
AcDbEntity
  8
USP-GEO
100
AcDbPolyline
 90
        2
 70
   128
 43
0.0
 10
2.910742886571492
 20
0.055232312838168
 10
2.725714638563626
 20
0.441858502705351
  0
LWPOLYLINE
  5
E9
100
AcDbEntity
  8
USP-GEO
100
AcDbPolyline
 90
        2
 70
   128
 43
0.0
 10
2.725714638563626
 20
0.441858502705351
 10
2.725714638563626
 20
0.055232312838168
  0
LWPOLYLINE
  5
EA
100
AcDbEntity
  8
USP-GEO
100
AcDbPolyline
 90
        2
 70
   128
 43
0.0
 10
3.094850596032054
 20
0.055232312838168
 10
3.094850596032054
 20
0.2577507932447887
  0
LWPOLYLINE
  5
EB
100
AcDbEntity
  8
USP-GEO
100
AcDbPolyline
 90
        2
 70
   128
 43
0.0
 10
3.131672137924166
 20
0.2577507932447887
 10
3.094850596032054
 20
0.2577507932447887
  0
LWPOLYLINE
  5
EC
100
AcDbEntity
  8
USP-GEO
100
AcDbPolyline
 90
        2
 70
   128
 43
0.0
 10
3.094850596032054
 20
0.0
 10
3.094850596032054
 20
0.055232312838168
  0
LWPOLYLINE
  5
ED
100
AcDbEntity
  8
USP-GEO
100
AcDbPolyline
 90
        2
 70
   128
 43
0.0
 10
3.242136763600504
 20
0.2577507932447887
 10
3.20531522170839
 20
0.2577507932447887
  0
LWPOLYLINE
  5
EE
100
AcDbEntity
  8
USP-GEO
100
AcDbPolyline
 90
        5
 70
   128
 43
0.0
 10
3.407833702115009
 20
4.164516387997922
 10
3.297369076438673
 20
4.072462533267641
 10
3.20531522170839
 20
3.943587136645247
 10
3.150082908870222
 20
3.814711740022852
 10
3.131672137924166
 20
3.667425572454403
  0
LWPOLYLINE
  5
EF
100
AcDbEntity
  8
USP-GEO
100
AcDbPolyline
 90
        2
 70
   128
 43
0.0
 10
3.20531522170839
 20
3.667425572454403
 10
3.131672137924166
 20
3.667425572454403
  0
LWPOLYLINE
  5
F0
100
AcDbEntity
  8
USP-GEO
100
AcDbPolyline
 90
        2
 70
   128
 43
0.0
 10
3.49988755684529
 20
4.164516387997922
 10
3.389422931168954
 20
4.035640991375528
  0
LWPOLYLINE
  5
F1
100
AcDbEntity
  8
USP-GEO
100
AcDbPolyline
 90
        2
 70
   128
 43
0.0
 10
3.49988755684529
 20
4.164516387997922
 10
3.407833702115009
 20
4.164516387997922
  0
LWPOLYLINE
  5
F2
100
AcDbEntity
  8
USP-GEO
100
AcDbPolyline
 90
        5
 70
   128
 43
0.0
 10
3.407833702115009
 20
4.164516387997922
 10
3.315779847384728
 20
4.054051762321584
 10
3.26054753454656
 20
3.943587136645247
 10
3.20531522170839
 20
3.814711740022852
 10
3.20531522170839
 20
3.667425572454403
  0
LWPOLYLINE
  5
F3
100
AcDbEntity
  8
USP-GEO
100
AcDbPolyline
 90
        2
 70
   128
 43
0.0
 10
3.20531522170839
 20
3.667425572454403
 10
3.26054753454656
 20
3.777890198130741
  0
LWPOLYLINE
  5
F4
100
AcDbEntity
  8
USP-GEO
100
AcDbPolyline
 90
        3
 70
   128
 43
0.0
 10
3.389422931168954
 20
4.035640991375528
 10
3.315779847384728
 20
3.92517636569919
 10
3.26054753454656
 20
3.777890198130741
  0
ARC
  5
F5
100
AcDbEntity
  8
USP-GEO
100
AcDbCircle
 10
3.727279469559375
 20
3.65216133623017
 30
0.0
 40
0.4786620908030546
100
AcDbArc
 50
164.9234695392754
 51
178.197874811898
  0
LWPOLYLINE
  5
F6
100
AcDbEntity
  8
USP-GEO
100
AcDbPolyline
 90
        2
 70
   128
 43
0.0
 10
3.242136763600504
 20
3.667425572454403
 10
3.20531522170839
 20
3.667425572454403
  0
ARC
  5
F7
100
AcDbEntity
  8
USP-GEO
100
AcDbCircle
 10
3.698723402807884
 20
3.885803459010324
 30
0.0
 40
0.344
100
AcDbArc
 50
89.36818725896253
 51
125.5043387641989
  0
LWPOLYLINE
  5
F8
100
AcDbEntity
  8
USP-GEO
100
AcDbPolyline
 90
        2
 70
   128
 43
0.0
 10
4.273139936579653
 20
0.2577507932447887
 10
4.273139936579653
 20
3.667425572454403
  0
LWPOLYLINE
  5
F9
100
AcDbEntity
  8
USP-GEO
100
AcDbPolyline
 90
        2
 70
   128
 43
0.0
 10
4.14426453995726
 20
3.667425572454403
 10
4.14426453995726
 20
0.2577507932447887
  0
LWPOLYLINE
  5
FA
100
AcDbEntity
  8
USP-GEO
100
AcDbPolyline
 90
        2
 70
   128
 43
0.0
 10
4.199496852795428
 20
0.2577507932447887
 10
4.199496852795428
 20
3.667425572454403
  0
LWPOLYLINE
  5
FB
100
AcDbEntity
  8
USP-GEO
100
AcDbPolyline
 90
        2
 70
   128
 43
0.0
 10
4.955259000131038
 20
0.055232312838168
 10
4.291550707525709
 20
0.055232312838168
  0
LWPOLYLINE
  5
FC
100
AcDbEntity
  8
USP-GEO
100
AcDbPolyline
 90
        2
 70
   128
 43
0.0
 10
4.955259000131038
 20
0.0
 10
4.291550707525709
 20
0.0
  0
LWPOLYLINE
  5
FD
100
AcDbEntity
  8
USP-GEO
100
AcDbPolyline
 90
        2
 70
   128
 43
0.0
 10
4.273139936579653
 20
0.2577507932447887
 10
4.291550707525709
 20
0.2577507932447887
  0
LWPOLYLINE
  5
FE
100
AcDbEntity
  8
USP-GEO
100
AcDbPolyline
 90
        2
 70
   128
 43
0.0
 10
4.291550707525709
 20
0.055232312838168
 10
4.291550707525709
 20
0.2577507932447887
  0
LWPOLYLINE
  5
FF
100
AcDbEntity
  8
USP-GEO
100
AcDbPolyline
 90
        2
 70
   128
 43
0.0
 10
4.14426453995726
 20
0.2577507932447887
 10
4.199496852795428
 20
0.2577507932447887
  0
LWPOLYLINE
  5
100
100
AcDbEntity
  8
USP-GEO
100
AcDbPolyline
 90
        2
 70
   128
 43
0.0
 10
4.199496852795428
 20
0.2577507932447887
 10
4.273139936579653
 20
0.2577507932447887
  0
LWPOLYLINE
  5
101
100
AcDbEntity
  8
USP-GEO
100
AcDbPolyline
 90
        2
 70
   128
 43
0.0
 10
4.291550707525709
 20
0.0
 10
4.291550707525709
 20
0.055232312838168
  0
LWPOLYLINE
  5
102
100
AcDbEntity
  8
USP-GEO
100
AcDbPolyline
 90
        2
 70
   128
 43
0.0
 10
4.8447943744547
 20
0.055232312838168
 10
4.660686664994138
 20
0.441858502705351
  0
LWPOLYLINE
  5
103
100
AcDbEntity
  8
USP-GEO
100
AcDbPolyline
 90
        2
 70
   128
 43
0.0
 10
4.660686664994138
 20
0.441858502705351
 10
4.494989726479632
 20
0.055232312838168
  0
LWPOLYLINE
  5
104
100
AcDbEntity
  8
USP-GEO
100
AcDbPolyline
 90
        2
 70
   128
 43
0.0
 10
4.660686664994138
 20
0.441858502705351
 10
4.660686664994138
 20
0.055232312838168
  0
LWPOLYLINE
  5
105
100
AcDbEntity
  8
USP-GEO
100
AcDbPolyline
 90
        2
 70
   128
 43
0.0
 10
4.955259000131038
 20
0.0
 10
4.955259000131038
 20
0.055232312838168
  0
LWPOLYLINE
  5
106
100
AcDbEntity
  8
USP-GEO
100
AcDbPolyline
 90
        3
 70
   128
 43
0.0
 10
4.125853769011204
 20
3.777890198130741
 10
4.089032227119091
 20
3.92517636569919
 10
3.996978372388809
 20
4.035640991375528
  0
LWPOLYLINE
  5
107
100
AcDbEntity
  8
USP-GEO
100
AcDbPolyline
 90
        5
 70
   128
 43
0.0
 10
4.273139936579653
 20
3.667425572454403
 10
4.236318394687542
 20
3.814711740022852
 10
4.181086081849372
 20
3.943587136645247
 10
4.089032227119091
 20
4.072462533267641
 10
3.978567601442753
 20
4.164516387997922
  0
LWPOLYLINE
  5
108
100
AcDbEntity
  8
USP-GEO
100
AcDbPolyline
 90
        5
 70
   128
 43
0.0
 10
4.199496852795428
 20
3.667425572454403
 10
4.181086081849372
 20
3.814711740022852
 10
4.14426453995726
 20
3.943587136645247
 10
4.070621456173034
 20
4.054051762321584
 10
3.978567601442753
 20
4.164516387997922
  0
LWPOLYLINE
  5
109
100
AcDbEntity
  8
USP-GEO
100
AcDbPolyline
 90
        2
 70
   128
 43
0.0
 10
3.996978372388809
 20
4.035640991375528
 10
3.904924517658528
 20
4.164516387997922
  0
LWPOLYLINE
  5
10A
100
AcDbEntity
  8
USP-GEO
100
AcDbPolyline
 90
        2
 70
   128
 43
0.0
 10
3.978567601442753
 20
4.164516387997922
 10
3.904924517658528
 20
4.164516387997922
  0
LWPOLYLINE
  5
10B
100
AcDbEntity
  8
USP-GEO
100
AcDbPolyline
 90
        2
 70
   128
 43
0.0
 10
3.904924517658528
 20
4.164516387997922
 10
3.905845056205832
 20
4.164516387997922
  0
ARC
  5
10C
100
AcDbEntity
  8
USP-GEO
100
AcDbCircle
 10
3.670674071841061
 20
3.65216133623017
 30
0.0
 40
0.4786620908030546
100
AcDbArc
 50
1.84605416580872
 51
15.44111499996724
  0
LWPOLYLINE
  5
10D
100
AcDbEntity
  8
USP-GEO
100
AcDbPolyline
 90
        2
 70
   128
 43
0.0
 10
4.199496852795428
 20
3.667425572454403
 10
4.125853769011204
 20
3.777890198130741
  0
LWPOLYLINE
  5
10E
100
AcDbEntity
  8
USP-GEO
100
AcDbPolyline
 90
        2
 70
   128
 43
0.0
 10
4.14426453995726
 20
3.667425572454403
 10
4.199496852795428
 20
3.667425572454403
  0
LWPOLYLINE
  5
10F
100
AcDbEntity
  8
USP-GEO
100
AcDbPolyline
 90
        2
 70
   128
 43
0.0
 10
4.199496852795428
 20
3.667425572454403
 10
4.273139936579653
 20
3.667425572454403
  0
CIRCLE
  5
110
100
AcDbEntity
  8
USP-GEO
100
AcDbCircle
 10
3.698976770700225
 20
7.678729290401895
 30
0.0
 40
0.1875
  0
ARC
  5
111
100
AcDbEntity
  8
USP-GEO
100
AcDbCircle
 10
3.700976770700192
 20
8.525167970358948
 30
0.0
 40
0.099
100
AcDbArc
 50
270.7937676054394
 51
4.467436690099132
  0
CIRCLE
  5
112
100
AcDbEntity
  8
USP-GEO
100
AcDbCircle
 10
3.698976770700225
 20
6.884710789283571
 30
0.0
 40
0.082
  0
CIRCLE
  5
113
100
AcDbEntity
  8
USP-GEO
100
AcDbCircle
 10
2.822973402807901
 20
5.557263649580113
 30
0.0
 40
0.082
  0
CIRCLE
  5
114
100
AcDbEntity
  8
USP-GEO
100
AcDbCircle
 10
2.884008229377071
 20
6.595552471154155
 30
0.0
 40
0.082
  0
CIRCLE
  5
115
100
AcDbEntity
  8
USP-GEO
100
AcDbCircle
 10
3.697973402807901
 20
6.057263649580127
 30
0.0
 40
0.082
  0
CIRCLE
  5
116
100
AcDbEntity
  8
USP-GEO
100
AcDbCircle
 10
2.822973402807901
 20
8.807263649580134
 30
0.0
 40
0.082
  0
ARC
  5
117
100
AcDbEntity
  8
USP-GEO
100
AcDbCircle
 10
3.696976770700258
 20
8.525167970358948
 30
0.0
 40
0.099
100
AcDbArc
 50
176.022236911999
 51
273.0126494275775
  0
LWPOLYLINE
  5
118
100
AcDbEntity
  8
USP-GEO
100
AcDbPolyline
 90
        2
 70
   128
 43
0.0
 10
4.955259000131038
 20
6.560678226627141
 10
4.955259000131038
 20
5.104386244794092
  0
CIRCLE
  5
119
100
AcDbEntity
  8
USP-GEO
100
AcDbCircle
 10
4.574980138592549
 20
5.557263649580113
 30
0.0
 40
0.082
  0
CIRCLE
  5
11A
100
AcDbEntity
  8
USP-GEO
100
AcDbCircle
 10
4.513945312023379
 20
6.595552471154155
 30
0.0
 40
0.082
  0
CIRCLE
  5
11B
100
AcDbEntity
  8
USP-GEO
100
AcDbCircle
 10
4.811205583349716
 20
7.360191444186623
 30
0.0
 40
0.082
  0
CIRCLE
  5
11C
100
AcDbEntity
  8
USP-GEO
100
AcDbCircle
 10
4.574980138592549
 20
8.807263649580134
 30
0.0
 40
0.082
  0
LWPOLYLINE
  5
11D
100
AcDbEntity
  8
USP-GEO
100
AcDbPolyline
 90
        2
 70
   128
 43
0.0
 10
1.989283800721377
 20
9.619627819314386
 10
3.352601389276841
 20
9.619627819314386
  0
CIRCLE
  5
11E
100
AcDbEntity
  8
USP-GEO
100
AcDbCircle
 10
2.197973402807901
 20
9.357263649580131
 30
0.0
 40
0.082
  0
ARC
  5
11F
100
AcDbEntity
  8
USP-GEO
100
AcDbCircle
 10
4.049976770700224
 20
9.369764982064216
 30
0.0
 40
0.25
100
AcDbArc
 50
89.48775710142411
 51
177.6417511479941
  0
ARC
  5
120
100
AcDbEntity
  8
USP-GEO
100
AcDbCircle
 10
3.347976770700226
 20
9.369764982064223
 30
0.0
 40
0.25
100
AcDbArc
 50
2.469781728760485
 51
88.93965473843314
  0
CIRCLE
  5
121
100
AcDbEntity
  8
USP-GEO
100
AcDbCircle
 10
3.278936247753533
 20
9.357263649580124
 30
0.0
 40
0.082
  0
CIRCLE
  5
122
100
AcDbEntity
  8
USP-GEO
100
AcDbCircle
 10
4.119017293646917
 20
9.357263649580124
 30
0.0
 40
0.082
  0
LWPOLYLINE
  5
123
100
AcDbEntity
  8
USP-GEO
100
AcDbPolyline
 90
        2
 70
   128
 43
0.0
 10
6.152879650171996
 20
8.863865671978778
 10
5.415528273782443
 20
9.619627819314386
  0
LWPOLYLINE
  5
124
100
AcDbEntity
  8
USP-GEO
100
AcDbPolyline
 90
        2
 70
   128
 43
0.0
 10
5.157777480537657
 20
3.814711740022852
 10
5.950361169765377
 20
4.754581596819024
  0
LWPOLYLINE
  5
125
100
AcDbEntity
  8
USP-GEO
100
AcDbPolyline
 90
        2
 70
   128
 43
0.0
 10
5.065723625807374
 20
1.474702752779105
 10
5.065723625807374
 20
3.575371717724122
  0
LWPOLYLINE
  5
126
100
AcDbEntity
  8
USP-GEO
100
AcDbPolyline
 90
        2
 70
   128
 43
0.0
 10
5.194599022429768
 20
1.363317588555464
 10
5.194599022429768
 20
0.110464625676336
  0
ARC
  5
127
100
AcDbEntity
  8
USP-GEO
100
AcDbCircle
 10
5.199980138592534
 20
-0.012959190782988
 30
0.0
 40
0.125
100
AcDbArc
 50
92.49643969317773
 51
145.0131012126302
  0
LWPOLYLINE
  5
128
100
AcDbEntity
  8
USP-GEO
100
AcDbPolyline
 90
        2
 70
   128
 43
0.0
 10
5.065723625807374
 20
0.055232312838168
 10
5.102545167699487
 20
0.055232312838168
  0
LWPOLYLINE
  5
129
100
AcDbEntity
  8
USP-GEO
100
AcDbPolyline
 90
        2
 70
   128
 43
0.0
 10
5.065723625807374
 20
0.0
 10
5.065723625807374
 20
0.055232312838168
  0
LWPOLYLINE
  5
12A
100
AcDbEntity
  8
USP-GEO
100
AcDbPolyline
 90
        2
 70
   128
 43
0.0
 10
5.102545167699487
 20
0.0
 10
5.065723625807374
 20
0.0
  0
LWPOLYLINE
  5
12B
100
AcDbEntity
  8
USP-GEO
100
AcDbPolyline
 90
        2
 70
   128
 43
0.0
 10
5.102545167699487
 20
0.0
 10
5.102545167699487
 20
0.055232312838168
  0
ARC
  5
12C
100
AcDbEntity
  8
USP-GEO
100
AcDbCircle
 10
5.199980138592549
 20
1.488259455859184
 30
0.0
 40
0.125
100
AcDbArc
 50
185.7659621509495
 51
267.5338545133182
  0
ARC
  5
12D
100
AcDbEntity
  8
USP-GEO
100
AcDbCircle
 10
5.449980138592534
 20
3.571494923887135
 30
0.0
 40
0.375
100
AcDbArc
 50
140.2274713440979
 51
179.4219580375489
  0
LWPOLYLINE
  5
12E
100
AcDbEntity
  8
USP-GEO
100
AcDbPolyline
 90
        2
 70
   128
 43
0.0
 10
6.263344275848332
 20
5.104386244794092
 10
5.157777480537657
 20
5.104386244794092
  0
LWPOLYLINE
  5
12F
100
AcDbEntity
  8
USP-GEO
100
AcDbPolyline
 90
        2
 70
   128
 43
0.0
 10
7.386401303557764
 20
5.141207786686205
 10
5.286652877160049
 20
5.141207786686205
  0
LWPOLYLINE
  5
130
100
AcDbEntity
  8
USP-GEO
100
AcDbPolyline
 90
        2
 70
   128
 43
0.0
 10
6.060825795441715
 20
5.823326850237588
 10
7.128650510312976
 20
5.823326850237588
  0
LWPOLYLINE
  5
131
100
AcDbEntity
  8
USP-GEO
100
AcDbPolyline
 90
        2
 70
   128
 43
0.0
 10
6.060825795441715
 20
5.823326850237588
 10
7.128650510312976
 20
5.823326850237588
  0
LWPOLYLINE
  5
132
100
AcDbEntity
  8
USP-GEO
100
AcDbPolyline
 90
        2
 70
   128
 43
0.0
 10
5.065723625807374
 20
6.800018248925873
 10
5.838976005541736
 20
7.482137312477256
  0
LWPOLYLINE
  5
133
100
AcDbEntity
  8
USP-GEO
100
AcDbPolyline
 90
        2
 70
   128
 43
0.0
 10
5.286652877160049
 20
5.196440099524373
 10
5.968771940711434
 20
5.786505308345477
  0
LWPOLYLINE
  5
134
100
AcDbEntity
  8
USP-GEO
100
AcDbPolyline
 90
        2
 70
   128
 43
0.0
 10
5.286652877160049
 20
5.196440099524373
 10
5.968771940711434
 20
5.786505308345477
  0
LWPOLYLINE
  5
135
100
AcDbEntity
  8
USP-GEO
100
AcDbPolyline
 90
        2
 70
   128
 43
0.0
 10
5.157777480537657
 20
5.104386244794092
 10
5.158698019084958
 20
5.104386244794092
  0
LWPOLYLINE
  5
136
100
AcDbEntity
  8
USP-GEO
100
AcDbPolyline
 90
        2
 70
   128
 43
0.0
 10
5.286652877160049
 20
5.141207786686205
 10
5.287573415707353
 20
5.141207786686205
  0
LWPOLYLINE
  5
137
100
AcDbEntity
  8
USP-GEO
100
AcDbPolyline
 90
        2
 70
   128
 43
0.0
 10
5.194599022429768
 20
5.141207786686205
 10
5.286652877160049
 20
5.141207786686205
  0
ELLIPSE
  5
138
100
AcDbEntity
  8
USP-GEO
  6
CONTINUOUS
100
AcDbEllipse
 10
5.274980138592537
 20
5.139826981906692
 30
0.0
 11
0.125
 21
0.0
 31
0.0
210
0.0
220
0.0
230
1.0
 40
0.0174524064372832
 41
2.364111677890983
 42
2.547804836439434
1001
ACAD
1000
RTLwPs
1070
   128
  0
LWPOLYLINE
  5
139
100
AcDbEntity
  8
USP-GEO
100
AcDbPolyline
 90
        2
 70
   128
 43
0.0
 10
5.157777480537657
 20
5.141207786686205
 10
5.157777480537657
 20
5.104386244794092
  0
LWPOLYLINE
  5
13A
100
AcDbEntity
  8
USP-GEO
100
AcDbPolyline
 90
        2
 70
   128
 43
0.0
 10
5.194599022429768
 20
5.196440099524373
 10
5.286652877160049
 20
5.196440099524373
  0
LWPOLYLINE
  5
13B
100
AcDbEntity
  8
USP-GEO
100
AcDbPolyline
 90
        2
 70
   128
 43
0.0
 10
5.194599022429768
 20
5.196440099524373
 10
5.194599022429768
 20
5.141207786686205
  0
ELLIPSE
  5
13C
100
AcDbEntity
  8
USP-GEO
  6
CONTINUOUS
100
AcDbEllipse
 10
5.274980138592537
 20
5.191819062054824
 30
0.0
 11
0.125
 21
0.0
 31
0.0
210
0.0
220
0.0
230
1.0
 40
0.0174524064372832
 41
1.865532170782
 42
1.987515087089023
1001
ACAD
1000
RTLwPs
1070
   128
  0
LWPOLYLINE
  5
13D
100
AcDbEntity
  8
USP-GEO
100
AcDbPolyline
 90
        2
 70
   128
 43
0.0
 10
5.157777480537657
 20
5.196440099524373
 10
5.157777480537657
 20
5.141207786686205
  0
LWPOLYLINE
  5
13E
100
AcDbEntity
  8
USP-GEO
100
AcDbPolyline
 90
        2
 70
   128
 43
0.0
 10
5.286652877160049
 20
5.141207786686205
 10
5.286652877160049
 20
5.196440099524373
  0
LWPOLYLINE
  5
13F
100
AcDbEntity
  8
USP-GEO
100
AcDbPolyline
 90
        2
 70
   128
 43
0.0
 10
5.286652877160049
 20
5.196440099524373
 10
5.287573415707353
 20
5.196440099524373
  0
LWPOLYLINE
  5
140
100
AcDbEntity
  8
USP-GEO
100
AcDbPolyline
 90
        2
 70
   128
 43
0.0
 10
5.950361169765377
 20
4.754581596819024
 10
5.950361169765377
 20
5.104386244794092
  0
ELLIPSE
  5
141
100
AcDbEntity
  8
USP-GEO
  6
CONTINUOUS
100
AcDbEllipse
 10
6.059230993335715
 20
5.697355534068583
 30
0.0
 11
0.125
 21
0.0
 31
0.0
210
0.0
220
0.0
230
1.0
 40
0.9993908270190956
 41
2.363179323080365
 42
7.841329979576344
1001
ACAD
1000
RTLwPs
1070
   128
  0
LWPOLYLINE
  5
142
100
AcDbEntity
  8
USP-GEO
100
AcDbPolyline
 90
        2
 70
   128
 43
0.0
 10
6.060825795441715
 20
5.823326850237588
 10
6.061746333989017
 20
5.823326850237588
  0
LWPOLYLINE
  5
143
100
AcDbEntity
  8
USP-GEO
100
AcDbPolyline
 90
        2
 70
   128
 43
0.0
 10
5.968771940711434
 20
5.786505308345477
 10
5.969692479258736
 20
5.786505308345477
  0
ELLIPSE
  5
144
100
AcDbEntity
  8
USP-GEO
  6
CONTINUOUS
100
AcDbEllipse
 10
6.059230993335715
 20
5.695540760240055
 30
0.0
 11
0.125
 21
0.0
 31
0.0
210
0.0
220
0.0
230
1.0
 40
0.9993908270190956
 41
2.353103551465833
 42
7.841509635227946
1001
ACAD
1000
RTLwPs
1070
   128
  0
LWPOLYLINE
  5
145
100
AcDbEntity
  8
USP-GEO
100
AcDbPolyline
 90
        2
 70
   128
 43
0.0
 10
6.152879650171996
 20
7.55578039626148
 10
6.152879650171996
 20
8.863865671978778
  0
ARC
  5
146
100
AcDbEntity
  8
USP-GEO
100
AcDbCircle
 10
6.059230993322968
 20
7.238710091433281
 30
0.0
 40
0.3250000000000001
100
AcDbArc
 50
89.71181577519057
 51
132.1390587421358
  0
LWPOLYLINE
  5
147
100
AcDbEntity
  8
USP-GEO
100
AcDbPolyline
 90
        2
 70
   128
 43
0.0
 10
6.060825795441715
 20
7.55578039626148
 10
6.152879650171996
 20
7.55578039626148
  0
CIRCLE
  5
148
100
AcDbEntity
  8
USP-GEO
100
AcDbCircle
 10
5.782526623995833
 20
8.692518277690593
 30
0.0
 40
0.082
  0
LWPOLYLINE
  5
149
100
AcDbEntity
  8
USP-GEO
100
AcDbPolyline
 90
        2
 70
   128
 43
0.0
 10
7.01818588463664
 20
5.104386244794092
 10
6.392219672470726
 20
5.104386244794092
  0
ELLIPSE
  5
14A
100
AcDbEntity
  8
USP-GEO
  6
CONTINUOUS
100
AcDbEllipse
 10
6.762480138592549
 20
5.697397743987989
 30
0.0
 11
0.082
 21
0.0
 31
0.0
210
0.0
220
0.0
230
1.0
 40
0.9993908270190956
 41
3.180523417250814
 42
6.250443703207953
1001
ACAD
1000
RTLwPs
1070
   128
  0
ELLIPSE
  5
14B
100
AcDbEntity
  8
USP-GEO
  6
CONTINUOUS
100
AcDbEllipse
 10
6.762480138592549
 20
5.695582970159462
 30
0.0
 11
0.082
 21
0.0
 31
0.0
210
0.0
220
0.0
230
1.0
 40
0.9993908270190956
 41
5.800777278996302
 42
6.740774779435034
1001
ACAD
1000
RTLwPs
1070
   128
  0
ELLIPSE
  5
14C
100
AcDbEntity
  8
USP-GEO
  6
CONTINUOUS
100
AcDbEllipse
 10
6.762480138592549
 20
5.695582970159462
 30
0.0
 11
0.082
 21
0.0
 31
0.0
210
0.0
220
0.0
230
1.0
 40
0.9993908270190956
 41
4.445511117254569
 42
5.795508025214869
1001
ACAD
1000
RTLwPs
1070
   128
  0
ELLIPSE
  5
14D
100
AcDbEntity
  8
USP-GEO
  6
CONTINUOUS
100
AcDbEllipse
 10
6.762480138592549
 20
5.695582970159462
 30
0.0
 11
0.082
 21
0.0
 31
0.0
210
0.0
220
0.0
230
1.0
 40
0.9993908270190956
 41
0.4626723777491659
 42
1.845596002866218
1001
ACAD
1000
RTLwPs
1070
   128
  0
ELLIPSE
  5
14E
100
AcDbEntity
  8
USP-GEO
  6
CONTINUOUS
100
AcDbEllipse
 10
6.762480138592549
 20
5.695582970159462
 30
0.0
 11
0.082
 21
0.0
 31
0.0
210
0.0
220
0.0
230
1.0
 40
0.9993908270190956
 41
3.919256903140678
 42
4.456994216462993
1001
ACAD
1000
RTLwPs
1070
   128
  0
ELLIPSE
  5
14F
100
AcDbEntity
  8
USP-GEO
  6
CONTINUOUS
100
AcDbEllipse
 10
6.762480138592549
 20
5.695582970159462
 30
0.0
 11
0.082
 21
0.0
 31
0.0
210
0.0
220
0.0
230
1.0
 40
0.9993908270190956
 41
1.833804357141607
 42
2.384403098871284
1001
ACAD
1000
RTLwPs
1070
   128
  0
ELLIPSE
  5
150
100
AcDbEntity
  8
USP-GEO
  6
CONTINUOUS
100
AcDbEllipse
 10
6.762480138592549
 20
5.695582970159462
 30
0.0
 11
0.082
 21
0.0
 31
0.0
210
0.0
220
0.0
230
1.0
 40
0.9993908270190956
 41
2.376311573264436
 42
3.927357666681379
1001
ACAD
1000
RTLwPs
1070
   128
  0
ELLIPSE
  5
151
100
AcDbEntity
  8
USP-GEO
  6
CONTINUOUS
100
AcDbEllipse
 10
6.395157208421975
 20
5.110930052525509
 30
0.0
 11
0.25
 21
0.0
 31
0.0
210
0.0
220
0.0
230
1.0
 40
0.0174524064372832
 41
4.704554700315619
 42
10.65752238189818
1001
ACAD
1000
RTLwPs
1070
   128
  0
ELLIPSE
  5
152
100
AcDbEntity
  8
USP-GEO
  6
CONTINUOUS
100
AcDbEllipse
 10
7.13748013859252
 20
5.572482312839758
 30
0.0
 11
0.25
 21
0.0
 31
0.0
210
0.0
220
0.0
230
1.0
 40
0.9993908270190956
 41
6.255430772864188
 42
7.889145294657019
1001
ACAD
1000
RTLwPs
1070
   128
  0
ELLIPSE
  5
153
100
AcDbEntity
  8
USP-GEO
  6
CONTINUOUS
100
AcDbEllipse
 10
7.13748013859252
 20
5.570667539011223
 30
0.0
 11
0.25
 21
0.0
 31
0.0
210
0.0
220
0.0
230
1.0
 40
0.9993908270190956
 41
6.262721501562888
 42
7.888892930850752
1001
ACAD
1000
RTLwPs
1070
   128
  0
ELLIPSE
  5
154
100
AcDbEntity
  8
USP-GEO
  6
CONTINUOUS
100
AcDbEllipse
 10
7.01248013859252
 20
5.121837806548809
 30
0.0
 11
0.375
 21
0.0
 31
0.0
210
0.0
220
0.0
230
1.0
 40
0.0174524064372832
 41
0.1455882802482455
 42
4.718094940670079
1001
ACAD
1000
RTLwPs
1070
   128
  0
LWPOLYLINE
  5
155
100
AcDbEntity
  8
USP-GEO
100
AcDbPolyline
 90
        2
 70
   128
 43
0.0
 10
7.128650510312976
 20
5.823326850237588
 10
7.129571048860279
 20
5.823326850237588
  0
CIRCLE
  5
156
100
AcDbEntity
  8
USP-GEO
100
AcDbCircle
 10
5.199980138592549
 20
9.357263649580124
 30
0.0
 40
0.082
  0
ENDBLK
  5
158
100
AcDbEntity
  8
0
100
AcDbBlockEnd
  0
BLOCK
  5
1AB
100
AcDbEntity
  8
0
100
AcDbBlockBegin
  2
HLPTA75PR_S
 70
     0
 10
0.0
 20
0.0
 30
0.0
  3
HLPTA75PR_S
  1

  0
TEXT
  5
15B
100
AcDbEntity
  8
USP-TXT
100
AcDbText
 10
-1.881794734768619
 20
-1.934810481202029
 30
0.0
 40
0.2953678525692794
  1
HLPTA75 - SIDE VIEW
 72
     1
 11
0.8749718892113236
 21
-1.934810481202029
 31
0.0
100
AcDbText
  0
LWPOLYLINE
  5
15C
100
AcDbEntity
  8
USP-GEO
100
AcDbPolyline
 90
        2
 70
   128
 43
0.0
 10
1.749943778422647
 20
9.619627819314386
 10
1.694711465584475
 20
9.619627819314386
  0
LWPOLYLINE
  5
15D
100
AcDbEntity
  8
USP-GEO
100
AcDbPolyline
 90
        2
 70
   128
 43
0.0
 10
0.0368215418921132
 20
5.823326850237588
 10
0.0
 20
5.823326850237588
  0
LWPOLYLINE
  5
15E
100
AcDbEntity
  8
USP-GEO
100
AcDbPolyline
 90
        2
 70
   128
 43
0.0
 10
0.055232312838168
 20
5.565576056992801
 10
0.0
 20
5.565576056992801
  0
LWPOLYLINE
  5
15F
100
AcDbEntity
  8
USP-GEO
100
AcDbPolyline
 90
        2
 70
   128
 43
0.0
 10
0.0
 20
5.565576056992801
 10
0.0184107709460548
 20
5.141207786686205
  0
LWPOLYLINE
  5
160
100
AcDbEntity
  8
USP-GEO
100
AcDbPolyline
 90
        2
 70
   128
 43
0.0
 10
0.0736430837842264
 20
5.196440099524373
 10
0.055232312838168
 20
5.565576056992801
  0
LWPOLYLINE
  5
161
100
AcDbEntity
  8
USP-GEO
100
AcDbPolyline
 90
        2
 70
   128
 43
0.0
 10
0.0
 20
5.565576056992801
 10
0.0
 20
5.823326850237588
  0
LWPOLYLINE
  5
162
100
AcDbEntity
  8
USP-GEO
100
AcDbPolyline
 90
        2
 70
   128
 43
0.0
 10
0.055232312838168
 20
5.565576056992801
 10
0.0368215418921132
 20
5.823326850237588
  0
LWPOLYLINE
  5
163
100
AcDbEntity
  8
USP-GEO
100
AcDbPolyline
 90
        2
 70
   128
 43
0.0
 10
1.749943778422647
 20
8.863865671978778
 10
1.694711465584475
 20
8.863865671978778
  0
LWPOLYLINE
  5
164
100
AcDbEntity
  8
USP-GEO
100
AcDbPolyline
 90
        2
 70
   128
 43
0.0
 10
1.749943778422647
 20
7.482137312477256
 10
1.694711465584475
 20
7.482137312477256
  0
LWPOLYLINE
  5
165
100
AcDbEntity
  8
USP-GEO
100
AcDbPolyline
 90
        2
 70
   128
 43
0.0
 10
1.749943778422647
 20
7.55578039626148
 10
1.694711465584475
 20
7.55578039626148
  0
LWPOLYLINE
  5
166
100
AcDbEntity
  8
USP-GEO
100
AcDbPolyline
 90
        2
 70
   128
 43
0.0
 10
1.749943778422647
 20
7.55578039626148
 10
1.694711465584475
 20
7.55578039626148
  0
LWPOLYLINE
  5
167
100
AcDbEntity
  8
USP-GEO
100
AcDbPolyline
 90
        2
 70
   128
 43
0.0
 10
1.749943778422647
 20
7.574191167207537
 10
1.749943778422647
 20
7.55578039626148
  0
LWPOLYLINE
  5
168
100
AcDbEntity
  8
USP-GEO
100
AcDbPolyline
 90
        2
 70
   128
 43
0.0
 10
1.749943778422647
 20
7.482137312477256
 10
1.749943778422647
 20
7.55578039626148
  0
LWPOLYLINE
  5
169
100
AcDbEntity
  8
USP-GEO
100
AcDbPolyline
 90
        2
 70
   128
 43
0.0
 10
1.694711465584475
 20
7.55578039626148
 10
1.694711465584475
 20
7.482137312477256
  0
LWPOLYLINE
  5
16A
100
AcDbEntity
  8
USP-GEO
100
AcDbPolyline
 90
        2
 70
   128
 43
0.0
 10
1.694711465584475
 20
7.574191167207537
 10
1.694711465584475
 20
7.55578039626148
  0
LWPOLYLINE
  5
16B
100
AcDbEntity
  8
USP-GEO
100
AcDbPolyline
 90
        2
 70
   128
 43
0.0
 10
1.749943778422647
 20
7.55578039626148
 10
1.749943778422647
 20
8.863865671978778
  0
LWPOLYLINE
  5
16C
100
AcDbEntity
  8
USP-GEO
100
AcDbPolyline
 90
        2
 70
   128
 43
0.0
 10
1.694711465584475
 20
7.55578039626148
 10
1.694711465584475
 20
8.863865671978778
  0
LWPOLYLINE
  5
16D
100
AcDbEntity
  8
USP-GEO
100
AcDbPolyline
 90
        2
 70
   128
 43
0.0
 10
1.289674504771241
 20
5.178029328578318
 10
1.271263733825183
 20
5.122797015740149
  0
LWPOLYLINE
  5
16E
100
AcDbEntity
  8
USP-GEO
100
AcDbPolyline
 90
        2
 70
   128
 43
0.0
 10
1.749943778422647
 20
6.560678226627141
 10
1.694711465584475
 20
6.560678226627141
  0
LWPOLYLINE
  5
16F
100
AcDbEntity
  8
USP-GEO
100
AcDbPolyline
 90
        2
 70
   128
 43
0.0
 10
1.749943778422647
 20
6.800018248925873
 10
1.694711465584475
 20
6.800018248925873
  0
LWPOLYLINE
  5
170
100
AcDbEntity
  8
USP-GEO
100
AcDbPolyline
 90
        2
 70
   128
 43
0.0
 10
1.749943778422647
 20
6.560678226627141
 10
1.749943778422647
 20
6.800018248925873
  0
LWPOLYLINE
  5
171
100
AcDbEntity
  8
USP-GEO
100
AcDbPolyline
 90
        2
 70
   128
 43
0.0
 10
1.694711465584475
 20
6.800018248925873
 10
1.694711465584475
 20
6.560678226627141
  0
LWPOLYLINE
  5
172
100
AcDbEntity
  8
USP-GEO
100
AcDbPolyline
 90
        2
 70
   128
 43
0.0
 10
1.749943778422647
 20
5.067564702901981
 10
1.694711465584475
 20
5.067564702901981
  0
LWPOLYLINE
  5
173
100
AcDbEntity
  8
USP-GEO
100
AcDbPolyline
 90
        2
 70
   128
 43
0.0
 10
1.749943778422647
 20
5.104386244794092
 10
1.694711465584475
 20
5.104386244794092
  0
LWPOLYLINE
  5
174
100
AcDbEntity
  8
USP-GEO
100
AcDbPolyline
 90
        2
 70
   128
 43
0.0
 10
1.694711465584475
 20
5.104386244794092
 10
1.69563200413178
 20
5.104386244794092
  0
LWPOLYLINE
  5
175
100
AcDbEntity
  8
USP-GEO
100
AcDbPolyline
 90
        2
 70
   128
 43
0.0
 10
1.749943778422647
 20
5.159618557632262
 10
1.694711465584475
 20
5.159618557632262
  0
LWPOLYLINE
  5
176
100
AcDbEntity
  8
USP-GEO
100
AcDbPolyline
 90
        2
 70
   128
 43
0.0
 10
1.657889923692366
 20
5.104386244794092
 10
1.694711465584475
 20
5.104386244794092
  0
LWPOLYLINE
  5
177
100
AcDbEntity
  8
USP-GEO
100
AcDbPolyline
 90
        2
 70
   128
 43
0.0
 10
1.694711465584475
 20
5.159618557632262
 10
1.694711465584475
 20
5.104386244794092
  0
LWPOLYLINE
  5
178
100
AcDbEntity
  8
USP-GEO
100
AcDbPolyline
 90
        2
 70
   128
 43
0.0
 10
1.694711465584475
 20
5.159618557632262
 10
1.657889923692366
 20
5.159618557632262
  0
LWPOLYLINE
  5
179
100
AcDbEntity
  8
USP-GEO
100
AcDbPolyline
 90
        2
 70
   128
 43
0.0
 10
1.657889923692366
 20
5.159618557632262
 10
1.657889923692366
 20
5.104386244794092
  0
LWPOLYLINE
  5
17A
100
AcDbEntity
  8
USP-GEO
100
AcDbPolyline
 90
        2
 70
   128
 43
0.0
 10
1.749943778422647
 20
5.104386244794092
 10
1.749943778422647
 20
5.159618557632262
  0
LWPOLYLINE
  5
17B
100
AcDbEntity
  8
USP-GEO
100
AcDbPolyline
 90
        2
 70
   128
 43
0.0
 10
1.749943778422647
 20
5.067564702901981
 10
1.749943778422647
 20
5.104386244794092
  0
LWPOLYLINE
  5
17C
100
AcDbEntity
  8
USP-GEO
100
AcDbPolyline
 90
        2
 70
   128
 43
0.0
 10
1.694711465584475
 20
5.104386244794092
 10
1.694711465584475
 20
5.067564702901981
  0
LWPOLYLINE
  5
17D
100
AcDbEntity
  8
USP-GEO
100
AcDbPolyline
 90
        2
 70
   128
 43
0.0
 10
1.694711465584475
 20
5.104386244794092
 10
1.69563200413178
 20
5.104386244794092
  0
LWPOLYLINE
  5
17E
100
AcDbEntity
  8
USP-GEO
100
AcDbPolyline
 90
        2
 70
   128
 43
0.0
 10
1.749943778422647
 20
5.159618557632262
 10
1.749943778422647
 20
6.560678226627141
  0
LWPOLYLINE
  5
17F
100
AcDbEntity
  8
USP-GEO
100
AcDbPolyline
 90
        2
 70
   128
 43
0.0
 10
1.694711465584475
 20
6.560678226627141
 10
1.694711465584475
 20
5.159618557632262
  0
LWPOLYLINE
  5
180
100
AcDbEntity
  8
USP-GEO
100
AcDbPolyline
 90
        2
 70
   128
 43
0.0
 10
1.657889923692366
 20
5.104386244794092
 10
1.271263733825183
 20
5.122797015740149
  0
LWPOLYLINE
  5
181
100
AcDbEntity
  8
USP-GEO
100
AcDbPolyline
 90
        2
 70
   128
 43
0.0
 10
1.657889923692366
 20
5.159618557632262
 10
1.289674504771241
 20
5.178029328578318
  0
LWPOLYLINE
  5
182
100
AcDbEntity
  8
USP-GEO
100
AcDbPolyline
 90
        2
 70
   128
 43
0.0
 10
1.749943778422647
 20
6.800018248925873
 10
1.749943778422647
 20
7.482137312477256
  0
LWPOLYLINE
  5
183
100
AcDbEntity
  8
USP-GEO
100
AcDbPolyline
 90
        2
 70
   128
 43
0.0
 10
1.694711465584475
 20
6.800018248925873
 10
1.694711465584475
 20
7.482137312477256
  0
LWPOLYLINE
  5
184
100
AcDbEntity
  8
USP-GEO
100
AcDbPolyline
 90
        2
 70
   128
 43
0.0
 10
0.0184107709460548
 20
5.141207786686205
 10
1.271263733825183
 20
5.122797015740149
  0
LWPOLYLINE
  5
185
100
AcDbEntity
  8
USP-GEO
100
AcDbPolyline
 90
        2
 70
   128
 43
0.0
 10
1.289674504771241
 20
5.178029328578318
 10
0.0736430837842264
 20
5.196440099524373
  0
LWPOLYLINE
  5
186
100
AcDbEntity
  8
USP-GEO
100
AcDbPolyline
 90
        2
 70
   128
 43
0.0
 10
1.749943778422647
 20
3.575371717724122
 10
1.694711465584475
 20
3.575371717724122
  0
LWPOLYLINE
  5
187
100
AcDbEntity
  8
USP-GEO
100
AcDbPolyline
 90
        2
 70
   128
 43
0.0
 10
1.749943778422647
 20
3.814711740022852
 10
1.694711465584475
 20
3.814711740022852
  0
LWPOLYLINE
  5
188
100
AcDbEntity
  8
USP-GEO
100
AcDbPolyline
 90
        2
 70
   128
 43
0.0
 10
1.749943778422647
 20
3.575371717724122
 10
1.749943778422647
 20
3.814711740022852
  0
LWPOLYLINE
  5
189
100
AcDbEntity
  8
USP-GEO
100
AcDbPolyline
 90
        2
 70
   128
 43
0.0
 10
1.694711465584475
 20
3.814711740022852
 10
1.694711465584475
 20
3.575371717724122
  0
LWPOLYLINE
  5
18A
100
AcDbEntity
  8
USP-GEO
100
AcDbPolyline
 90
        2
 70
   128
 43
0.0
 10
1.510603756123913
 20
3.667425572454403
 10
1.694711465584475
 20
3.667425572454403
  0
LWPOLYLINE
  5
18B
100
AcDbEntity
  8
USP-GEO
100
AcDbPolyline
 90
        5
 70
   128
 43
0.0
 10
1.694711465584475
 20
4.164516387997922
 10
1.639479152746307
 20
4.054051762321584
 10
1.584246839908139
 20
3.943587136645247
 10
1.529014527069971
 20
3.814711740022852
 10
1.510603756123913
 20
3.667425572454403
  0
LWPOLYLINE
  5
18C
100
AcDbEntity
  8
USP-GEO
100
AcDbPolyline
 90
        2
 70
   128
 43
0.0
 10
0.9389493182488699
 20
0.0
 10
0.9389493182488699
 20
0.055232312838168
  0
LWPOLYLINE
  5
18D
100
AcDbEntity
  8
USP-GEO
100
AcDbPolyline
 90
        2
 70
   128
 43
0.0
 10
0.9389493182488699
 20
0.0
 10
1.06782471487126
 20
0.0
  0
LWPOLYLINE
  5
18E
100
AcDbEntity
  8
USP-GEO
100
AcDbPolyline
 90
        2
 70
   128
 43
0.0
 10
1.06782471487126
 20
0.0
 10
1.06782471487126
 20
0.055232312838168
  0
LWPOLYLINE
  5
18F
100
AcDbEntity
  8
USP-GEO
100
AcDbPolyline
 90
        2
 70
   128
 43
0.0
 10
1.06782471487126
 20
0.055232312838168
 10
0.9389493182488699
 20
0.055232312838168
  0
LWPOLYLINE
  5
190
100
AcDbEntity
  8
USP-GEO
100
AcDbPolyline
 90
        2
 70
   128
 43
0.0
 10
1.749943778422647
 20
1.363317588555464
 10
1.694711465584475
 20
1.363317588555464
  0
LWPOLYLINE
  5
191
100
AcDbEntity
  8
USP-GEO
100
AcDbPolyline
 90
        2
 70
   128
 43
0.0
 10
1.749943778422647
 20
1.474702752779105
 10
1.694711465584475
 20
1.474702752779105
  0
LWPOLYLINE
  5
192
100
AcDbEntity
  8
USP-GEO
100
AcDbPolyline
 90
        2
 70
   128
 43
0.0
 10
1.749943778422647
 20
1.363317588555464
 10
1.749943778422647
 20
1.474702752779105
  0
LWPOLYLINE
  5
193
100
AcDbEntity
  8
USP-GEO
100
AcDbPolyline
 90
        2
 70
   128
 43
0.0
 10
1.694711465584475
 20
1.474702752779105
 10
1.694711465584475
 20
1.363317588555464
  0
LWPOLYLINE
  5
194
100
AcDbEntity
  8
USP-GEO
100
AcDbPolyline
 90
        2
 70
   128
 43
0.0
 10
1.749943778422647
 20
0.0
 10
1.694711465584475
 20
0.0
  0
LWPOLYLINE
  5
195
100
AcDbEntity
  8
USP-GEO
100
AcDbPolyline
 90
        2
 70
   128
 43
0.0
 10
1.749943778422647
 20
0.055232312838168
 10
1.694711465584475
 20
0.055232312838168
  0
LWPOLYLINE
  5
196
100
AcDbEntity
  8
USP-GEO
100
AcDbPolyline
 90
        2
 70
   128
 43
0.0
 10
1.749943778422647
 20
0.110464625676336
 10
1.694711465584475
 20
0.110464625676336
  0
LWPOLYLINE
  5
197
100
AcDbEntity
  8
USP-GEO
100
AcDbPolyline
 90
        2
 70
   128
 43
0.0
 10
1.694711465584475
 20
0.0
 10
1.694711465584475
 20
0.055232312838168
  0
LWPOLYLINE
  5
198
100
AcDbEntity
  8
USP-GEO
100
AcDbPolyline
 90
        2
 70
   128
 43
0.0
 10
1.621068381800252
 20
0.0
 10
1.621068381800252
 20
0.055232312838168
  0
LWPOLYLINE
  5
199
100
AcDbEntity
  8
USP-GEO
100
AcDbPolyline
 90
        2
 70
   128
 43
0.0
 10
1.621068381800252
 20
0.0
 10
1.694711465584475
 20
0.0
  0
LWPOLYLINE
  5
19A
100
AcDbEntity
  8
USP-GEO
100
AcDbPolyline
 90
        2
 70
   128
 43
0.0
 10
1.694711465584475
 20
0.055232312838168
 10
1.621068381800252
 20
0.055232312838168
  0
LWPOLYLINE
  5
19B
100
AcDbEntity
  8
USP-GEO
100
AcDbPolyline
 90
        2
 70
   128
 43
0.0
 10
1.749943778422647
 20
0.055232312838168
 10
1.749943778422647
 20
0.110464625676336
  0
LWPOLYLINE
  5
19C
100
AcDbEntity
  8
USP-GEO
100
AcDbPolyline
 90
        2
 70
   128
 43
0.0
 10
1.749943778422647
 20
0.0
 10
1.749943778422647
 20
0.055232312838168
  0
LWPOLYLINE
  5
19D
100
AcDbEntity
  8
USP-GEO
100
AcDbPolyline
 90
        2
 70
   128
 43
0.0
 10
1.694711465584475
 20
0.110464625676336
 10
1.694711465584475
 20
0.055232312838168
  0
LWPOLYLINE
  5
19E
100
AcDbEntity
  8
USP-GEO
100
AcDbPolyline
 90
        2
 70
   128
 43
0.0
 10
1.510603756123913
 20
0.2577507932447887
 10
1.511524294671218
 20
0.2577507932447887
  0
LWPOLYLINE
  5
19F
100
AcDbEntity
  8
USP-GEO
100
AcDbPolyline
 90
        2
 70
   128
 43
0.0
 10
1.749943778422647
 20
0.110464625676336
 10
1.749943778422647
 20
1.363317588555464
  0
LWPOLYLINE
  5
1A0
100
AcDbEntity
  8
USP-GEO
100
AcDbPolyline
 90
        2
 70
   128
 43
0.0
 10
1.694711465584475
 20
1.363317588555464
 10
1.694711465584475
 20
0.110464625676336
  0
LWPOLYLINE
  5
1A1
100
AcDbEntity
  8
USP-GEO
100
AcDbPolyline
 90
        2
 70
   128
 43
0.0
 10
1.06782471487126
 20
0.0
 10
1.621068381800252
 20
0.0
  0
LWPOLYLINE
  5
1A2
100
AcDbEntity
  8
USP-GEO
100
AcDbPolyline
 90
        2
 70
   128
 43
0.0
 10
1.06782471487126
 20
0.055232312838168
 10
1.621068381800252
 20
0.055232312838168
  0
LWPOLYLINE
  5
1A3
100
AcDbEntity
  8
USP-GEO
100
AcDbPolyline
 90
        2
 70
   128
 43
0.0
 10
1.694711465584475
 20
0.441858502705351
 10
1.308085275717296
 20
0.055232312838168
  0
LWPOLYLINE
  5
1A4
100
AcDbEntity
  8
USP-GEO
100
AcDbPolyline
 90
        2
 70
   128
 43
0.0
 10
1.749943778422647
 20
1.474702752779105
 10
1.749943778422647
 20
3.575371717724122
  0
LWPOLYLINE
  5
1A5
100
AcDbEntity
  8
USP-GEO
100
AcDbPolyline
 90
        2
 70
   128
 43
0.0
 10
1.694711465584475
 20
1.474702752779105
 10
1.694711465584475
 20
3.575371717724122
  0
LWPOLYLINE
  5
1A6
100
AcDbEntity
  8
USP-GEO
100
AcDbPolyline
 90
        2
 70
   128
 43
0.0
 10
1.510603756123913
 20
0.2577507932447887
 10
1.510603756123913
 20
3.667425572454403
  0
LWPOLYLINE
  5
1A7
100
AcDbEntity
  8
USP-GEO
100
AcDbPolyline
 90
        2
 70
   128
 43
0.0
 10
1.749943778422647
 20
3.814711740022852
 10
1.749943778422647
 20
5.067564702901981
  0
LWPOLYLINE
  5
1A8
100
AcDbEntity
  8
USP-GEO
100
AcDbPolyline
 90
        2
 70
   128
 43
0.0
 10
1.694711465584475
 20
3.814711740022852
 10
1.694711465584475
 20
5.067564702901981
  0
LWPOLYLINE
  5
1A9
100
AcDbEntity
  8
USP-GEO
100
AcDbPolyline
 90
        2
 70
   128
 43
0.0
 10
1.749943778422647
 20
8.863865671978778
 10
1.749943778422647
 20
9.619627819314386
  0
LWPOLYLINE
  5
1AA
100
AcDbEntity
  8
USP-GEO
100
AcDbPolyline
 90
        2
 70
   128
 43
0.0
 10
1.694711465584475
 20
8.863865671978778
 10
1.694711465584475
 20
9.619627819314386
  0
ENDBLK
  5
1AC
100
AcDbEntity
  8
0
100
AcDbBlockEnd
  0
ENDSEC
  0
SECTION
  2
ENTITIES
  0
INSERT
  5
3
100
AcDbEntity
  8
USP
100
AcDbBlockReference
  2
HLPTA75PR_T
 10
-0.0072850461125169
 20
16.71402732503628
 30
0.0
  0
INSERT
  5
96
100
AcDbEntity
  8
USP
100
AcDbBlockReference
  2
HLPTA75PR_F
 10
0.2320549761862143
 20
1.935092049344664
 30
0.0
  0
INSERT
  5
159
100
AcDbEntity
  8
USP
100
AcDbBlockReference
  2
HLPTA75PR_S
 10
11.08244283324446
 20
1.935092049344664
 30
0.0
  0
ENDSEC
  0
SECTION
  2
OBJECTS
  0
DICTIONARY
  5
1C4
102
{ACAD_XDICTIONARY
360
1C5
102
}
100
AcDbDictionary
  3
ACAD_GROUP
350
1C2
  3
ACAD_MLINESTYLE
350
1C3
  0
DICTIONARY
  5
E
100
AcDbDictionary
280
     1
  3
ACAD_XREC_ROUNDTRIP
360
F
  0
DICTIONARY
  5
9
100
AcDbDictionary
280
     1
  3
ACAD_XREC_ROUNDTRIP
360
A
  0
DICTIONARY
  5
1C9
100
AcDbDictionary
280
     1
  3
ACAD_XREC_ROUNDTRIP
360
1CA
  0
DICTIONARY
  5
1AD
100
AcDbDictionary
280
     1
  3
ACAD_LAYOUTSELFREF
360
1AE
  0
DICTIONARY
  5
1B2
100
AcDbDictionary
280
     1
  3
ACAD_LAYOUTSELFREF
360
1B3
  0
DICTIONARY
  5
1C5
100
AcDbDictionary
280
     1
  3
ACAD_XREC_ROUNDTRIP
360
1C6
  0
DICTIONARY
  5
1C2
102
{ACAD_REACTORS
330
1C4
102
}
100
AcDbDictionary
  0
DICTIONARY
  5
1C3
102
{ACAD_REACTORS
330
1C4
102
}
100
AcDbDictionary
  3
STANDARD
350
1C7
  0
XRECORD
  5
F
102
{ACAD_REACTORS
330
E
102
}
100
AcDbXrecord
102
EXTNAMES
  1
USP-GEO
  2
USP-Geo
  0
XRECORD
  5
A
102
{ACAD_REACTORS
330
9
102
}
100
AcDbXrecord
102
EXTNAMES
  1
USP-TXT
  2
USP-Txt
  0
XRECORD
  5
1CA
102
{ACAD_REACTORS
330
1C9
102
}
100
AcDbXrecord
102
ACADR14ROUNDTRIP
1000
DSTYLE
1002
{
1070
   276
 70
     2
1070
   277
 70
     5
1002
}
  0
XRECORD
  5
1AE
102
{ACAD_REACTORS
330
1AD
102
}
100
AcDbXrecord
340
2
  0
XRECORD
  5
1B3
102
{ACAD_REACTORS
330
1B2
102
}
100
AcDbXrecord
340
1B1
  0
XRECORD
  5
1C6
102
{ACAD_REACTORS
330
1C5
102
}
100
AcDbXrecord
102
EXTNAMES
  1
ACDBVARIABLEDICTIONARY
  2
AcDbVariableDictionary
  0
MLINESTYLE
  5
1C7
102
{ACAD_REACTORS
330
1C3
102
}
100
AcDbMlineStyle
  2
STANDARD
 70
     0
  3

 62
     0
 51
90.0
 52
90.0
 71
     2
 49
0.5
 62
   256
  6
BYLAYER
 49
-0.5
 62
   256
  6
BYLAYER
  0
ENDSEC
  0
EOF
