  0
SECTION
  2
HEADER
  9
$ACADVER
  1
AC1014
  9
$ACADMAINTVER
 70
     9
  9
$DWGCODEPAGE
  3
ANSI_1252
  9
$INSBASE
 10
0.0
 20
0.0
 30
0.0
  9
$EXTMIN
 10
0.0530882358903888
 20
0.0025889175645943
 30
0.0
  9
$EXTMAX
 10
10.19951012529715
 20
13.51242345705878
 30
0.0
  9
$LIMMIN
 10
0.0
 20
0.0
  9
$LIMMAX
 10
12.0
 20
9.0
  9
$ORTHOMODE
 70
     1
  9
$REGENMODE
 70
     1
  9
$FILLMODE
 70
     1
  9
$QTEXTMODE
 70
     0
  9
$MIRRTEXT
 70
     0
  9
$DRAGMODE
 70
     2
  9
$LTSCALE
 40
1.5
  9
$OSMODE
 70
     0
  9
$ATTMODE
 70
     1
  9
$TEXTSIZE
 40
0.75
  9
$TRACEWID
 40
0.05
  9
$TEXTSTYLE
  7
STANDARD
  9
$CLAYER
  8
USP
  9
$CELTYPE
  6
BYLAYER
  9
$CECOLOR
 62
   256
  9
$CELTSCALE
 40
1.0
  9
$DELOBJ
 70
     1
  9
$DISPSILH
 70
     1
  9
$DIMSCALE
 40
7.0
  9
$DIMASZ
 40
0.125
  9
$DIMEXO
 40
0.0625
  9
$DIMDLI
 40
0.37890625
  9
$DIMRND
 40
0.0
  9
$DIMDLE
 40
0.0
  9
$DIMEXE
 40
0.09375
  9
$DIMTP
 40
0.0
  9
$DIMTM
 40
0.0
  9
$DIMTXT
 40
0.109375
  9
$DIMCEN
 40
0.0
  9
$DIMTSZ
 40
0.0
  9
$DIMTOL
 70
     0
  9
$DIMLIM
 70
     0
  9
$DIMTIH
 70
     1
  9
$DIMTOH
 70
     1
  9
$DIMSE1
 70
     0
  9
$DIMSE2
 70
     0
  9
$DIMTAD
 70
     0
  9
$DIMZIN
 70
     8
  9
$DIMBLK
  1

  9
$DIMASO
 70
     1
  9
$DIMSHO
 70
     1
  9
$DIMPOST
  1

  9
$DIMAPOST
  1

  9
$DIMALT
 70
     0
  9
$DIMALTD
 70
     2
  9
$DIMALTF
 40
25.4
  9
$DIMLFAC
 40
1.0
  9
$DIMTOFL
 70
     0
  9
$DIMTVP
 40
0.0
  9
$DIMTIX
 70
     0
  9
$DIMSOXD
 70
     0
  9
$DIMSAH
 70
     0
  9
$DIMBLK1
  1

  9
$DIMBLK2
  1

  9
$DIMSTYLE
  2
STANDARD
  9
$DIMCLRD
 70
     0
  9
$DIMCLRE
 70
     0
  9
$DIMCLRT
 70
   256
  9
$DIMTFAC
 40
1.0
  9
$DIMGAP
 40
0.08984375
  9
$DIMJUST
 70
     0
  9
$DIMSD1
 70
     0
  9
$DIMSD2
 70
     0
  9
$DIMTOLJ
 70
     1
  9
$DIMTZIN
 70
     0
  9
$DIMALTZ
 70
     0
  9
$DIMALTTZ
 70
     0
  9
$DIMFIT
 70
     3
  9
$DIMUPT
 70
     1
  9
$DIMUNIT
 70
     7
  9
$DIMDEC
 70
     4
  9
$DIMTDEC
 70
     4
  9
$DIMALTU
 70
     2
  9
$DIMALTTD
 70
     2
  9
$DIMTXSTY
  7
STANDARD
  9
$DIMAUNIT
 70
     0
  9
$LUNITS
 70
     5
  9
$LUPREC
 70
     6
  9
$SKETCHINC
 40
0.1
  9
$FILLETRAD
 40
0.0
  9
$AUNITS
 70
     0
  9
$AUPREC
 70
     1
  9
$MENU
  1
CUSTOM
  9
$ELEVATION
 40
0.0
  9
$PELEVATION
 40
0.0
  9
$THICKNESS
 40
0.0
  9
$LIMCHECK
 70
     0
  9
$BLIPMODE
 70
     0
  9
$CHAMFERA
 40
0.0
  9
$CHAMFERB
 40
0.0
  9
$CHAMFERC
 40
0.0
  9
$CHAMFERD
 40
0.0
  9
$SKPOLY
 70
     0
  9
$TDCREATE
 40
2451263.663231366
  9
$TDUPDATE
 40
2452759.745365486
  9
$TDINDWG
 40
0.4684001273
  9
$TDUSRTIMER
 40
0.4684001273
  9
$USRTIMER
 70
     1
  9
$ANGBASE
 50
0.0
  9
$ANGDIR
 70
     0
  9
$PDMODE
 70
     0
  9
$PDSIZE
 40
0.0
  9
$PLINEWID
 40
0.0
  9
$COORDS
 70
     2
  9
$SPLFRAME
 70
     0
  9
$SPLINETYPE
 70
     6
  9
$SPLINESEGS
 70
     8
  9
$ATTDIA
 70
     0
  9
$ATTREQ
 70
     0
  9
$HANDLING
 70
     1
  9
$HANDSEED
  5
2B8
  9
$SURFTAB1
 70
     6
  9
$SURFTAB2
 70
     6
  9
$SURFTYPE
 70
     6
  9
$SURFU
 70
     6
  9
$SURFV
 70
     6
  9
$UCSNAME
  2

  9
$UCSORG
 10
0.0
 20
0.0
 30
0.0
  9
$UCSXDIR
 10
1.0
 20
0.0
 30
0.0
  9
$UCSYDIR
 10
0.0
 20
1.0
 30
0.0
  9
$PUCSNAME
  2

  9
$PUCSORG
 10
0.0
 20
0.0
 30
0.0
  9
$PUCSXDIR
 10
1.0
 20
0.0
 30
0.0
  9
$PUCSYDIR
 10
0.0
 20
1.0
 30
0.0
  9
$USERI1
 70
     0
  9
$USERI2
 70
     0
  9
$USERI3
 70
     0
  9
$USERI4
 70
     0
  9
$USERI5
 70
     0
  9
$USERR1
 40
0.0
  9
$USERR2
 40
0.0
  9
$USERR3
 40
0.0
  9
$USERR4
 40
0.0
  9
$USERR5
 40
0.0
  9
$WORLDVIEW
 70
     1
  9
$SHADEDGE
 70
     3
  9
$SHADEDIF
 70
    70
  9
$TILEMODE
 70
     1
  9
$MAXACTVP
 70
    16
  9
$PINSBASE
 10
0.0
 20
0.0
 30
0.0
  9
$PLIMCHECK
 70
     0
  9
$PEXTMIN
 10
1.000000000000000E+20
 20
1.000000000000000E+20
 30
1.000000000000000E+20
  9
$PEXTMAX
 10
-1.000000000000000E+20
 20
-1.000000000000000E+20
 30
-1.000000000000000E+20
  9
$PLIMMIN
 10
0.0
 20
0.0
  9
$PLIMMAX
 10
12.0
 20
9.0
  9
$UNITMODE
 70
     0
  9
$VISRETAIN
 70
     0
  9
$PLINEGEN
 70
     0
  9
$PSLTSCALE
 70
     0
  9
$TREEDEPTH
 70
  3020
  9
$PICKSTYLE
 70
     1
  9
$CMLSTYLE
  2
STANDARD
  9
$CMLJUST
 70
     0
  9
$CMLSCALE
 40
1.0
  9
$PROXYGRAPHICS
 70
     1
  9
$MEASUREMENT
 70
     0
  0
ENDSEC
  0
SECTION
  2
CLASSES
  0
CLASS
  1
ACDBDICTIONARYWDFLT
  2
AcDbDictionaryWithDefault
  3
AutoCAD 2000
 90
        0
280
     1
281
     0
  0
CLASS
  1
ACDBPLACEHOLDER
  2
AcDbPlaceHolder
  3
AutoCAD 2000
 90
        0
280
     1
281
     0
  0
CLASS
  1
LAYOUT
  2
AcDbLayout
  3
AutoCAD 2000
 90
        0
280
     1
281
     0
  0
CLASS
  1
DICTIONARYVAR
  2
AcDbDictionaryVar
  3
"AutoCAD"
 90
        0
280
     1
281
     0
  0
CLASS
  1
LONG_TRANSACTION
  2
AcDbLongTransaction
  3
AutoCAD 2000
 90
        0
280
     1
281
     0
  0
CLASS
  1
LWPOLYLINE
  2
AcDbPolyline
  3
"AutoCAD"
 90
        0
280
     1
281
     1
  0
CLASS
  1
HATCH
  2
AcDbHatch
  3
"ACAD_SEDONA"
 90
        0
280
     1
281
     1
  0
CLASS
  1
XRECORD
  2
AcDbXrecord
  3
"<Built In>"
 90
        0
280
     0
281
     0
  0
ENDSEC
  0
SECTION
  2
TABLES
  0
TABLE
  2
VPORT
  5
2A2
100
AcDbSymbolTable
 70
     1
  0
VPORT
  5
2B4
100
AcDbSymbolTableRecord
100
AcDbViewportTableRecord
  2
*ACTIVE
 70
     0
 10
0.0
 20
0.0
 11
1.0
 21
1.0
 12
-12.78878321246799
 22
17.30752327875545
 13
0.0
 23
0.0
 14
1.0
 24
1.0
 15
0.0
 25
0.0
 16
0.0
 26
0.0
 36
1.0
 17
23.09603071721725
 27
-10.27010416511325
 37
-10.44050274849355
 40
14.06966039215519
 41
1.457627118644067
 42
50.0
 43
10.55307667737539
 44
10.55307667737539
 50
0.0
 51
0.0
 71
     0
 72
   100
 73
     1
 74
     1
 75
     0
 76
     0
 77
     0
 78
     0
  0
ENDTAB
  0
TABLE
  2
LTYPE
  5
29E
100
AcDbSymbolTable
 70
     1
  0
LTYPE
  5
29F
100
AcDbSymbolTableRecord
100
AcDbLinetypeTableRecord
  2
BYBLOCK
 70
     0
  3

 72
    65
 73
     0
 40
0.0
  0
LTYPE
  5
6
100
AcDbSymbolTableRecord
100
AcDbLinetypeTableRecord
  2
BYLAYER
 70
     0
  3

 72
    65
 73
     0
 40
0.0
  0
LTYPE
  5
5
100
AcDbSymbolTableRecord
100
AcDbLinetypeTableRecord
  2
CONTINUOUS
 70
     0
  3
Solid line
 72
    65
 73
     0
 40
0.0
  0
ENDTAB
  0
TABLE
  2
LAYER
  5
29C
100
AcDbSymbolTable
 70
     5
  0
LAYER
  5
DF
100
AcDbSymbolTableRecord
100
AcDbLayerTableRecord
  2
0
 70
     0
 62
     7
  6
CONTINUOUS
  0
LAYER
  5
D
100
AcDbSymbolTableRecord
100
AcDbLayerTableRecord
  2
USP-GEO
 70
     0
 62
     7
  6
CONTINUOUS
  0
LAYER
  5
11
100
AcDbSymbolTableRecord
100
AcDbLayerTableRecord
  2
USP-TXT
 70
     0
 62
     7
  6
CONTINUOUS
  0
LAYER
  5
9
102
{ACAD_XDICTIONARY
360
A
102
}
100
AcDbSymbolTableRecord
100
AcDbLayerTableRecord
  2
USP-HID
 70
     0
 62
     7
  6
CONTINUOUS
  0
LAYER
  5
4
100
AcDbSymbolTableRecord
100
AcDbLayerTableRecord
  2
USP
 70
     0
 62
     7
  6
CONTINUOUS
  0
ENDTAB
  0
TABLE
  2
STYLE
  5
29D
100
AcDbSymbolTable
 70
     1
  0
STYLE
  5
12
100
AcDbSymbolTableRecord
100
AcDbTextStyleTableRecord
  2
STANDARD
 70
     0
 40
0.0
 41
1.0
 50
0.0
 71
     0
 42
0.75
  3
txt
  4

  0
ENDTAB
  0
TABLE
  2
VIEW
  5
2A0
100
AcDbSymbolTable
 70
     0
  0
ENDTAB
  0
TABLE
  2
UCS
  5
2A1
100
AcDbSymbolTable
 70
     0
  0
ENDTAB
  0
TABLE
  2
APPID
  5
2A4
100
AcDbSymbolTable
 70
     1
  0
APPID
  5
B
100
AcDbSymbolTableRecord
100
AcDbRegAppTableRecord
  2
ACAD
 70
     0
  0
ENDTAB
  0
TABLE
  2
DIMSTYLE
  5
2A5
100
AcDbSymbolTable
 70
     1
  0
DIMSTYLE
105
2AC
100
AcDbSymbolTableRecord
100
AcDbDimStyleTableRecord
  2
STANDARD
 70
     0
  3

  4

  5

  6

  7

 40
1.0
 41
0.18
 42
0.0625
 43
0.38
 44
0.18
 45
0.0
 46
0.0
 47
0.0
 48
0.0
140
0.18
141
0.09
142
0.0
143
25.4
144
1.0
145
0.0
146
1.0
147
0.09
 71
     0
 72
     0
 73
     1
 74
     1
 75
     0
 76
     0
 77
     0
 78
     0
170
     0
171
     2
172
     0
173
     0
174
     0
175
     0
176
     0
177
     0
178
     0
270
     2
271
     4
272
     4
273
     2
274
     2
340
12
275
     0
280
     0
281
     0
282
     0
283
     1
284
     0
285
     0
286
     0
287
     3
288
     0
  0
ENDTAB
  0
TABLE
  2
BLOCK_RECORD
  5
1
100
AcDbSymbolTable
 70
     3
  0
BLOCK_RECORD
  5
2
102
{ACAD_XDICTIONARY
360
295
102
}
100
AcDbSymbolTableRecord
100
AcDbBlockTableRecord
  2
*MODEL_SPACE
  0
BLOCK_RECORD
  5
298
102
{ACAD_XDICTIONARY
360
299
102
}
100
AcDbSymbolTableRecord
100
AcDbBlockTableRecord
  2
*PAPER_SPACE
  0
BLOCK_RECORD
  5
7
100
AcDbSymbolTableRecord
100
AcDbBlockTableRecord
  2
JL210_S
  0
BLOCK_RECORD
  5
E2
100
AcDbSymbolTableRecord
100
AcDbBlockTableRecord
  2
JL210_F
  0
BLOCK_RECORD
  5
221
100
AcDbSymbolTableRecord
100
AcDbBlockTableRecord
  2
JL210_T
  0
ENDTAB
  0
ENDSEC
  0
SECTION
  2
BLOCKS
  0
BLOCK
  5
296
100
AcDbEntity
  8
0
100
AcDbBlockBegin
  2
*MODEL_SPACE
 70
     0
 10
0.0
 20
0.0
 30
0.0
  3
*MODEL_SPACE
  1

  0
ENDBLK
  5
297
100
AcDbEntity
  8
0
100
AcDbBlockEnd
  0
BLOCK
  5
29A
100
AcDbEntity
 67
     1
  8
0
100
AcDbBlockBegin
  2
*PAPER_SPACE
 70
     0
 10
0.0
 20
0.0
 30
0.0
  3
*PAPER_SPACE
  1

  0
ENDBLK
  5
29B
100
AcDbEntity
 67
     1
  8
0
100
AcDbBlockEnd
  0
BLOCK
  5
DE
100
AcDbEntity
  8
0
100
AcDbBlockBegin
  2
JL210_S
 70
     0
 10
0.0
 20
0.0
 30
0.0
  3
JL210_S
  1

  0
LINE
  5
8
100
AcDbEntity
  8
USP-HID
100
AcDbLine
 10
0.616999999999893
 20
6.128639719431951
 30
0.0
 11
0.6169999999998974
 21
5.853232484543937
 31
0.0
  0
ARC
  5
C
100
AcDbEntity
  8
USP-GEO
100
AcDbCircle
 10
0.8169999999998882
 20
6.128639719431951
 30
0.0
 40
0.2
100
AcDbArc
 50
180.0000000000009
 51
225.0000000000012
  0
LINE
  5
E
100
AcDbEntity
  8
USP-GEO
100
AcDbLine
 10
0.0399999999998877
 20
6.128639719431937
 30
0.0
 11
0.0399999999998906
 21
5.987218363194627
 31
0.0
  0
LINE
  5
F
100
AcDbEntity
  8
USP-GEO
100
AcDbLine
 10
-0.0000000000001115
 20
6.128639719431937
 30
0.0
 11
-0.0000000000001086
 21
5.987218363194627
 31
0.0
  0
TEXT
  5
10
100
AcDbEntity
  8
USP-TXT
100
AcDbText
 10
-1.087333333333329
 20
-0.6952514796795981
 30
0.0
 40
0.25
  1
JL210 - SIDE VIEW
 72
     1
 11
0.9335000000000039
 21
-0.6952514796795981
 31
0.0
100
AcDbText
  0
LINE
  5
13
100
AcDbEntity
  8
USP-HID
100
AcDbLine
 10
0.4670000000000072
 20
0.039999999999976
 30
0.0
 11
1.767000000000007
 21
0.0400000000000008
 31
0.0
  0
LINE
  5
14
100
AcDbEntity
  8
USP-GEO
100
AcDbLine
 10
0.467000000000007
 20
-0.0000000000000249
 30
0.0
 11
1.767000000000007
 21
0.0
 31
0.0
  0
LINE
  5
15
100
AcDbEntity
  8
USP-GEO
100
AcDbLine
 10
1.796289321881332
 20
0.1107106781186786
 30
0.0
 11
0.6755786437626739
 21
1.231421356237295
 31
0.0
  0
LINE
  5
16
100
AcDbEntity
  8
USP-GEO
100
AcDbLine
 10
0.8705147457506425
 20
1.887717738793298
 30
0.0
 11
0.6755786437626698
 21
1.692781636805318
 31
0.0
  0
ARC
  5
17
100
AcDbEntity
  8
USP-GEO
100
AcDbCircle
 10
0.8169999999999699
 20
1.776767515456029
 30
0.0
 40
0.2
100
AcDbArc
 50
135.0000000000006
 51
180.0000000000011
  0
LINE
  5
18
100
AcDbEntity
  8
USP-GEO
100
AcDbLine
 10
0.0399999999999679
 20
1.918188871693324
 30
0.0
 11
0.0399999999999703
 21
1.776767515456008
 31
0.0
  0
LINE
  5
19
100
AcDbEntity
  8
USP-GEO
100
AcDbLine
 10
-0.0000000000000322
 20
1.918188871693324
 30
0.0
 11
-0.0000000000000298
 21
1.776767515456008
 31
0.0
  0
LINE
  5
1A
100
AcDbEntity
  8
USP-GEO
100
AcDbLine
 10
0.0400000000000023
 20
0.3669999999999738
 30
0.0
 11
0.2962893218813518
 21
0.1107106781186322
 31
0.0
  0
LINE
  5
1B
100
AcDbEntity
  8
USP-GEO
100
AcDbLine
 10
0.0399999999999816
 20
1.23142135623728
 30
0.0
 11
0.04
 21
0.3669999999999742
 31
0.0
  0
LINE
  5
1C
100
AcDbEntity
  8
USP-GEO
100
AcDbLine
 10
0.0
 20
0.3669999999999722
 30
0.0
 11
-0.0000000000000184
 21
1.231421356237281
 31
0.0
  0
LINE
  5
1D
100
AcDbEntity
  8
USP-GEO
100
AcDbLine
 10
0.0000000000000011
 20
0.3669999999999718
 30
0.0
 11
0.0400000000000009
 21
0.366999999999976
 31
0.0
  0
LINE
  5
1E
100
AcDbEntity
  8
USP-GEO
100
AcDbLine
 10
0.0399999999999783
 20
1.372842712474593
 30
0.0
 11
0.0399999999999812
 21
1.231421356237283
 31
0.0
  0
LINE
  5
1F
100
AcDbEntity
  8
USP-GEO
100
AcDbLine
 10
-0.0000000000000218
 20
1.372842712474593
 30
0.0
 11
-0.0000000000000189
 21
1.231421356237283
 31
0.0
  0
LINE
  5
20
100
AcDbEntity
  8
USP-GEO
100
AcDbLine
 10
0.0399999999999718
 20
1.776767515456008
 30
0.0
 11
0.0399999999999796
 21
1.372842712474593
 31
0.0
  0
LINE
  5
21
100
AcDbEntity
  8
USP-GEO
100
AcDbLine
 10
-0.0000000000000204
 20
1.372842712474593
 30
0.0
 11
-0.0000000000000282
 21
1.776767515456005
 31
0.0
  0
LINE
  5
22
100
AcDbEntity
  8
USP-HID
100
AcDbLine
 10
0.0399999999999805
 20
1.376999999999968
 30
0.0
 11
-0.0000000000000198
 21
1.376999999999967
 31
0.0
  0
LINE
  5
23
100
AcDbEntity
  8
USP-HID
100
AcDbLine
 10
0.0399999999999763
 20
1.540999999999968
 30
0.0
 11
-0.000000000000024
 21
1.540999999999967
 31
0.0
  0
LINE
  5
24
100
AcDbEntity
  8
USP-GEO
100
AcDbLine
 10
0.4670000000000072
 20
-0.0000000000000265
 30
0.0
 11
0.3670000000000073
 21
-0.0000000000000284
 31
0.0
  0
LINE
  5
25
100
AcDbEntity
  8
USP-GEO
100
AcDbLine
 10
0.3670000000000064
 20
0.0399999999999778
 30
0.0
 11
0.4670000000000063
 21
0.0399999999999797
 31
0.0
  0
ARC
  5
26
100
AcDbEntity
  8
USP-GEO
100
AcDbCircle
 10
0.3670000000000062
 20
0.0399999999999778
 30
0.0
 40
0.1
100
AcDbArc
 50
0.0000000000010814
 51
135.0000000000002
  0
LINE
  5
27
100
AcDbEntity
  8
USP-GEO
100
AcDbLine
 10
0.3670000000000062
 20
0.0399999999999778
 30
0.0
 11
0.3670000000000069
 21
-0.000000000000022
 31
0.0
  0
LINE
  5
28
100
AcDbEntity
  8
USP-GEO
100
AcDbLine
 10
0.467000000000007
 20
0.039999999999976
 30
0.0
 11
0.4670000000000077
 21
-0.0000000000000213
 31
0.0
  0
ARC
  5
29
100
AcDbEntity
  8
USP-GEO
100
AcDbCircle
 10
0.8169999999999806
 20
1.551360280568012
 30
0.0
 40
0.2
100
AcDbArc
 50
135.0000000000006
 51
180.0000000000011
  0
ARC
  5
2A
100
AcDbEntity
  8
USP-GEO
100
AcDbCircle
 10
0.8169999999999806
 20
1.372842712474607
 30
0.0
 40
0.2
100
AcDbArc
 50
180.0000000000011
 51
225.000000000001
  0
LINE
  5
2B
100
AcDbEntity
  8
USP-GEO
100
AcDbLine
 10
0.6169999999999796
 20
1.3728427124746
 30
0.0
 11
0.6169999999999718
 21
1.776767515456022
 31
0.0
  0
LINE
  5
2C
100
AcDbEntity
  8
USP-HID
100
AcDbLine
 10
0.8705147457505951
 20
3.942875026318668
 30
0.0
 11
0.6755786437626217
 21
4.137811128306633
 31
0.0
  0
CIRCLE
  5
2D
100
AcDbEntity
  8
USP-GEO
100
AcDbCircle
 10
0.6386999521436465
 20
4.008999999999979
 30
0.0
 40
0.082
  0
LINE
  5
2E
100
AcDbEntity
  8
USP-GEO
100
AcDbLine
 10
0.9290933895132775
 20
3.941546329918587
 30
0.0
 11
0.9290933895132882
 21
4.075860904969339
 31
0.0
  0
LINE
  5
2F
100
AcDbEntity
  8
USP-GEO
100
AcDbLine
 10
0.0399999999999274
 20
4.075860904969346
 30
0.0
 11
0.0399999999999299
 21
3.941546329918594
 31
0.0
  0
LINE
  5
30
100
AcDbEntity
  8
USP-GEO
100
AcDbLine
 10
-0.0000000000000711
 20
3.941546329918594
 30
0.0
 11
-0.0000000000000735
 21
4.075860904969346
 31
0.0
  0
LINE
  5
31
100
AcDbEntity
  8
USP-GEO
100
AcDbLine
 10
0.0399999999999381
 20
3.463767515456005
 30
0.0
 11
0.0399999999999494
 21
2.866639719431937
 31
0.0
  0
LINE
  5
32
100
AcDbEntity
  8
USP-GEO
100
AcDbLine
 10
-0.0000000000000497
 20
2.866639719431937
 30
0.0
 11
-0.0000000000000611
 21
3.463767515456007
 31
0.0
  0
LINE
  5
33
100
AcDbEntity
  8
USP-GEO
100
AcDbLine
 10
0.0399999999999594
 20
2.388860904969341
 30
0.0
 11
0.0399999999999619
 21
2.254546329918589
 31
0.0
  0
LINE
  5
34
100
AcDbEntity
  8
USP-GEO
100
AcDbLine
 10
-0.0000000000000382
 20
2.254546329918589
 30
0.0
 11
-0.0000000000000406
 21
2.388860904969341
 31
0.0
  0
LINE
  5
35
100
AcDbEntity
  8
USP-GEO
100
AcDbLine
 10
0.0399999999999654
 20
2.113124973681284
 30
0.0
 11
0.0399999999999687
 21
1.918188871693324
 31
0.0
  0
LINE
  5
36
100
AcDbEntity
  8
USP-GEO
100
AcDbLine
 10
-0.0000000000000355
 20
2.113124973681285
 30
0.0
 11
-0.0000000000000322
 21
1.918188871693325
 31
0.0
  0
LINE
  5
37
100
AcDbEntity
  8
USP-GEO
100
AcDbLine
 10
0.0399999999999623
 20
2.254546329918596
 30
0.0
 11
0.0399999999999647
 21
2.113124973681284
 31
0.0
  0
LINE
  5
38
100
AcDbEntity
  8
USP-GEO
100
AcDbLine
 10
-0.0000000000000362
 20
2.113124973681278
 30
0.0
 11
-0.0000000000000386
 21
2.254546329918589
 31
0.0
  0
LINE
  5
39
100
AcDbEntity
  8
USP-GEO
100
AcDbLine
 10
0.0399999999999541
 20
2.725218363194626
 30
0.0
 11
0.0399999999999583
 21
2.530282261206657
 31
0.0
  0
LINE
  5
3A
100
AcDbEntity
  8
USP-GEO
100
AcDbLine
 10
-0.0000000000000426
 20
2.530282261206657
 30
0.0
 11
-0.0000000000000469
 21
2.725218363194626
 31
0.0
  0
LINE
  5
3B
100
AcDbEntity
  8
USP-HID
100
AcDbLine
 10
0.0399999999999625
 20
2.595999999999969
 30
0.0
 11
-0.0000000000000364
 21
2.595999999999968
 31
0.0
  0
LINE
  5
3C
100
AcDbEntity
  8
USP-GEO
100
AcDbLine
 10
0.0399999999999567
 20
2.530282261206658
 30
0.0
 11
0.0399999999999596
 21
2.388860904969341
 31
0.0
  0
LINE
  5
3D
100
AcDbEntity
  8
USP-GEO
100
AcDbLine
 10
-0.0000000000000404
 20
2.388860904969341
 30
0.0
 11
-0.0000000000000433
 21
2.530282261206658
 31
0.0
  0
LINE
  5
3E
100
AcDbEntity
  8
USP-HID
100
AcDbLine
 10
0.0399999999999539
 20
2.751999999999968
 30
0.0
 11
-0.0000000000000455
 21
2.751999999999967
 31
0.0
  0
LINE
  5
3F
100
AcDbEntity
  8
USP-HID
100
AcDbLine
 10
0.0399999999999601
 20
2.759999999999969
 30
0.0
 11
-0.0000000000000406
 21
2.759999999999968
 31
0.0
  0
LINE
  5
40
100
AcDbEntity
  8
USP-GEO
100
AcDbLine
 10
0.0399999999999499
 20
2.866639719431937
 30
0.0
 11
0.0399999999999528
 21
2.725218363194626
 31
0.0
  0
LINE
  5
41
100
AcDbEntity
  8
USP-GEO
100
AcDbLine
 10
-0.0000000000000502
 20
2.866639719431937
 30
0.0
 11
-0.0000000000000473
 21
2.725218363194626
 31
0.0
  0
LINE
  5
42
100
AcDbEntity
  8
USP-HID
100
AcDbLine
 10
0.0399999999999496
 20
2.915999999999968
 30
0.0
 11
-0.0000000000000497
 21
2.915999999999967
 31
0.0
  0
LINE
  5
43
100
AcDbEntity
  8
USP-GEO
100
AcDbLine
 10
0.0399999999999334
 20
3.80012497368129
 30
0.0
 11
0.0399999999999368
 21
3.605188871693329
 31
0.0
  0
LINE
  5
44
100
AcDbEntity
  8
USP-GEO
100
AcDbLine
 10
-0.0000000000000684
 20
3.80012497368129
 30
0.0
 11
-0.0000000000000651
 21
3.605188871693329
 31
0.0
  0
LINE
  5
45
100
AcDbEntity
  8
USP-GEO
100
AcDbLine
 10
0.0399999999999359
 20
3.605188871693329
 30
0.0
 11
0.0399999999999383
 21
3.463767515456012
 31
0.0
  0
LINE
  5
46
100
AcDbEntity
  8
USP-GEO
100
AcDbLine
 10
-0.0000000000000642
 20
3.605188871693328
 30
0.0
 11
-0.0000000000000617
 21
3.463767515456012
 31
0.0
  0
LINE
  5
47
100
AcDbEntity
  8
USP-GEO
100
AcDbLine
 10
0.0399999999999303
 20
3.941546329918594
 30
0.0
 11
0.0399999999999328
 21
3.800124973681282
 31
0.0
  0
LINE
  5
48
100
AcDbEntity
  8
USP-GEO
100
AcDbLine
 10
-0.0000000000000682
 20
3.800124973681282
 30
0.0
 11
-0.0000000000000706
 21
3.941546329918594
 31
0.0
  0
LINE
  5
49
100
AcDbEntity
  8
USP-GEO
100
AcDbLine
 10
0.6169999999999521
 20
2.866639719431951
 30
0.0
 11
0.6169999999999407
 21
3.463767515456019
 31
0.0
  0
CIRCLE
  5
4A
100
AcDbEntity
  8
USP-HID
100
AcDbCircle
 10
0.6386999521436856
 20
2.095999999999982
 30
0.0
 40
0.082
  0
ARC
  5
4B
100
AcDbEntity
  8
USP-HID
100
AcDbCircle
 10
0.8169999999999593
 20
2.641232484543941
 30
0.0
 40
0.2
100
AcDbArc
 50
180.0000000000011
 51
225.0000000000012
  0
CIRCLE
  5
4C
100
AcDbEntity
  8
USP-GEO
100
AcDbCircle
 10
0.6386999521436776
 20
2.321999999999981
 30
0.0
 40
0.082
  0
ARC
  5
4D
100
AcDbEntity
  8
USP-GEO
100
AcDbCircle
 10
0.8169999999999513
 20
2.866639719431958
 30
0.0
 40
0.2
100
AcDbArc
 50
180.0000000000011
 51
225.0000000000016
  0
LINE
  5
4E
100
AcDbEntity
  8
USP-HID
100
AcDbLine
 10
0.6169999999999521
 20
2.866639719431951
 30
0.0
 11
0.6169999999999563
 21
2.641232484543941
 31
0.0
  0
LINE
  5
4F
100
AcDbEntity
  8
USP-HID
100
AcDbLine
 10
0.8705147457506271
 20
2.304875026318662
 30
0.0
 11
0.6755786437626526
 21
2.499811128306628
 31
0.0
  0
LINE
  5
50
100
AcDbEntity
  8
USP-GEO
100
AcDbLine
 10
0.9290933895133104
 20
2.254546329918589
 30
0.0
 11
0.929093389513321
 21
2.388860904969341
 31
0.0
  0
ARC
  5
51
100
AcDbEntity
  8
USP-HID
100
AcDbCircle
 10
0.7290933895133281
 20
2.163453670081359
 30
0.0
 40
0.2
100
AcDbArc
 50
13.1635611673675
 51
45.00000000000052
  0
ARC
  5
52
100
AcDbEntity
  8
USP-GEO
100
AcDbCircle
 10
0.7290933895133307
 20
2.029139095030608
 30
0.0
 40
0.2
100
AcDbArc
 50
315.0000000000011
 51
0.000000000001145
  0
ARC
  5
53
100
AcDbEntity
  8
USP-GEO
100
AcDbCircle
 10
0.7290933895133218
 20
2.254546329918611
 30
0.0
 40
0.2
100
AcDbArc
 50
315.0000000000009
 51
0.000000000001145
  0
LINE
  5
54
100
AcDbEntity
  8
USP-GEO
100
AcDbLine
 10
0.6755786437626603
 20
1.918188871693334
 30
0.0
 11
0.870514745750626
 21
2.113124973681307
 31
0.0
  0
LINE
  5
55
100
AcDbEntity
  8
USP-GEO
100
AcDbLine
 10
0.9290933895133166
 20
2.163453670081388
 30
0.0
 11
0.9290933895133326
 21
2.029139095030636
 31
0.0
  0
ARC
  5
56
100
AcDbEntity
  8
USP-GEO
100
AcDbCircle
 10
0.7290933895133281
 20
2.163453670081359
 30
0.0
 40
0.2
100
AcDbArc
 50
0.000000000001145
 51
13.1635611673675
  0
ARC
  5
57
100
AcDbEntity
  8
USP-GEO
100
AcDbCircle
 10
0.7290933895133192
 20
2.388860904969362
 30
0.0
 40
0.2
100
AcDbArc
 50
0.000000000001145
 51
45.00000000000099
  0
LINE
  5
58
100
AcDbEntity
  8
USP-GEO
100
AcDbLine
 10
0.8705147457506257
 20
2.530282261206671
 30
0.0
 11
0.6755786437626466
 21
2.725218363194644
 31
0.0
  0
CIRCLE
  5
59
100
AcDbEntity
  8
USP-HID
100
AcDbCircle
 10
0.6386999521436554
 20
3.73399999999998
 30
0.0
 40
0.082
  0
ARC
  5
5A
100
AcDbEntity
  8
USP-GEO
100
AcDbCircle
 10
0.8169999999999486
 20
3.18936028056801
 30
0.0
 40
0.2
100
AcDbArc
 50
135.0000000000008
 51
180.0000000000011
  0
ARC
  5
5B
100
AcDbEntity
  8
USP-GEO
100
AcDbCircle
 10
0.8169999999999388
 20
3.463767515456027
 30
0.0
 40
0.2
100
AcDbArc
 50
135.0000000000008
 51
180.0000000000009
  0
LINE
  5
5C
100
AcDbEntity
  8
USP-GEO
100
AcDbLine
 10
0.8705147457506106
 20
3.525717738793304
 30
0.0
 11
0.6755786437626372
 21
3.330781636805323
 31
0.0
  0
ARC
  5
5D
100
AcDbEntity
  8
USP-HID
100
AcDbCircle
 10
0.729093389513297
 20
3.801453670081357
 30
0.0
 40
0.2
100
AcDbArc
 50
20.50148448928905
 51
45.00000000000206
  0
ARC
  5
5E
100
AcDbEntity
  8
USP-GEO
100
AcDbCircle
 10
0.7290933895132988
 20
3.667139095030606
 30
0.0
 40
0.2
100
AcDbArc
 50
315.0000000000011
 51
0.0000000000010178
  0
ARC
  5
5F
100
AcDbEntity
  8
USP-GEO
100
AcDbCircle
 10
0.7290933895132899
 20
3.941546329918608
 30
0.0
 40
0.2
100
AcDbArc
 50
315.0000000000008
 51
0.0000000000010178
  0
LINE
  5
60
100
AcDbEntity
  8
USP-GEO
100
AcDbLine
 10
0.6755786437626284
 20
3.605188871693331
 30
0.0
 11
0.8705147457505951
 21
3.800124973681306
 31
0.0
  0
LINE
  5
61
100
AcDbEntity
  8
USP-GEO
100
AcDbLine
 10
0.9290933895132855
 20
3.801453670081386
 30
0.0
 11
0.9290933895133024
 21
3.667139095030634
 31
0.0
  0
ARC
  5
62
100
AcDbEntity
  8
USP-GEO
100
AcDbCircle
 10
0.729093389513297
 20
3.801453670081357
 30
0.0
 40
0.2
100
AcDbArc
 50
0.0000000000010178
 51
20.50148448928905
  0
LINE
  5
63
100
AcDbEntity
  8
USP-GEO
100
AcDbLine
 10
0.0399999999999092
 20
5.038767515456006
 30
0.0
 11
0.0399999999999183
 21
4.553639719431942
 31
0.0
  0
LINE
  5
64
100
AcDbEntity
  8
USP-GEO
100
AcDbLine
 10
-0.0000000000000826
 20
4.553639719431942
 30
0.0
 11
-0.0000000000000917
 21
5.038767515456007
 31
0.0
  0
LINE
  5
65
100
AcDbEntity
  8
USP-GEO
100
AcDbLine
 10
0.0399999999999188
 20
4.553639719431942
 30
0.0
 11
0.0399999999999217
 21
4.412218363194631
 31
0.0
  0
LINE
  5
66
100
AcDbEntity
  8
USP-GEO
100
AcDbLine
 10
-0.000000000000083
 20
4.553639719431942
 30
0.0
 11
-0.0000000000000802
 21
4.412218363194631
 31
0.0
  0
LINE
  5
67
100
AcDbEntity
  8
USP-GEO
100
AcDbLine
 10
0.0399999999999257
 20
4.217282261206663
 30
0.0
 11
0.0399999999999285
 21
4.075860904969346
 31
0.0
  0
LINE
  5
68
100
AcDbEntity
  8
USP-GEO
100
AcDbLine
 10
-0.0000000000000724
 20
4.075860904969346
 30
0.0
 11
-0.0000000000000753
 21
4.217282261206663
 31
0.0
  0
LINE
  5
69
100
AcDbEntity
  8
USP-HID
100
AcDbLine
 10
0.0399999999999314
 20
4.209999999999974
 30
0.0
 11
-0.0000000000000684
 21
4.209999999999973
 31
0.0
  0
LINE
  5
6A
100
AcDbEntity
  8
USP-HID
100
AcDbLine
 10
0.0399999999999254
 20
4.276999999999967
 30
0.0
 11
-0.0000000000000731
 21
4.276999999999966
 31
0.0
  0
LINE
  5
6B
100
AcDbEntity
  8
USP-HID
100
AcDbLine
 10
0.0399999999999221
 20
4.440999999999966
 30
0.0
 11
-0.000000000000079
 21
4.440999999999966
 31
0.0
  0
LINE
  5
6C
100
AcDbEntity
  8
USP-HID
100
AcDbLine
 10
0.039999999999929
 20
4.373999999999973
 30
0.0
 11
-0.0000000000000717
 21
4.373999999999973
 31
0.0
  0
LINE
  5
6D
100
AcDbEntity
  8
USP-GEO
100
AcDbLine
 10
0.0399999999999212
 20
4.412218363194631
 30
0.0
 11
0.0399999999999254
 21
4.217282261206662
 31
0.0
  0
LINE
  5
6E
100
AcDbEntity
  8
USP-GEO
100
AcDbLine
 10
-0.0000000000000755
 20
4.217282261206662
 30
0.0
 11
-0.0000000000000797
 21
4.412218363194631
 31
0.0
  0
LINE
  5
6F
100
AcDbEntity
  8
USP-HID
100
AcDbLine
 10
0.0399999999999121
 20
4.896999999999971
 30
0.0
 11
-0.0000000000000855
 21
4.89699999999997
 31
0.0
  0
LINE
  5
70
100
AcDbEntity
  8
USP-HID
100
AcDbLine
 10
0.0399999999999199
 20
4.85199999999997
 30
0.0
 11
-0.0000000000000808
 21
4.851999999999969
 31
0.0
  0
LINE
  5
71
100
AcDbEntity
  8
USP-GEO
100
AcDbLine
 10
0.0399999999998972
 20
5.650860904969341
 30
0.0
 11
0.0399999999998997
 21
5.51654632991859
 31
0.0
  0
LINE
  5
72
100
AcDbEntity
  8
USP-GEO
100
AcDbLine
 10
-0.0000000000001004
 20
5.51654632991859
 30
0.0
 11
-0.0000000000001028
 21
5.650860904969341
 31
0.0
  0
LINE
  5
73
100
AcDbEntity
  8
USP-GEO
100
AcDbLine
 10
0.0399999999999032
 20
5.375124973681285
 30
0.0
 11
0.0399999999999066
 21
5.180188871693324
 31
0.0
  0
LINE
  5
74
100
AcDbEntity
  8
USP-GEO
100
AcDbLine
 10
-0.0000000000000986
 20
5.375124973681286
 30
0.0
 11
-0.0000000000000953
 21
5.180188871693324
 31
0.0
  0
LINE
  5
75
100
AcDbEntity
  8
USP-HID
100
AcDbLine
 10
0.0399999999999097
 20
5.060999999999971
 30
0.0
 11
-0.0000000000000915
 21
5.06099999999997
 31
0.0
  0
LINE
  5
76
100
AcDbEntity
  8
USP-HID
100
AcDbLine
 10
0.0399999999999166
 20
5.015999999999969
 30
0.0
 11
-0.0000000000000842
 21
5.015999999999968
 31
0.0
  0
LINE
  5
77
100
AcDbEntity
  8
USP-GEO
100
AcDbLine
 10
0.0399999999999057
 20
5.180188871693324
 30
0.0
 11
0.0399999999999081
 21
5.038767515456008
 31
0.0
  0
LINE
  5
78
100
AcDbEntity
  8
USP-GEO
100
AcDbLine
 10
-0.0000000000000944
 20
5.180188871693323
 30
0.0
 11
-0.0000000000000919
 21
5.038767515456008
 31
0.0
  0
LINE
  5
79
100
AcDbEntity
  8
USP-GEO
100
AcDbLine
 10
0.039999999999901
 20
5.51654632991859
 30
0.0
 11
0.0399999999999035
 21
5.375124973681278
 31
0.0
  0
LINE
  5
7A
100
AcDbEntity
  8
USP-GEO
100
AcDbLine
 10
-0.0000000000000984
 20
5.375124973681278
 30
0.0
 11
-0.0000000000001008
 21
5.51654632991859
 31
0.0
  0
LINE
  5
7B
100
AcDbEntity
  8
USP-GEO
100
AcDbLine
 10
0.039999999999891
 20
5.987218363194626
 30
0.0
 11
0.0399999999998952
 21
5.792282261206658
 31
0.0
  0
LINE
  5
7C
100
AcDbEntity
  8
USP-GEO
100
AcDbLine
 10
-0.0000000000001039
 20
5.792282261206658
 30
0.0
 11
-0.0000000000001081
 21
5.987218363194626
 31
0.0
  0
LINE
  5
7D
100
AcDbEntity
  8
USP-HID
100
AcDbLine
 10
0.0399999999999021
 20
5.782999999999974
 30
0.0
 11
-0.0000000000000986
 21
5.782999999999973
 31
0.0
  0
LINE
  5
7E
100
AcDbEntity
  8
USP-GEO
100
AcDbLine
 10
0.0399999999998946
 20
5.792282261206658
 30
0.0
 11
0.0399999999998975
 21
5.650860904969341
 31
0.0
  0
LINE
  5
7F
100
AcDbEntity
  8
USP-GEO
100
AcDbLine
 10
-0.0000000000001026
 20
5.650860904969341
 30
0.0
 11
-0.0000000000001055
 21
5.792282261206658
 31
0.0
  0
LINE
  5
80
100
AcDbEntity
  8
USP-HID
100
AcDbLine
 10
0.0399999999998935
 20
5.884999999999971
 30
0.0
 11
-0.000000000000105
 21
5.88499999999997
 31
0.0
  0
LINE
  5
81
100
AcDbEntity
  8
USP-HID
100
AcDbLine
 10
0.039999999999891
 20
6.048999999999971
 30
0.0
 11
-0.0000000000001075
 21
6.04899999999997
 31
0.0
  0
LINE
  5
82
100
AcDbEntity
  8
USP-HID
100
AcDbLine
 10
0.0399999999998997
 20
5.946999999999974
 30
0.0
 11
-0.000000000000101
 21
5.946999999999973
 31
0.0
  0
LINE
  5
83
100
AcDbEntity
  8
USP-GEO
100
AcDbLine
 10
0.8705147457505795
 20
5.099717738793302
 30
0.0
 11
0.6755786437626062
 21
4.90478163680532
 31
0.0
  0
LINE
  5
84
100
AcDbEntity
  8
USP-GEO
100
AcDbLine
 10
0.6169999999999183
 20
4.553639719431949
 30
0.0
 11
0.6169999999999093
 21
5.038767515456018
 31
0.0
  0
ARC
  5
85
100
AcDbEntity
  8
USP-HID
100
AcDbCircle
 10
0.8169999999999282
 20
4.279232484543939
 30
0.0
 40
0.2
100
AcDbArc
 50
180.0000000000009
 51
225.000000000001
  0
ARC
  5
86
100
AcDbEntity
  8
USP-GEO
100
AcDbCircle
 10
0.8169999999999184
 20
4.763360280568015
 30
0.0
 40
0.2
100
AcDbArc
 50
135.0000000000011
 51
180.0000000000009
  0
ARC
  5
87
100
AcDbEntity
  8
USP-GEO
100
AcDbCircle
 10
0.8169999999999175
 20
4.553639719431956
 30
0.0
 40
0.2
100
AcDbArc
 50
180.0000000000009
 51
225.0000000000016
  0
LINE
  5
88
100
AcDbEntity
  8
USP-HID
100
AcDbLine
 10
0.6169999999999212
 20
4.553639719431949
 30
0.0
 11
0.616999999999925
 21
4.279232484543939
 31
0.0
  0
CIRCLE
  5
89
100
AcDbEntity
  8
USP-GEO
100
AcDbCircle
 10
0.3289999999999242
 20
4.387999999999969
 30
0.0
 40
0.15625
  0
ARC
  5
8A
100
AcDbEntity
  8
USP-GEO
100
AcDbCircle
 10
0.7290933895132872
 20
4.07586090496936
 30
0.0
 40
0.2
100
AcDbArc
 50
0.0000000000010178
 51
45.00000000000089
  0
LINE
  5
8B
100
AcDbEntity
  8
USP-GEO
100
AcDbLine
 10
0.8705147457505946
 20
4.217282261206669
 30
0.0
 11
0.6755786437626128
 21
4.412218363194643
 31
0.0
  0
CIRCLE
  5
8C
100
AcDbEntity
  8
USP-HID
100
AcDbCircle
 10
0.6386999521436261
 20
5.307999999999978
 30
0.0
 40
0.082
  0
ARC
  5
8D
100
AcDbEntity
  8
USP-HID
100
AcDbCircle
 10
0.816999999999898
 20
5.853232484543944
 30
0.0
 40
0.2
100
AcDbArc
 50
180.0000000000009
 51
225.0000000000013
  0
CIRCLE
  5
8E
100
AcDbEntity
  8
USP-GEO
100
AcDbCircle
 10
0.6386999521436163
 20
5.583999999999981
 30
0.0
 40
0.082
  0
ARC
  5
8F
100
AcDbEntity
  8
USP-GEO
100
AcDbCircle
 10
0.8169999999999086
 20
5.038767515456022
 30
0.0
 40
0.2
100
AcDbArc
 50
135.0000000000011
 51
180.0000000000009
  0
LINE
  5
90
100
AcDbEntity
  8
USP-HID
100
AcDbLine
 10
0.8705147457505649
 20
5.516875026318666
 30
0.0
 11
0.6755786437625915
 21
5.711811128306631
 31
0.0
  0
LINE
  5
91
100
AcDbEntity
  8
USP-GEO
100
AcDbLine
 10
0.9290933895132473
 20
5.51654632991859
 30
0.0
 11
0.929093389513258
 21
5.650860904969341
 31
0.0
  0
ARC
  5
92
100
AcDbEntity
  8
USP-HID
100
AcDbCircle
 10
0.7290933895132668
 20
5.375453670081355
 30
0.0
 40
0.2
100
AcDbArc
 50
20.65448631509982
 51
45.00000000000206
  0
ARC
  5
93
100
AcDbEntity
  8
USP-GEO
100
AcDbCircle
 10
0.7290933895132694
 20
5.241139095030611
 30
0.0
 40
0.2
100
AcDbArc
 50
315.0000000000007
 51
0.0000000000010178
  0
ARC
  5
94
100
AcDbEntity
  8
USP-GEO
100
AcDbCircle
 10
0.7290933895132597
 20
5.516546329918604
 30
0.0
 40
0.2
100
AcDbArc
 50
315.0000000000011
 51
0.0000000000010178
  0
LINE
  5
95
100
AcDbEntity
  8
USP-GEO
100
AcDbLine
 10
0.6755786437625973
 20
5.180188871693327
 30
0.0
 11
0.8705147457505638
 21
5.375124973681302
 31
0.0
  0
LINE
  5
96
100
AcDbEntity
  8
USP-GEO
100
AcDbLine
 10
0.9290933895132553
 20
5.375453670081384
 30
0.0
 11
0.9290933895132722
 21
5.241139095030632
 31
0.0
  0
ARC
  5
97
100
AcDbEntity
  8
USP-GEO
100
AcDbCircle
 10
0.7290933895132668
 20
5.375453670081355
 30
0.0
 40
0.2
100
AcDbArc
 50
0.0000000000010178
 51
20.65448631509982
  0
ARC
  5
98
100
AcDbEntity
  8
USP-GEO
100
AcDbCircle
 10
0.7290933895132561
 20
5.650860904969356
 30
0.0
 40
0.2
100
AcDbArc
 50
0.0000000000010178
 51
45.00000000000099
  0
LINE
  5
99
100
AcDbEntity
  8
USP-GEO
100
AcDbLine
 10
0.8705147457505626
 20
5.792282261206672
 30
0.0
 11
0.6755786437625835
 21
5.987218363194645
 31
0.0
  0
LINE
  5
9A
100
AcDbEntity
  8
USP-GEO
100
AcDbLine
 10
1.867000000000007
 20
0.0
 30
0.0
 11
1.767000000000007
 21
-0.0000000000000019
 31
0.0
  0
LINE
  5
9B
100
AcDbEntity
  8
USP-GEO
100
AcDbLine
 10
1.767000000000007
 20
0.0400000000000044
 30
0.0
 11
1.867000000000007
 21
0.0400000000000063
 31
0.0
  0
LINE
  5
9C
100
AcDbEntity
  8
USP-GEO
100
AcDbLine
 10
1.767000000000007
 20
0.0000000000000064
 30
0.0
 11
1.767000000000006
 21
0.0400000000000063
 31
0.0
  0
ARC
  5
9D
100
AcDbEntity
  8
USP-GEO
100
AcDbCircle
 10
1.867000000000006
 20
0.0400000000000063
 30
0.0
 40
0.1
100
AcDbArc
 50
134.9999999999998
 51
180.0000000000011
  0
LINE
  5
9E
100
AcDbEntity
  8
USP-GEO
100
AcDbLine
 10
1.867000000000007
 20
0.0400000000000063
 30
0.0
 11
1.867000000000008
 21
0.0000000000000054
 31
0.0
  0
LINE
  5
9F
100
AcDbEntity
  8
USP-GEO
100
AcDbLine
 10
0.6169999999998553
 20
7.899639719431945
 30
0.0
 11
0.6169999999998483
 21
8.258999999999979
 31
0.0
  0
LINE
  5
A0
100
AcDbEntity
  8
USP-GEO
100
AcDbLine
 10
0.0399999999998475
 20
8.258999999999968
 30
0.0
 11
0.0399999999998544
 21
7.899639719431938
 31
0.0
  0
LINE
  5
A1
100
AcDbEntity
  8
USP-GEO
100
AcDbLine
 10
-0.0000000000001448
 20
7.899639719431938
 30
0.0
 11
-0.0000000000001517
 21
8.258999999999968
 31
0.0
  0
LINE
  5
A2
100
AcDbEntity
  8
USP-GEO
100
AcDbLine
 10
0.0599999999998755
 20
6.91599999999997
 30
0.0
 11
0.2803339955392077
 21
7.297629674908749
 31
0.0
  0
LINE
  5
A3
100
AcDbEntity
  8
USP-GEO
100
AcDbLine
 10
0.2456929793878328
 20
7.31762967490876
 30
0.0
 11
0.0399999999998733
 21
6.961358983848593
 31
0.0
  0
LINE
  5
A4
100
AcDbEntity
  8
USP-GEO
100
AcDbLine
 10
0.200152502486679
 20
7.427574111880439
 30
0.0
 11
0.0455795137452777
 21
7.468991819385363
 31
0.0
  0
LINE
  5
A5
100
AcDbEntity
  8
USP-GEO
100
AcDbLine
 10
0.210505264290781
 20
7.466211144932003
 30
0.0
 11
0.055932275549379
 21
7.507628852436928
 31
0.0
  0
LINE
  5
A6
100
AcDbEntity
  8
USP-GEO
100
AcDbLine
 10
0.0399999999998695
 20
7.146124973681286
 30
0.0
 11
0.0399999999998728
 21
6.951188871693325
 31
0.0
  0
LINE
  5
A7
100
AcDbEntity
  8
USP-GEO
100
AcDbLine
 10
-0.0000000000001288
 20
7.146124973681286
 30
0.0
 11
-0.0000000000001255
 21
6.951188871693325
 31
0.0
  0
LINE
  5
A8
100
AcDbEntity
  8
USP-GEO
100
AcDbLine
 10
0.0399999999998761
 20
6.809767515456006
 30
0.0
 11
0.039999999999889
 21
6.128639719431937
 31
0.0
  0
LINE
  5
A9
100
AcDbEntity
  8
USP-GEO
100
AcDbLine
 10
-0.0000000000001101
 20
6.128639719431937
 30
0.0
 11
-0.000000000000123
 21
6.809767515456006
 31
0.0
  0
LINE
  5
AA
100
AcDbEntity
  8
USP-HID
100
AcDbLine
 10
0.039999999999887
 20
6.510999999999976
 30
0.0
 11
-0.0000000000001128
 21
6.510999999999975
 31
0.0
  0
LINE
  5
AB
100
AcDbEntity
  8
USP-GEO
100
AcDbLine
 10
0.0399999999998728
 20
6.951188871693325
 30
0.0
 11
0.0399999999998753
 21
6.809767515456009
 31
0.0
  0
LINE
  5
AC
100
AcDbEntity
  8
USP-GEO
100
AcDbLine
 10
-0.0000000000001263
 20
6.951188871693325
 30
0.0
 11
-0.0000000000001239
 21
6.809767515456009
 31
0.0
  0
LINE
  5
AD
100
AcDbEntity
  8
USP-HID
100
AcDbLine
 10
0.0399999999998801
 20
6.597999999999972
 30
0.0
 11
-0.0000000000001192
 21
6.597999999999971
 31
0.0
  0
LINE
  5
AE
100
AcDbEntity
  8
USP-HID
100
AcDbLine
 10
0.0399999999998759
 20
6.761999999999972
 30
0.0
 11
-0.0000000000001226
 21
6.761999999999971
 31
0.0
  0
LINE
  5
AF
100
AcDbEntity
  8
USP-HID
100
AcDbLine
 10
0.0399999999998846
 20
6.674999999999975
 30
0.0
 11
-0.0000000000001161
 21
6.674999999999974
 31
0.0
  0
LINE
  5
B0
100
AcDbEntity
  8
USP-GEO
100
AcDbLine
 10
0.0399999999998744
 20
6.921358983848589
 30
0.0
 11
0.0599999999998742
 21
6.915999999999968
 31
0.0
  0
LINE
  5
B1
100
AcDbEntity
  8
USP-HID
100
AcDbLine
 10
0.0399999999998761
 20
6.921358983848601
 30
0.0
 11
0.0199999999998755
 21
6.926717967697222
 31
0.0
  0
LINE
  5
B2
100
AcDbEntity
  8
USP-HID
100
AcDbLine
 10
0.0199999999998659
 20
6.926717967697218
 30
0.0
 11
0.0399999999998664
 21
6.961358983848596
 31
0.0
  0
LINE
  5
B3
100
AcDbEntity
  8
USP-HID
100
AcDbLine
 10
-0.0000000000001243
 20
6.915999999999968
 30
0.0
 11
0.0399999999998746
 21
6.915999999999969
 31
0.0
  0
LINE
  5
B4
100
AcDbEntity
  8
USP-GEO
100
AcDbLine
 10
0.0399999999998564
 20
7.758218363194627
 30
0.0
 11
0.0399999999998606
 21
7.563282261206659
 31
0.0
  0
LINE
  5
B5
100
AcDbEntity
  8
USP-GEO
100
AcDbLine
 10
-0.0000000000001377
 20
7.563282261206659
 30
0.0
 11
-0.0000000000001419
 21
7.758218363194627
 31
0.0
  0
LINE
  5
B6
100
AcDbEntity
  8
USP-GEO
100
AcDbLine
 10
0.0399999999998635
 20
7.421860904969342
 30
0.0
 11
0.0399999999998659
 21
7.28754632991859
 31
0.0
  0
LINE
  5
B7
100
AcDbEntity
  8
USP-GEO
100
AcDbLine
 10
-0.0000000000001332
 20
7.28754632991859
 30
0.0
 11
-0.0000000000001357
 21
7.421860904969342
 31
0.0
  0
LINE
  5
B8
100
AcDbEntity
  8
USP-GEO
100
AcDbLine
 10
0.0399999999998664
 20
7.28754632991859
 30
0.0
 11
0.0399999999998688
 21
7.146124973681278
 31
0.0
  0
LINE
  5
B9
100
AcDbEntity
  8
USP-GEO
100
AcDbLine
 10
-0.0000000000001303
 20
7.146124973681278
 30
0.0
 11
-0.0000000000001328
 21
7.28754632991859
 31
0.0
  0
LINE
  5
BA
100
AcDbEntity
  8
USP-GEO
100
AcDbLine
 10
0.0559322755493783
 20
7.507628852436923
 30
0.0
 11
0.0455795137452764
 21
7.468991819385362
 31
0.0
  0
LINE
  5
BB
100
AcDbEntity
  8
USP-HID
100
AcDbLine
 10
-0.0000000000001359
 20
7.504475823477221
 30
0.0
 11
0.039999999999863
 21
7.504475823477221
 31
0.0
  0
LINE
  5
BC
100
AcDbEntity
  8
USP-GEO
100
AcDbLine
 10
0.0399999999998608
 20
7.56328226120666
 30
0.0
 11
0.0399999999998637
 21
7.421860904969342
 31
0.0
  0
LINE
  5
BD
100
AcDbEntity
  8
USP-GEO
100
AcDbLine
 10
-0.0000000000001346
 20
7.421860904969342
 30
0.0
 11
-0.0000000000001374
 21
7.56328226120666
 31
0.0
  0
LINE
  5
BE
100
AcDbEntity
  8
USP-HID
100
AcDbLine
 10
0.0564413994406192
 20
7.466081385885015
 30
0.0
 11
0.0667941612447218
 21
7.504718418936578
 31
0.0
  0
LINE
  5
BF
100
AcDbEntity
  8
USP-HID
100
AcDbLine
 10
0.0399999999998584
 20
7.737999999999967
 30
0.0
 11
-0.0000000000001408
 21
7.737999999999967
 31
0.0
  0
LINE
  5
C0
100
AcDbEntity
  8
USP-HID
100
AcDbLine
 10
0.0399999999998553
 20
7.89699999999997
 30
0.0
 11
-0.0000000000001432
 21
7.89699999999997
 31
0.0
  0
LINE
  5
C1
100
AcDbEntity
  8
USP-HID
100
AcDbLine
 10
0.0399999999998622
 20
7.832999999999969
 30
0.0
 11
-0.0000000000001368
 21
7.832999999999969
 31
0.0
  0
LINE
  5
C2
100
AcDbEntity
  8
USP-GEO
100
AcDbLine
 10
0.0399999999998539
 20
7.899639719431938
 30
0.0
 11
0.0399999999998568
 21
7.758218363194627
 31
0.0
  0
LINE
  5
C3
100
AcDbEntity
  8
USP-GEO
100
AcDbLine
 10
-0.0000000000001452
 20
7.899639719431938
 30
0.0
 11
-0.0000000000001423
 21
7.758218363194627
 31
0.0
  0
LINE
  5
C4
100
AcDbEntity
  8
USP-HID
100
AcDbLine
 10
0.0399999999998519
 20
8.060999999999971
 30
0.0
 11
-0.0000000000001465
 21
8.060999999999971
 31
0.0
  0
LINE
  5
C5
100
AcDbEntity
  8
USP-HID
100
AcDbLine
 10
0.0399999999998588
 20
7.996999999999971
 30
0.0
 11
-0.000000000000141
 21
7.996999999999971
 31
0.0
  0
CIRCLE
  5
C6
100
AcDbEntity
  8
USP-HID
100
AcDbCircle
 10
0.6386999521435924
 20
7.078999999999979
 30
0.0
 40
0.082
  0
LINE
  5
C7
100
AcDbEntity
  8
USP-GEO
100
AcDbLine
 10
0.9290933895132216
 20
7.146453670081385
 30
0.0
 11
0.9290933895132384
 21
7.012139095030633
 31
0.0
  0
LINE
  5
C8
100
AcDbEntity
  8
USP-GEO
100
AcDbLine
 10
0.6755786437625611
 20
6.951188871693335
 30
0.0
 11
0.870514745750528
 21
7.14612497368131
 31
0.0
  0
ARC
  5
C9
100
AcDbEntity
  8
USP-GEO
100
AcDbCircle
 10
0.8169999999998855
 20
6.534360280568016
 30
0.0
 40
0.2
100
AcDbArc
 50
135.0000000000011
 51
180.0000000000009
  0
ARC
  5
CA
100
AcDbEntity
  8
USP-GEO
100
AcDbCircle
 10
0.816999999999874
 20
6.809767515456023
 30
0.0
 40
0.2
100
AcDbArc
 50
135.0000000000011
 51
180.0000000000009
  0
LINE
  5
CB
100
AcDbEntity
  8
USP-GEO
100
AcDbLine
 10
0.616999999999889
 20
6.128639719431951
 30
0.0
 11
0.6169999999998761
 21
6.809767515456024
 31
0.0
  0
ARC
  5
CC
100
AcDbEntity
  8
USP-GEO
100
AcDbCircle
 10
0.7290933895132348
 20
7.012139095030612
 30
0.0
 40
0.2
100
AcDbArc
 50
315.0000000000007
 51
0.0000000000010178
  0
LINE
  5
CD
100
AcDbEntity
  8
USP-GEO
100
AcDbLine
 10
0.8705147457505457
 20
6.870717738793302
 30
0.0
 11
0.6755786437625721
 21
6.675781636805321
 31
0.0
  0
ARC
  5
CE
100
AcDbEntity
  8
USP-HID
100
AcDbCircle
 10
0.8169999999998642
 20
7.624232484543945
 30
0.0
 40
0.2
100
AcDbArc
 50
180.0000000000009
 51
225.0000000000017
  0
CIRCLE
  5
CF
100
AcDbEntity
  8
USP-GEO
100
AcDbCircle
 10
0.6386999521435826
 20
7.354999999999982
 30
0.0
 40
0.082
  0
ARC
  5
D0
100
AcDbEntity
  8
USP-GEO
100
AcDbCircle
 10
0.8169999999998545
 20
7.899639719431952
 30
0.0
 40
0.2
100
AcDbArc
 50
180.0000000000009
 51
225.0000000000011
  0
LINE
  5
D1
100
AcDbEntity
  8
USP-HID
100
AcDbLine
 10
0.6169999999998604
 20
7.899639719431945
 30
0.0
 11
0.6169999999998655
 21
7.624232484543938
 31
0.0
  0
ARC
  5
D2
100
AcDbEntity
  8
USP-GEO
100
AcDbCircle
 10
0.1807410741039934
 20
7.355129674908759
 30
0.0
 40
0.115
100
AcDbArc
 50
329.9999999999978
 51
75.00000000000169
  0
ARC
  5
D3
100
AcDbEntity
  8
USP-GEO
100
AcDbCircle
 10
0.1807410741039934
 20
7.355129674908759
 30
0.0
 40
0.075
100
AcDbArc
 50
330.0000000000022
 51
75.00000000000255
  0
LINE
  5
D4
100
AcDbEntity
  8
USP-GEO
100
AcDbLine
 10
0.210505264290781
 20
7.466211144931998
 30
0.0
 11
0.2001525024866788
 21
7.427574111880433
 31
0.0
  0
LINE
  5
D5
100
AcDbEntity
  8
USP-GEO
100
AcDbLine
 10
0.870514745750528
 20
7.563282261206673
 30
0.0
 11
0.675578643762546
 21
7.758218363194645
 31
0.0
  0
ARC
  5
D6
100
AcDbEntity
  8
USP-HID
100
AcDbCircle
 10
0.729093389513233
 20
7.146453670081363
 30
0.0
 40
0.2
100
AcDbArc
 50
20.65448631509901
 51
45.00000000000063
  0
ARC
  5
D7
100
AcDbEntity
  8
USP-GEO
100
AcDbCircle
 10
0.729093389513225
 20
7.287546329918605
 30
0.0
 40
0.2
100
AcDbArc
 50
315.0000000000011
 51
0.0000000000010178
  0
ARC
  5
D8
100
AcDbEntity
  8
USP-GEO
100
AcDbCircle
 10
0.7290933895132224
 20
7.421860904969356
 30
0.0
 40
0.2
100
AcDbArc
 50
0.0000000000010178
 51
45.00000000000124
  0
LINE
  5
D9
100
AcDbEntity
  8
USP-HID
100
AcDbLine
 10
0.8705147457505319
 20
7.287875026318667
 30
0.0
 11
0.6755786437625595
 21
7.482811128306632
 31
0.0
  0
LINE
  5
DA
100
AcDbEntity
  8
USP-GEO
100
AcDbLine
 10
0.9290933895132136
 20
7.287546329918583
 30
0.0
 11
0.9290933895132251
 21
7.421860904969337
 31
0.0
  0
ARC
  5
DB
100
AcDbEntity
  8
USP-GEO
100
AcDbCircle
 10
0.729093389513233
 20
7.146453670081363
 30
0.0
 40
0.2
100
AcDbArc
 50
0.0000000000010178
 51
20.65448631509901
  0
LINE
  5
DC
100
AcDbEntity
  8
USP-GEO
100
AcDbLine
 10
0.6169999999998499
 20
8.258999999999982
 30
0.0
 11
0.0399999999998497
 21
8.258999999999971
 31
0.0
  0
LINE
  5
DD
100
AcDbEntity
  8
USP-GEO
100
AcDbLine
 10
-0.000000000000151
 20
8.258999999999971
 30
0.0
 11
0.0399999999998479
 21
8.258999999999971
 31
0.0
  0
ENDBLK
  5
E0
100
AcDbEntity
  8
0
100
AcDbBlockEnd
  0
BLOCK
  5
21E
100
AcDbEntity
  8
0
100
AcDbBlockBegin
  2
JL210_F
 70
     0
 10
0.0
 20
0.0
 30
0.0
  3
JL210_F
  1

  0
TEXT
  5
E3
100
AcDbEntity
  8
USP-TXT
100
AcDbText
 10
-0.4435000000000003
 20
-0.6952514796795839
 30
0.0
 40
0.25
  1
JL210 - FRONT VIEW
 72
     1
 11
1.743999999999999
 21
-0.6952514796795839
 31
0.0
100
AcDbText
  0
LINE
  5
E4
100
AcDbEntity
  8
USP-GEO
100
AcDbLine
 10
0.963
 20
6.534360280568002
 30
0.0
 11
0.963
 21
5.853232484543932
 31
0.0
  0
LINE
  5
E5
100
AcDbEntity
  8
USP-GEO
100
AcDbLine
 10
-0.0000000000000027
 20
5.853232484543923
 30
0.0
 11
-0.0000000000000018
 21
6.534360280567994
 31
0.0
  0
LINE
  5
E6
100
AcDbEntity
  8
USP-GEO
100
AcDbLine
 10
0.9230000000000018
 20
6.534360280568002
 30
0.0
 11
0.9230000000000018
 21
5.85323248454393
 31
0.0
  0
LINE
  5
E7
100
AcDbEntity
  8
USP-GEO
100
AcDbLine
 10
2.564999999999997
 20
5.987218363194632
 30
0.0
 11
2.564999999999997
 21
6.128639719431941
 31
0.0
  0
ARC
  5
E8
100
AcDbEntity
  8
USP-GEO
100
AcDbCircle
 10
3.287999999999996
 20
6.12863971943193
 30
0.0
 40
0.2000000000000001
100
AcDbArc
 50
314.9999999999998
 51
0.0
  0
LINE
  5
E9
100
AcDbEntity
  8
USP-GEO
100
AcDbLine
 10
2.524999999999998
 20
6.128639719431941
 30
0.0
 11
2.524999999999998
 21
5.987218363194631
 31
0.0
  0
ARC
  5
EA
100
AcDbEntity
  8
USP-GEO
100
AcDbCircle
 10
3.287999999999996
 20
1.372842712474586
 30
0.0
 40
0.2000000000000001
100
AcDbArc
 50
314.9999999999999
 51
0.0
  0
ARC
  5
EB
100
AcDbEntity
  8
USP-GEO
100
AcDbCircle
 10
3.287999999999998
 20
1.776767515456
 30
0.0
 40
0.2000000000000001
100
AcDbArc
 50
0.0
 51
45.00000000000285
  0
ARC
  5
EC
100
AcDbEntity
  8
USP-GEO
100
AcDbCircle
 10
3.287999999999996
 20
2.86663971943193
 30
0.0
 40
0.2000000000000001
100
AcDbArc
 50
314.9999999999997
 51
0.0
  0
ARC
  5
ED
100
AcDbEntity
  8
USP-GEO
100
AcDbCircle
 10
3.287999999999996
 20
3.463767515456005
 30
0.0
 40
0.2000000000000001
100
AcDbArc
 50
0.0
 51
45.00000000000285
  0
ARC
  5
EE
100
AcDbEntity
  8
USP-GEO
100
AcDbCircle
 10
3.287999999999996
 20
4.553639719431934
 30
0.0
 40
0.2000000000000001
100
AcDbArc
 50
314.9999999999995
 51
0.0
  0
ARC
  5
EF
100
AcDbEntity
  8
USP-GEO
100
AcDbCircle
 10
3.287999999999996
 20
5.038767515456001
 30
0.0
 40
0.2000000000000001
100
AcDbArc
 50
0.0
 51
45.00000000000285
  0
LINE
  5
F0
100
AcDbEntity
  8
USP-GEO
100
AcDbLine
 10
0.9630000000000036
 20
1.887717738793291
 30
0.0
 11
0.9630000000000036
 21
1.692781636805311
 31
0.0
  0
LINE
  5
F1
100
AcDbEntity
  8
USP-GEO
100
AcDbLine
 10
0.0585786437626927
 20
1.6927816368053
 30
0.0
 11
0.253514745750671
 21
1.887717738793277
 31
0.0
  0
LINE
  5
F2
100
AcDbEntity
  8
USP-GEO
100
AcDbLine
 10
0.9230000000000044
 20
1.887717738793291
 30
0.0
 11
0.9230000000000044
 21
1.692781636805311
 31
0.0
  0
LINE
  5
F3
100
AcDbEntity
  8
USP-GEO
100
AcDbLine
 10
2.564999999999999
 20
1.776767515456018
 30
0.0
 11
2.564999999999999
 21
1.91818887169333
 31
0.0
  0
LINE
  5
F4
100
AcDbEntity
  8
USP-GEO
100
AcDbLine
 10
2.524999999999998
 20
1.91818887169333
 30
0.0
 11
2.524999999999998
 21
1.776767515456018
 31
0.0
  0
LINE
  5
F5
100
AcDbEntity
  8
USP-GEO
100
AcDbLine
 10
1.062999999999994
 20
0.0
 30
0.0
 11
2.425000000000006
 21
0.0000000000000003
 31
0.0
  0
LINE
  5
F6
100
AcDbEntity
  8
USP-GEO
100
AcDbLine
 10
1.062999999999993
 20
0.0399999999999921
 30
0.0
 11
2.425000000000006
 21
0.0399999999999924
 31
0.0
  0
LINE
  5
F7
100
AcDbEntity
  8
USP-GEO
100
AcDbLine
 10
0.9230000000000018
 20
0.3669999999999618
 30
0.0
 11
0.0585786437626936
 21
1.231421356237271
 31
0.0
  0
ARC
  5
F8
100
AcDbEntity
  8
USP-GEO
100
AcDbCircle
 10
0.2000000000000019
 20
1.372842712474579
 30
0.0
 40
0.2
100
AcDbArc
 50
180.0
 51
225.0000000000001
  0
ARC
  5
F9
100
AcDbEntity
  8
USP-GEO
100
AcDbCircle
 10
0.2000000000000028
 20
1.55136028056799
 30
0.0
 40
0.2
100
AcDbArc
 50
135.0000000000002
 51
180.0
  0
LINE
  5
FA
100
AcDbEntity
  8
USP-GEO
100
AcDbLine
 10
0.0
 20
1.372842712474579
 30
0.0
 11
-0.0000000000000009
 21
1.55136028056799
 31
0.0
  0
CIRCLE
  5
FB
100
AcDbEntity
  8
USP-GEO
100
AcDbCircle
 10
0.2999999999999998
 20
1.45899999999996
 30
0.0
 40
0.082
  0
LINE
  5
FC
100
AcDbEntity
  8
USP-GEO
100
AcDbLine
 10
0.9630000000000054
 20
0.1107106781186501
 30
0.0
 11
0.9630000000000027
 21
1.231421356237286
 31
0.0
  0
LINE
  5
FD
100
AcDbEntity
  8
USP-GEO
100
AcDbLine
 10
0.9230000000000044
 20
1.231421356237285
 30
0.0
 11
0.9230000000000071
 21
0.1107106781186495
 31
0.0
  0
LINE
  5
FE
100
AcDbEntity
  8
USP-GEO
100
AcDbLine
 10
0.9630000000000045
 20
-0.0000000000000019
 30
0.0
 11
1.063000000000004
 21
0.0
 31
0.0
  0
LINE
  5
FF
100
AcDbEntity
  8
USP-GEO
100
AcDbLine
 10
1.063000000000005
 20
0.0399999999999921
 30
0.0
 11
0.9630000000000062
 21
0.0399999999999902
 31
0.0
  0
LINE
  5
100
100
AcDbEntity
  8
USP-HID
100
AcDbLine
 10
0.9630000000000018
 20
0.139999999999992
 30
0.0
 11
0.9230000000000027
 21
0.139999999999992
 31
0.0
  0
LINE
  5
101
100
AcDbEntity
  8
USP-GEO
100
AcDbLine
 10
0.9630000000000045
 20
0.0399999999999902
 30
0.0
 11
0.9630000000000045
 21
0.1107106781186445
 31
0.0
  0
LINE
  5
102
100
AcDbEntity
  8
USP-GEO
100
AcDbLine
 10
0.9630000000000062
 20
0.1107106781186502
 30
0.0
 11
0.9230000000000071
 21
0.1107106781186502
 31
0.0
  0
LINE
  5
103
100
AcDbEntity
  8
USP-GEO
100
AcDbLine
 10
0.9230000000000053
 20
0.1107106781186444
 30
0.0
 11
0.9230000000000053
 21
0.0399999999999902
 31
0.0
  0
LINE
  5
104
100
AcDbEntity
  8
USP-GEO
100
AcDbLine
 10
0.9230000000000062
 20
-0.0000000000000071
 30
0.0
 11
0.9630000000000054
 21
-0.0000000000000071
 31
0.0
  0
LINE
  5
105
100
AcDbEntity
  8
USP-GEO
100
AcDbLine
 10
0.9230000000000053
 20
0.0399999999999921
 30
0.0
 11
0.9230000000000053
 21
-0.000000000000007
 31
0.0
  0
LINE
  5
106
100
AcDbEntity
  8
USP-GEO
100
AcDbLine
 10
1.062999999999993
 20
0.0399999999999921
 30
0.0
 11
1.062999999999993
 21
-0.000000000000008
 31
0.0
  0
LINE
  5
107
100
AcDbEntity
  8
USP-HID
100
AcDbLine
 10
0.9630000000000009
 20
0.3669999999999618
 30
0.0
 11
0.9230000000000018
 21
0.3669999999999618
 31
0.0
  0
LINE
  5
108
100
AcDbEntity
  8
USP-GEO
100
AcDbLine
 10
0.9630000000000027
 20
1.231421356237281
 30
0.0
 11
0.9630000000000018
 21
1.372842712474589
 31
0.0
  0
LINE
  5
109
100
AcDbEntity
  8
USP-GEO
100
AcDbLine
 10
0.9230000000000027
 20
1.372842712474589
 30
0.0
 11
0.9230000000000035
 21
1.231421356237281
 31
0.0
  0
LINE
  5
10A
100
AcDbEntity
  8
USP-GEO
100
AcDbLine
 10
0.9630000000000027
 20
1.551360280568001
 30
0.0
 11
0.9630000000000036
 21
1.692781636805313
 31
0.0
  0
LINE
  5
10B
100
AcDbEntity
  8
USP-GEO
100
AcDbLine
 10
0.9230000000000035
 20
1.692781636805313
 30
0.0
 11
0.9230000000000027
 21
1.551360280568001
 31
0.0
  0
LINE
  5
10C
100
AcDbEntity
  8
USP-GEO
100
AcDbLine
 10
0.9630000000000027
 20
1.551360280568005
 30
0.0
 11
0.9630000000000027
 21
1.372842712474595
 31
0.0
  0
LINE
  5
10D
100
AcDbEntity
  8
USP-GEO
100
AcDbLine
 10
0.9230000000000035
 20
1.551360280568005
 30
0.0
 11
0.9230000000000035
 21
1.372842712474595
 31
0.0
  0
LINE
  5
10E
100
AcDbEntity
  8
USP-HID
100
AcDbLine
 10
2.524999999999996
 20
0.3669999999999618
 30
0.0
 11
2.564999999999997
 21
0.3669999999999618
 31
0.0
  0
LINE
  5
10F
100
AcDbEntity
  8
USP-HID
100
AcDbLine
 10
2.524999999999998
 20
0.1399999999999707
 30
0.0
 11
2.564999999999997
 21
0.1399999999999707
 31
0.0
  0
LINE
  5
110
100
AcDbEntity
  8
USP-GEO
100
AcDbLine
 10
2.525
 20
-0.0000000000000071
 30
0.0
 11
2.565000000000001
 21
-0.0000000000000071
 31
0.0
  0
LINE
  5
111
100
AcDbEntity
  8
USP-GEO
100
AcDbLine
 10
2.525
 20
0.1107106781186715
 30
0.0
 11
2.565000000000001
 21
0.1107106781186715
 31
0.0
  0
LINE
  5
112
100
AcDbEntity
  8
USP-GEO
100
AcDbLine
 10
2.525
 20
0.1107106781186715
 30
0.0
 11
2.524999999999998
 21
1.231421356237288
 31
0.0
  0
LINE
  5
113
100
AcDbEntity
  8
USP-GEO
100
AcDbLine
 10
2.425000000000006
 20
0.0
 30
0.0
 11
2.525000000000005
 21
-0.0000000000000019
 31
0.0
  0
LINE
  5
114
100
AcDbEntity
  8
USP-GEO
100
AcDbLine
 10
2.525000000000005
 20
0.0399999999999973
 30
0.0
 11
2.425000000000006
 21
0.0399999999999992
 31
0.0
  0
LINE
  5
115
100
AcDbEntity
  8
USP-GEO
100
AcDbLine
 10
2.425000000000006
 20
0.0399999999999992
 30
0.0
 11
2.425000000000006
 21
-0.0000000000000017
 31
0.0
  0
LINE
  5
116
100
AcDbEntity
  8
USP-GEO
100
AcDbLine
 10
2.525
 20
0.1107106781186471
 30
0.0
 11
2.525
 21
0.0399999999999902
 31
0.0
  0
LINE
  5
117
100
AcDbEntity
  8
USP-GEO
100
AcDbLine
 10
2.524999999999998
 20
1.372842712474596
 30
0.0
 11
2.524999999999998
 21
1.231421356237288
 31
0.0
  0
LINE
  5
118
100
AcDbEntity
  8
USP-GEO
100
AcDbLine
 10
2.524999999999996
 20
1.372842712474593
 30
0.0
 11
2.524999999999996
 21
1.776767515456015
 31
0.0
  0
LINE
  5
119
100
AcDbEntity
  8
USP-GEO
100
AcDbLine
 10
2.565000000000001
 20
0.1107106781186715
 30
0.0
 11
2.564999999999999
 21
1.231421356237288
 31
0.0
  0
LINE
  5
11A
100
AcDbEntity
  8
USP-GEO
100
AcDbLine
 10
3.429421356237307
 20
1.231421356237273
 30
0.0
 11
2.564999999999995
 21
0.3669999999999671
 31
0.0
  0
LINE
  5
11B
100
AcDbEntity
  8
USP-GEO
100
AcDbLine
 10
2.565000000000001
 20
0.0399999999999902
 30
0.0
 11
2.565000000000001
 21
0.1107106781186469
 31
0.0
  0
LINE
  5
11C
100
AcDbEntity
  8
USP-GEO
100
AcDbLine
 10
2.565000000000001
 20
-0.0000000000000078
 30
0.0
 11
2.565000000000001
 21
0.0399999999999921
 31
0.0
  0
LINE
  5
11D
100
AcDbEntity
  8
USP-GEO
100
AcDbLine
 10
2.564999999999997
 20
1.231421356237288
 30
0.0
 11
2.564999999999997
 21
1.372842712474596
 31
0.0
  0
LINE
  5
11E
100
AcDbEntity
  8
USP-GEO
100
AcDbLine
 10
2.564999999999999
 20
1.372842712474593
 30
0.0
 11
2.564999999999999
 21
1.776767515456015
 31
0.0
  0
CIRCLE
  5
11F
100
AcDbEntity
  8
USP-GEO
100
AcDbCircle
 10
3.188
 20
1.45899999999996
 30
0.0
 40
0.082
  0
LINE
  5
120
100
AcDbEntity
  8
USP-GEO
100
AcDbLine
 10
0.9630000000000027
 20
3.94287502631866
 30
0.0
 11
0.9630000000000027
 21
4.137811128306626
 31
0.0
  0
LINE
  5
121
100
AcDbEntity
  8
USP-GEO
100
AcDbLine
 10
0.253514745750663
 20
3.942875026318645
 30
0.0
 11
0.0585786437626927
 21
4.137811128306616
 31
0.0
  0
ARC
  5
122
100
AcDbEntity
  8
USP-GEO
100
AcDbCircle
 10
0.11209338951336
 20
3.801453670081336
 30
0.0
 40
0.2
100
AcDbArc
 50
0.0
 51
45.00000000000002
  0
LINE
  5
123
100
AcDbEntity
  8
USP-GEO
100
AcDbLine
 10
0.9230000000000027
 20
4.137811128306627
 30
0.0
 11
0.9230000000000027
 21
3.942875026318661
 31
0.0
  0
LINE
  5
124
100
AcDbEntity
  8
USP-GEO
100
AcDbLine
 10
-0.0000000000000009
 20
2.641232484543918
 30
0.0
 11
0.0
 21
3.189360280567989
 31
0.0
  0
LINE
  5
125
100
AcDbEntity
  8
USP-GEO
100
AcDbLine
 10
0.2535147457506639
 20
2.30487502631864
 30
0.0
 11
0.0585786437626936
 21
2.49981112830661
 31
0.0
  0
ARC
  5
126
100
AcDbEntity
  8
USP-GEO
100
AcDbCircle
 10
0.2000000000000028
 20
2.64123248454392
 30
0.0
 40
0.2
100
AcDbArc
 50
180.0
 51
225.0000000000001
  0
LINE
  5
127
100
AcDbEntity
  8
USP-GEO
100
AcDbLine
 10
0.3120933895133637
 20
2.029139095030608
 30
0.0
 11
0.3120933895133504
 21
2.16345367008136
 31
0.0
  0
ARC
  5
128
100
AcDbEntity
  8
USP-GEO
100
AcDbCircle
 10
0.1120933895133618
 20
2.029139095030586
 30
0.0
 40
0.2
100
AcDbArc
 50
314.9999999999998
 51
0.0
  0
ARC
  5
129
100
AcDbEntity
  8
USP-GEO
100
AcDbCircle
 10
0.1120933895133618
 20
2.163453670081338
 30
0.0
 40
0.2
100
AcDbArc
 50
0.0
 51
45.00000000000002
  0
CIRCLE
  5
12A
100
AcDbEntity
  8
USP-GEO
100
AcDbCircle
 10
0.3000000000000007
 20
2.677999999999961
 30
0.0
 40
0.082
  0
LINE
  5
12B
100
AcDbEntity
  8
USP-GEO
100
AcDbLine
 10
0.0585786437626927
 20
3.330781636805296
 30
0.0
 11
0.2535147457506701
 21
3.525717738793274
 31
0.0
  0
ARC
  5
12C
100
AcDbEntity
  8
USP-GEO
100
AcDbCircle
 10
0.2000000000000019
 20
3.189360280567989
 30
0.0
 40
0.2
100
AcDbArc
 50
135.0000000000001
 51
180.0
  0
LINE
  5
12D
100
AcDbEntity
  8
USP-GEO
100
AcDbLine
 10
0.3120933895133628
 20
3.667139095030605
 30
0.0
 11
0.3120933895133495
 21
3.801453670081357
 31
0.0
  0
ARC
  5
12E
100
AcDbEntity
  8
USP-GEO
100
AcDbCircle
 10
0.1120933895133609
 20
3.667139095030591
 30
0.0
 40
0.2
100
AcDbArc
 50
314.9999999999995
 51
0.0
  0
LINE
  5
12F
100
AcDbEntity
  8
USP-GEO
100
AcDbLine
 10
0.9630000000000027
 20
3.189360280568003
 30
0.0
 11
0.9630000000000027
 21
2.641232484543933
 31
0.0
  0
LINE
  5
130
100
AcDbEntity
  8
USP-GEO
100
AcDbLine
 10
0.9230000000000027
 20
3.189360280568003
 30
0.0
 11
0.9230000000000027
 21
2.641232484543934
 31
0.0
  0
LINE
  5
131
100
AcDbEntity
  8
USP-GEO
100
AcDbLine
 10
0.9630000000000027
 20
2.304875026318655
 30
0.0
 11
0.9630000000000018
 21
2.499811128306621
 31
0.0
  0
LINE
  5
132
100
AcDbEntity
  8
USP-GEO
100
AcDbLine
 10
0.9230000000000027
 20
2.499811128306621
 30
0.0
 11
0.9230000000000035
 21
2.304875026318655
 31
0.0
  0
LINE
  5
133
100
AcDbEntity
  8
USP-GEO
100
AcDbLine
 10
0.9630000000000027
 20
2.163453670081381
 30
0.0
 11
0.9630000000000027
 21
2.029139095030629
 31
0.0
  0
LINE
  5
134
100
AcDbEntity
  8
USP-GEO
100
AcDbLine
 10
0.9230000000000035
 20
2.163453670081381
 30
0.0
 11
0.9230000000000035
 21
2.029139095030628
 31
0.0
  0
LINE
  5
135
100
AcDbEntity
  8
USP-HID
100
AcDbLine
 10
0.9630000000000027
 20
2.013999999999975
 30
0.0
 11
0.923
 21
2.013999999999975
 31
0.0
  0
LINE
  5
136
100
AcDbEntity
  8
USP-GEO
100
AcDbLine
 10
0.9630000000000036
 20
2.029139095030604
 30
0.0
 11
0.9630000000000027
 21
1.887717738793294
 31
0.0
  0
LINE
  5
137
100
AcDbEntity
  8
USP-GEO
100
AcDbLine
 10
0.9230000000000044
 20
2.029139095030604
 30
0.0
 11
0.9230000000000035
 21
1.887717738793293
 31
0.0
  0
LINE
  5
138
100
AcDbEntity
  8
USP-HID
100
AcDbLine
 10
0.9630000000000027
 20
2.177999999999975
 30
0.0
 11
0.9229999999999991
 21
2.177999999999975
 31
0.0
  0
LINE
  5
139
100
AcDbEntity
  8
USP-GEO
100
AcDbLine
 10
0.9630000000000018
 20
2.304875026318664
 30
0.0
 11
0.9630000000000027
 21
2.163453670081356
 31
0.0
  0
LINE
  5
13A
100
AcDbEntity
  8
USP-GEO
100
AcDbLine
 10
0.9230000000000035
 20
2.304875026318664
 30
0.0
 11
0.9230000000000044
 21
2.163453670081356
 31
0.0
  0
LINE
  5
13B
100
AcDbEntity
  8
USP-GEO
100
AcDbLine
 10
0.9630000000000027
 20
2.499811128306621
 30
0.0
 11
0.9630000000000018
 21
2.64123248454393
 31
0.0
  0
LINE
  5
13C
100
AcDbEntity
  8
USP-GEO
100
AcDbLine
 10
0.9230000000000027
 20
2.64123248454393
 30
0.0
 11
0.9230000000000035
 21
2.499811128306621
 31
0.0
  0
LINE
  5
13D
100
AcDbEntity
  8
USP-GEO
100
AcDbLine
 10
0.9630000000000027
 20
3.525717738793296
 30
0.0
 11
0.9630000000000027
 21
3.330781636805316
 31
0.0
  0
LINE
  5
13E
100
AcDbEntity
  8
USP-GEO
100
AcDbLine
 10
0.9230000000000035
 20
3.525717738793289
 30
0.0
 11
0.9230000000000035
 21
3.330781636805308
 31
0.0
  0
LINE
  5
13F
100
AcDbEntity
  8
USP-GEO
100
AcDbLine
 10
0.9630000000000018
 20
3.189360280568006
 30
0.0
 11
0.9630000000000027
 21
3.330781636805317
 31
0.0
  0
LINE
  5
140
100
AcDbEntity
  8
USP-GEO
100
AcDbLine
 10
0.9230000000000035
 20
3.330781636805317
 30
0.0
 11
0.9230000000000027
 21
3.189360280568006
 31
0.0
  0
LINE
  5
141
100
AcDbEntity
  8
USP-GEO
100
AcDbLine
 10
0.9630000000000018
 20
3.801453670081379
 30
0.0
 11
0.9630000000000018
 21
3.667139095030627
 31
0.0
  0
LINE
  5
142
100
AcDbEntity
  8
USP-GEO
100
AcDbLine
 10
0.9230000000000035
 20
3.801453670081379
 30
0.0
 11
0.9230000000000035
 21
3.667139095030627
 31
0.0
  0
LINE
  5
143
100
AcDbEntity
  8
USP-HID
100
AcDbLine
 10
0.9630000000000009
 20
3.651999999999973
 30
0.0
 11
0.9229999999999982
 21
3.651999999999973
 31
0.0
  0
LINE
  5
144
100
AcDbEntity
  8
USP-GEO
100
AcDbLine
 10
0.9630000000000036
 20
3.667139095030602
 30
0.0
 11
0.9630000000000027
 21
3.525717738793292
 31
0.0
  0
LINE
  5
145
100
AcDbEntity
  8
USP-GEO
100
AcDbLine
 10
0.9230000000000044
 20
3.667139095030602
 30
0.0
 11
0.9230000000000035
 21
3.525717738793291
 31
0.0
  0
LINE
  5
146
100
AcDbEntity
  8
USP-HID
100
AcDbLine
 10
0.9630000000000018
 20
3.815999999999973
 30
0.0
 11
0.9229999999999991
 21
3.815999999999973
 31
0.0
  0
LINE
  5
147
100
AcDbEntity
  8
USP-GEO
100
AcDbLine
 10
0.9630000000000018
 20
3.942875026318663
 30
0.0
 11
0.9630000000000027
 21
3.801453670081354
 31
0.0
  0
LINE
  5
148
100
AcDbEntity
  8
USP-GEO
100
AcDbLine
 10
0.9230000000000027
 20
3.942875026318663
 30
0.0
 11
0.9230000000000035
 21
3.801453670081354
 31
0.0
  0
CIRCLE
  5
149
100
AcDbEntity
  8
USP-GEO
100
AcDbCircle
 10
0.4999999999999983
 20
4.933999999999961
 30
0.0
 40
0.082
  0
LINE
  5
14A
100
AcDbEntity
  8
USP-GEO
100
AcDbLine
 10
0.0585786437626919
 20
4.904781636805303
 30
0.0
 11
0.2535147457506692
 21
5.09971773879328
 31
0.0
  0
LINE
  5
14B
100
AcDbEntity
  8
USP-GEO
100
AcDbLine
 10
-0.0000000000000027
 20
4.279232484543924
 30
0.0
 11
-0.0000000000000009
 21
4.763360280567995
 31
0.0
  0
ARC
  5
14C
100
AcDbEntity
  8
USP-GEO
100
AcDbCircle
 10
0.2000000000000019
 20
4.279232484543925
 30
0.0
 40
0.2
100
AcDbArc
 50
180.0
 51
225.0000000000001
  0
ARC
  5
14D
100
AcDbEntity
  8
USP-GEO
100
AcDbCircle
 10
0.2000000000000011
 20
4.763360280567994
 30
0.0
 40
0.2
100
AcDbArc
 50
134.9999999999998
 51
180.0
  0
CIRCLE
  5
14E
100
AcDbEntity
  8
USP-GEO
100
AcDbCircle
 10
0.2999999999999998
 20
4.291999999999966
 30
0.0
 40
0.082
  0
LINE
  5
14F
100
AcDbEntity
  8
USP-GEO
100
AcDbLine
 10
0.253514745750663
 20
5.516875026318643
 30
0.0
 11
0.0585786437626927
 21
5.711811128306614
 31
0.0
  0
ARC
  5
150
100
AcDbEntity
  8
USP-GEO
100
AcDbCircle
 10
0.2000000000000019
 20
5.853232484543923
 30
0.0
 40
0.2
100
AcDbArc
 50
180.0
 51
224.9999999999999
  0
LINE
  5
151
100
AcDbEntity
  8
USP-GEO
100
AcDbLine
 10
0.3120933895133628
 20
5.241139095030612
 30
0.0
 11
0.3120933895133486
 21
5.375453670081363
 31
0.0
  0
ARC
  5
152
100
AcDbEntity
  8
USP-GEO
100
AcDbCircle
 10
0.1120933895133609
 20
5.24113909503059
 30
0.0
 40
0.2
100
AcDbArc
 50
314.9999999999999
 51
0.0
  0
ARC
  5
153
100
AcDbEntity
  8
USP-GEO
100
AcDbCircle
 10
0.11209338951336
 20
5.375453670081341
 30
0.0
 40
0.2
100
AcDbArc
 50
0.0
 51
45.00000000000002
  0
CIRCLE
  5
154
100
AcDbEntity
  8
USP-GEO
100
AcDbCircle
 10
0.2999999999999989
 20
5.864999999999966
 30
0.0
 40
0.082
  0
LINE
  5
155
100
AcDbEntity
  8
USP-GEO
100
AcDbLine
 10
0.9630000000000027
 20
5.099717738793295
 30
0.0
 11
0.9630000000000027
 21
4.904781636805313
 31
0.0
  0
LINE
  5
156
100
AcDbEntity
  8
USP-GEO
100
AcDbLine
 10
0.9230000000000035
 20
5.099717738793295
 30
0.0
 11
0.9230000000000035
 21
4.904781636805313
 31
0.0
  0
LINE
  5
157
100
AcDbEntity
  8
USP-GEO
100
AcDbLine
 10
0.9630000000000018
 20
4.763360280568001
 30
0.0
 11
0.9630000000000018
 21
4.27923248454393
 31
0.0
  0
LINE
  5
158
100
AcDbEntity
  8
USP-GEO
100
AcDbLine
 10
0.9230000000000027
 20
4.763360280568008
 30
0.0
 11
0.9230000000000027
 21
4.279232484543936
 31
0.0
  0
LINE
  5
159
100
AcDbEntity
  8
USP-GEO
100
AcDbLine
 10
0.9630000000000018
 20
4.137811128306627
 30
0.0
 11
0.9630000000000009
 21
4.279232484543936
 31
0.0
  0
LINE
  5
15A
100
AcDbEntity
  8
USP-GEO
100
AcDbLine
 10
0.9230000000000018
 20
4.279232484543936
 30
0.0
 11
0.9230000000000027
 21
4.137811128306627
 31
0.0
  0
LINE
  5
15B
100
AcDbEntity
  8
USP-HID
100
AcDbLine
 10
0.9630000000000009
 20
4.231749999999969
 30
0.0
 11
0.9229999999999982
 21
4.231749999999969
 31
0.0
  0
LINE
  5
15C
100
AcDbEntity
  8
USP-HID
100
AcDbLine
 10
0.9630000000000009
 20
4.544249999999969
 30
0.0
 11
0.9229999999999982
 21
4.544249999999969
 31
0.0
  0
LINE
  5
15D
100
AcDbEntity
  8
USP-GEO
100
AcDbLine
 10
0.9630000000000009
 20
4.763360280568004
 30
0.0
 11
0.9630000000000018
 21
4.904781636805314
 31
0.0
  0
LINE
  5
15E
100
AcDbEntity
  8
USP-GEO
100
AcDbLine
 10
0.9230000000000027
 20
4.904781636805315
 30
0.0
 11
0.9230000000000018
 21
4.763360280568004
 31
0.0
  0
LINE
  5
15F
100
AcDbEntity
  8
USP-GEO
100
AcDbLine
 10
0.9630000000000018
 20
5.516875026318659
 30
0.0
 11
0.9630000000000018
 21
5.711811128306624
 31
0.0
  0
LINE
  5
160
100
AcDbEntity
  8
USP-GEO
100
AcDbLine
 10
0.9230000000000027
 20
5.711811128306625
 30
0.0
 11
0.9230000000000027
 21
5.516875026318659
 31
0.0
  0
LINE
  5
161
100
AcDbEntity
  8
USP-GEO
100
AcDbLine
 10
0.9630000000000009
 20
5.375453670081377
 30
0.0
 11
0.9630000000000009
 21
5.241139095030625
 31
0.0
  0
LINE
  5
162
100
AcDbEntity
  8
USP-GEO
100
AcDbLine
 10
0.9230000000000018
 20
5.375453670081377
 30
0.0
 11
0.9230000000000018
 21
5.241139095030625
 31
0.0
  0
LINE
  5
163
100
AcDbEntity
  8
USP-HID
100
AcDbLine
 10
0.9630000000000009
 20
5.225999999999971
 30
0.0
 11
0.923
 21
5.225999999999971
 31
0.0
  0
LINE
  5
164
100
AcDbEntity
  8
USP-GEO
100
AcDbLine
 10
0.9630000000000018
 20
5.241139095030607
 30
0.0
 11
0.9630000000000009
 21
5.099717738793296
 31
0.0
  0
LINE
  5
165
100
AcDbEntity
  8
USP-GEO
100
AcDbLine
 10
0.9230000000000035
 20
5.241139095030607
 30
0.0
 11
0.9230000000000027
 21
5.099717738793296
 31
0.0
  0
LINE
  5
166
100
AcDbEntity
  8
USP-HID
100
AcDbLine
 10
0.9630000000000009
 20
5.389999999999971
 30
0.0
 11
0.923
 21
5.389999999999971
 31
0.0
  0
LINE
  5
167
100
AcDbEntity
  8
USP-GEO
100
AcDbLine
 10
0.9630000000000009
 20
5.516875026318661
 30
0.0
 11
0.9630000000000018
 21
5.375453670081352
 31
0.0
  0
LINE
  5
168
100
AcDbEntity
  8
USP-GEO
100
AcDbLine
 10
0.9230000000000027
 20
5.516875026318668
 30
0.0
 11
0.9230000000000035
 21
5.375453670081359
 31
0.0
  0
LINE
  5
169
100
AcDbEntity
  8
USP-GEO
100
AcDbLine
 10
0.9630000000000018
 20
5.711811128306624
 30
0.0
 11
0.9630000000000009
 21
5.853232484543934
 31
0.0
  0
LINE
  5
16A
100
AcDbEntity
  8
USP-GEO
100
AcDbLine
 10
0.9230000000000018
 20
5.853232484543934
 30
0.0
 11
0.9230000000000027
 21
5.711811128306625
 31
0.0
  0
LINE
  5
16B
100
AcDbEntity
  8
USP-GEO
100
AcDbLine
 10
2.564999999999997
 20
3.94154632991858
 30
0.0
 11
2.564999999999997
 21
4.075860904969331
 31
0.0
  0
LINE
  5
16C
100
AcDbEntity
  8
USP-GEO
100
AcDbLine
 10
3.175906610486634
 20
4.075860904969339
 30
0.0
 11
3.175906610486649
 21
3.941546329918587
 31
0.0
  0
LINE
  5
16D
100
AcDbEntity
  8
USP-GEO
100
AcDbLine
 10
2.524999999999998
 20
3.94154632991858
 30
0.0
 11
2.524999999999998
 21
4.075860904969331
 31
0.0
  0
LINE
  5
16E
100
AcDbEntity
  8
USP-HID
100
AcDbLine
 10
2.524999999999998
 20
2.403999999999974
 30
0.0
 11
2.564999999999997
 21
2.403999999999974
 31
0.0
  0
LINE
  5
16F
100
AcDbEntity
  8
USP-HID
100
AcDbLine
 10
2.524999999999998
 20
2.239999999999974
 30
0.0
 11
2.564999999999999
 21
2.239999999999974
 31
0.0
  0
LINE
  5
170
100
AcDbEntity
  8
USP-HID
100
AcDbLine
 10
2.524999999999996
 20
3.926999999999972
 30
0.0
 11
2.564999999999997
 21
3.926999999999972
 31
0.0
  0
LINE
  5
171
100
AcDbEntity
  8
USP-GEO
100
AcDbLine
 10
2.524999999999996
 20
2.866639719431944
 30
0.0
 11
2.524999999999996
 21
3.463767515456011
 31
0.0
  0
LINE
  5
172
100
AcDbEntity
  8
USP-GEO
100
AcDbLine
 10
2.524999999999998
 20
2.254546329918582
 30
0.0
 11
2.524999999999998
 21
2.388860904969334
 31
0.0
  0
LINE
  5
173
100
AcDbEntity
  8
USP-GEO
100
AcDbLine
 10
2.524999999999998
 20
2.1131249736813
 30
0.0
 11
2.524999999999998
 21
1.918188871693327
 31
0.0
  0
LINE
  5
174
100
AcDbEntity
  8
USP-GEO
100
AcDbLine
 10
2.524999999999998
 20
2.113124973681289
 30
0.0
 11
2.524999999999998
 21
2.2545463299186
 31
0.0
  0
LINE
  5
175
100
AcDbEntity
  8
USP-GEO
100
AcDbLine
 10
2.524999999999998
 20
2.530282261206664
 30
0.0
 11
2.524999999999998
 21
2.725218363194637
 31
0.0
  0
LINE
  5
176
100
AcDbEntity
  8
USP-GEO
100
AcDbLine
 10
2.524999999999998
 20
2.388860904969359
 30
0.0
 11
2.524999999999998
 21
2.530282261206667
 31
0.0
  0
LINE
  5
177
100
AcDbEntity
  8
USP-GEO
100
AcDbLine
 10
2.524999999999998
 20
2.866639719431947
 30
0.0
 11
2.524999999999998
 21
2.725218363194638
 31
0.0
  0
LINE
  5
178
100
AcDbEntity
  8
USP-GEO
100
AcDbLine
 10
2.524999999999996
 20
3.800124973681299
 30
0.0
 11
2.524999999999996
 21
3.605188871693325
 31
0.0
  0
LINE
  5
179
100
AcDbEntity
  8
USP-GEO
100
AcDbLine
 10
2.524999999999998
 20
3.605188871693327
 30
0.0
 11
2.524999999999998
 21
3.463767515456016
 31
0.0
  0
LINE
  5
17A
100
AcDbEntity
  8
USP-GEO
100
AcDbLine
 10
2.524999999999998
 20
3.800124973681294
 30
0.0
 11
2.524999999999998
 21
3.941546329918605
 31
0.0
  0
CIRCLE
  5
17B
100
AcDbEntity
  8
USP-GEO
100
AcDbCircle
 10
3.188
 20
2.83399999999996
 30
0.0
 40
0.082
  0
LINE
  5
17C
100
AcDbEntity
  8
USP-GEO
100
AcDbLine
 10
2.564999999999997
 20
2.866639719431944
 30
0.0
 11
2.564999999999997
 21
3.463767515456011
 31
0.0
  0
LINE
  5
17D
100
AcDbEntity
  8
USP-GEO
100
AcDbLine
 10
2.564999999999999
 20
2.254546329918582
 30
0.0
 11
2.564999999999999
 21
2.388860904969334
 31
0.0
  0
LINE
  5
17E
100
AcDbEntity
  8
USP-GEO
100
AcDbLine
 10
2.564999999999999
 20
1.918188871693327
 30
0.0
 11
2.564999999999999
 21
2.1131249736813
 31
0.0
  0
LINE
  5
17F
100
AcDbEntity
  8
USP-GEO
100
AcDbLine
 10
2.564999999999999
 20
2.113124973681289
 30
0.0
 11
2.564999999999999
 21
2.2545463299186
 31
0.0
  0
LINE
  5
180
100
AcDbEntity
  8
USP-GEO
100
AcDbLine
 10
2.564999999999999
 20
2.530282261206664
 30
0.0
 11
2.564999999999999
 21
2.725218363194637
 31
0.0
  0
LINE
  5
181
100
AcDbEntity
  8
USP-GEO
100
AcDbLine
 10
2.564999999999997
 20
2.388860904969359
 30
0.0
 11
2.564999999999997
 21
2.530282261206667
 31
0.0
  0
LINE
  5
182
100
AcDbEntity
  8
USP-GEO
100
AcDbLine
 10
2.564999999999997
 20
2.725218363194637
 30
0.0
 11
2.564999999999997
 21
2.866639719431947
 31
0.0
  0
LINE
  5
183
100
AcDbEntity
  8
USP-GEO
100
AcDbLine
 10
3.175906610486636
 20
2.388860904969334
 30
0.0
 11
3.17590661048665
 21
2.254546329918582
 31
0.0
  0
LINE
  5
184
100
AcDbEntity
  8
USP-GEO
100
AcDbLine
 10
3.23448525424934
 20
2.113124973681277
 30
0.0
 11
3.4294213562373
 21
1.918188871693316
 31
0.0
  0
ARC
  5
185
100
AcDbEntity
  8
USP-GEO
100
AcDbCircle
 10
3.375906610486639
 20
2.254546329918582
 30
0.0
 40
0.2000000000000001
100
AcDbArc
 50
180.0
 51
225.0000000000014
  0
LINE
  5
186
100
AcDbEntity
  8
USP-GEO
100
AcDbLine
 10
3.429421356237304
 20
2.725218363194619
 30
0.0
 11
3.234485254249335
 21
2.53028226120665
 31
0.0
  0
ARC
  5
187
100
AcDbEntity
  8
USP-GEO
100
AcDbCircle
 10
3.375906610486639
 20
2.388860904969334
 30
0.0
 40
0.2000000000000001
100
AcDbArc
 50
134.999999999997
 51
180.0
  0
LINE
  5
188
100
AcDbEntity
  8
USP-GEO
100
AcDbLine
 10
2.564999999999997
 20
3.605188871693324
 30
0.0
 11
2.564999999999997
 21
3.800124973681299
 31
0.0
  0
LINE
  5
189
100
AcDbEntity
  8
USP-GEO
100
AcDbLine
 10
2.564999999999999
 20
3.463767515456016
 30
0.0
 11
2.564999999999999
 21
3.605188871693327
 31
0.0
  0
LINE
  5
18A
100
AcDbEntity
  8
USP-GEO
100
AcDbLine
 10
2.564999999999997
 20
3.800124973681294
 30
0.0
 11
2.564999999999997
 21
3.941546329918605
 31
0.0
  0
LINE
  5
18B
100
AcDbEntity
  8
USP-GEO
100
AcDbLine
 10
3.234485254249339
 20
3.800124973681283
 30
0.0
 11
3.4294213562373
 21
3.605188871693322
 31
0.0
  0
ARC
  5
18C
100
AcDbEntity
  8
USP-GEO
100
AcDbCircle
 10
3.375906610486639
 20
3.941546329918587
 30
0.0
 40
0.2000000000000001
100
AcDbArc
 50
180.0
 51
225.0000000000008
  0
LINE
  5
18D
100
AcDbEntity
  8
USP-HID
100
AcDbLine
 10
2.524999999999996
 20
4.090999999999971
 30
0.0
 11
2.564999999999997
 21
4.090999999999971
 31
0.0
  0
LINE
  5
18E
100
AcDbEntity
  8
USP-HID
100
AcDbLine
 10
2.524999999999996
 20
5.665999999999974
 30
0.0
 11
2.564999999999997
 21
5.665999999999974
 31
0.0
  0
LINE
  5
18F
100
AcDbEntity
  8
USP-HID
100
AcDbLine
 10
2.524999999999996
 20
5.501999999999974
 30
0.0
 11
2.564999999999999
 21
5.501999999999974
 31
0.0
  0
LINE
  5
190
100
AcDbEntity
  8
USP-HID
100
AcDbLine
 10
2.524999999999995
 20
4.544249999999962
 30
0.0
 11
2.564999999999997
 21
4.544249999999962
 31
0.0
  0
LINE
  5
191
100
AcDbEntity
  8
USP-HID
100
AcDbLine
 10
2.524999999999996
 20
4.231749999999962
 30
0.0
 11
2.564999999999997
 21
4.231749999999962
 31
0.0
  0
LINE
  5
192
100
AcDbEntity
  8
USP-GEO
100
AcDbLine
 10
2.524999999999996
 20
4.553639719431942
 30
0.0
 11
2.524999999999996
 21
5.038767515456011
 31
0.0
  0
LINE
  5
193
100
AcDbEntity
  8
USP-GEO
100
AcDbLine
 10
2.524999999999998
 20
4.553639719431945
 30
0.0
 11
2.524999999999998
 21
4.412218363194637
 31
0.0
  0
LINE
  5
194
100
AcDbEntity
  8
USP-GEO
100
AcDbLine
 10
2.524999999999996
 20
4.075860904969349
 30
0.0
 11
2.524999999999996
 21
4.217282261206658
 31
0.0
  0
LINE
  5
195
100
AcDbEntity
  8
USP-GEO
100
AcDbLine
 10
2.524999999999996
 20
4.217282261206662
 30
0.0
 11
2.524999999999996
 21
4.412218363194636
 31
0.0
  0
LINE
  5
196
100
AcDbEntity
  8
USP-GEO
100
AcDbLine
 10
2.524999999999996
 20
5.516546329918583
 30
0.0
 11
2.524999999999996
 21
5.650860904969333
 31
0.0
  0
LINE
  5
197
100
AcDbEntity
  8
USP-GEO
100
AcDbLine
 10
2.524999999999996
 20
5.375124973681295
 30
0.0
 11
2.524999999999996
 21
5.180188871693321
 31
0.0
  0
LINE
  5
198
100
AcDbEntity
  8
USP-GEO
100
AcDbLine
 10
2.524999999999998
 20
5.180188871693323
 30
0.0
 11
2.524999999999998
 21
5.038767515456012
 31
0.0
  0
LINE
  5
199
100
AcDbEntity
  8
USP-GEO
100
AcDbLine
 10
2.524999999999998
 20
5.37512497368129
 30
0.0
 11
2.524999999999998
 21
5.5165463299186
 31
0.0
  0
LINE
  5
19A
100
AcDbEntity
  8
USP-GEO
100
AcDbLine
 10
2.524999999999998
 20
5.792282261206658
 30
0.0
 11
2.524999999999998
 21
5.987218363194631
 31
0.0
  0
LINE
  5
19B
100
AcDbEntity
  8
USP-GEO
100
AcDbLine
 10
2.524999999999996
 20
5.650860904969352
 30
0.0
 11
2.524999999999996
 21
5.792282261206661
 31
0.0
  0
CIRCLE
  5
19C
100
AcDbEntity
  8
USP-GEO
100
AcDbCircle
 10
3.187999999999998
 20
4.978999999999956
 30
0.0
 40
0.082
  0
LINE
  5
19D
100
AcDbEntity
  8
USP-GEO
100
AcDbLine
 10
2.564999999999997
 20
4.553639719431942
 30
0.0
 11
2.564999999999997
 21
5.038767515456011
 31
0.0
  0
CIRCLE
  5
19E
100
AcDbEntity
  8
USP-GEO
100
AcDbCircle
 10
2.987999999999999
 20
4.358999999999959
 30
0.0
 40
0.082
  0
LINE
  5
19F
100
AcDbEntity
  8
USP-GEO
100
AcDbLine
 10
2.564999999999997
 20
4.412218363194635
 30
0.0
 11
2.564999999999997
 21
4.553639719431945
 31
0.0
  0
LINE
  5
1A0
100
AcDbEntity
  8
USP-GEO
100
AcDbLine
 10
2.564999999999997
 20
4.075860904969349
 30
0.0
 11
2.564999999999997
 21
4.217282261206658
 31
0.0
  0
LINE
  5
1A1
100
AcDbEntity
  8
USP-GEO
100
AcDbLine
 10
2.564999999999997
 20
4.217282261206662
 30
0.0
 11
2.564999999999997
 21
4.412218363194636
 31
0.0
  0
LINE
  5
1A2
100
AcDbEntity
  8
USP-GEO
100
AcDbLine
 10
3.429421356237304
 20
4.412218363194623
 30
0.0
 11
3.234485254249335
 21
4.217282261206655
 31
0.0
  0
ARC
  5
1A3
100
AcDbEntity
  8
USP-GEO
100
AcDbCircle
 10
3.375906610486637
 20
4.075860904969339
 30
0.0
 40
0.2000000000000001
100
AcDbArc
 50
134.9999999999969
 51
180.0
  0
CIRCLE
  5
1A4
100
AcDbEntity
  8
USP-GEO
100
AcDbCircle
 10
2.987999999999999
 20
5.966999999999963
 30
0.0
 40
0.082
  0
LINE
  5
1A5
100
AcDbEntity
  8
USP-GEO
100
AcDbLine
 10
2.564999999999997
 20
5.516546329918583
 30
0.0
 11
2.564999999999997
 21
5.650860904969334
 31
0.0
  0
LINE
  5
1A6
100
AcDbEntity
  8
USP-GEO
100
AcDbLine
 10
2.564999999999997
 20
5.18018887169332
 30
0.0
 11
2.564999999999997
 21
5.375124973681295
 31
0.0
  0
LINE
  5
1A7
100
AcDbEntity
  8
USP-GEO
100
AcDbLine
 10
2.564999999999997
 20
5.038767515456012
 30
0.0
 11
2.564999999999997
 21
5.180188871693322
 31
0.0
  0
LINE
  5
1A8
100
AcDbEntity
  8
USP-GEO
100
AcDbLine
 10
2.564999999999997
 20
5.37512497368129
 30
0.0
 11
2.564999999999997
 21
5.5165463299186
 31
0.0
  0
LINE
  5
1A9
100
AcDbEntity
  8
USP-GEO
100
AcDbLine
 10
2.564999999999997
 20
5.792282261206665
 30
0.0
 11
2.564999999999997
 21
5.987218363194638
 31
0.0
  0
LINE
  5
1AA
100
AcDbEntity
  8
USP-GEO
100
AcDbLine
 10
2.564999999999997
 20
5.650860904969352
 30
0.0
 11
2.564999999999997
 21
5.79228226120666
 31
0.0
  0
LINE
  5
1AB
100
AcDbEntity
  8
USP-GEO
100
AcDbLine
 10
3.175906610486634
 20
5.650860904969334
 30
0.0
 11
3.175906610486649
 21
5.516546329918583
 31
0.0
  0
LINE
  5
1AC
100
AcDbEntity
  8
USP-GEO
100
AcDbLine
 10
3.234485254249339
 20
5.375124973681278
 30
0.0
 11
3.4294213562373
 21
5.180188871693317
 31
0.0
  0
ARC
  5
1AD
100
AcDbEntity
  8
USP-GEO
100
AcDbCircle
 10
3.375906610486637
 20
5.516546329918583
 30
0.0
 40
0.2000000000000001
100
AcDbArc
 50
180.0
 51
225.0000000000008
  0
LINE
  5
1AE
100
AcDbEntity
  8
USP-GEO
100
AcDbLine
 10
3.429421356237304
 20
5.987218363194619
 30
0.0
 11
3.234485254249335
 21
5.792282261206651
 31
0.0
  0
ARC
  5
1AF
100
AcDbEntity
  8
USP-GEO
100
AcDbCircle
 10
3.375906610486637
 20
5.650860904969334
 30
0.0
 40
0.2000000000000001
100
AcDbArc
 50
134.9999999999969
 51
180.0
  0
LINE
  5
1B0
100
AcDbEntity
  8
USP-GEO
100
AcDbLine
 10
3.488000000000003
 20
1.776767515456
 30
0.0
 11
3.488000000000003
 21
1.372842712474586
 31
0.0
  0
LINE
  5
1B1
100
AcDbEntity
  8
USP-GEO
100
AcDbLine
 10
3.487999999999999
 20
3.463767515455998
 30
0.0
 11
3.487999999999999
 21
2.86663971943193
 31
0.0
  0
LINE
  5
1B2
100
AcDbEntity
  8
USP-GEO
100
AcDbLine
 10
3.487999999999997
 20
5.038767515455999
 30
0.0
 11
3.487999999999997
 21
4.553639719431934
 31
0.0
  0
ARC
  5
1B3
100
AcDbEntity
  8
USP-GEO
100
AcDbCircle
 10
3.287999999999996
 20
6.809767515456002
 30
0.0
 40
0.2000000000000001
100
AcDbArc
 50
0.0
 51
45.00000000000285
  0
ARC
  5
1B4
100
AcDbEntity
  8
USP-GEO
100
AcDbCircle
 10
3.287999999999996
 20
7.899639719431931
 30
0.0
 40
0.2000000000000001
100
AcDbArc
 50
314.9999999999992
 51
0.0
  0
LINE
  5
1B5
100
AcDbEntity
  8
USP-GEO
100
AcDbLine
 10
2.564999999999995
 20
8.258999999999964
 30
0.0
 11
3.487999999999997
 21
8.258999999999964
 31
0.0
  0
LINE
  5
1B6
100
AcDbEntity
  8
USP-GEO
100
AcDbLine
 10
0.963
 20
8.258999999999971
 30
0.0
 11
0.963
 21
7.624232484543931
 31
0.0
  0
LINE
  5
1B7
100
AcDbEntity
  8
USP-GEO
100
AcDbLine
 10
-0.0000000000000018
 20
7.624232484543922
 30
0.0
 11
-0.0000000000000018
 21
8.258999999999964
 31
0.0
  0
LINE
  5
1B8
100
AcDbEntity
  8
USP-GEO
100
AcDbLine
 10
0.9230000000000018
 20
8.258999999999971
 30
0.0
 11
0.9230000000000018
 21
7.624232484543931
 31
0.0
  0
LINE
  5
1B9
100
AcDbEntity
  8
USP-HID
100
AcDbLine
 10
0.6890000000000019
 20
6.926717967697207
 30
0.0
 11
0.4910000000000015
 21
6.926717967697214
 31
0.0
  0
LINE
  5
1BA
100
AcDbEntity
  8
USP-HID
100
AcDbLine
 10
0.5965000000000221
 20
7.468991819385363
 30
0.0
 11
0.6890000000000196
 21
7.427574111880431
 31
0.0
  0
LINE
  5
1BB
100
AcDbEntity
  8
USP-GEO
100
AcDbLine
 10
0.6890000000000019
 20
6.915999999999961
 30
0.0
 11
0.4910000000000015
 21
6.915999999999968
 31
0.0
  0
LINE
  5
1BC
100
AcDbEntity
  8
USP-GEO
100
AcDbLine
 10
0.5965000000000238
 20
7.507628852436921
 30
0.0
 11
0.6890000000000223
 21
7.466211144931989
 31
0.0
  0
LINE
  5
1BD
100
AcDbEntity
  8
USP-GEO
100
AcDbLine
 10
0.608793852621103
 20
7.724840402866476
 30
0.0
 11
0.6890000000000019
 21
7.504475823477216
 31
0.0
  0
LINE
  5
1BE
100
AcDbEntity
  8
USP-GEO
100
AcDbLine
 10
0.4910000000000006
 20
6.915999999999963
 30
0.0
 11
0.4910000000000175
 21
7.297629674908741
 31
0.0
  0
LINE
  5
1BF
100
AcDbEntity
  8
USP-GEO
100
AcDbLine
 10
0.312093389513362
 20
7.012139095030612
 30
0.0
 11
0.3120933895133477
 21
7.146453670081364
 31
0.0
  0
LINE
  5
1C0
100
AcDbEntity
  8
USP-GEO
100
AcDbLine
 10
0.0585786437626919
 20
6.675781636805304
 30
0.0
 11
0.2535147457506692
 21
6.870717738793281
 31
0.0
  0
ARC
  5
1C1
100
AcDbEntity
  8
USP-GEO
100
AcDbCircle
 10
0.2000000000000011
 20
6.534360280567995
 30
0.0
 40
0.2
100
AcDbArc
 50
135.0000000000001
 51
180.0
  0
CIRCLE
  5
1C2
100
AcDbEntity
  8
USP-GEO
100
AcDbCircle
 10
0.4999999999999992
 20
6.59299999999996
 30
0.0
 40
0.082
  0
ARC
  5
1C3
100
AcDbEntity
  8
USP-GEO
100
AcDbCircle
 10
0.1120933895133591
 20
7.01213909503059
 30
0.0
 40
0.2
100
AcDbArc
 50
314.9999999999999
 51
0.0
  0
LINE
  5
1C4
100
AcDbEntity
  8
USP-GEO
100
AcDbLine
 10
0.2535147457506612
 20
7.287875026318644
 30
0.0
 11
0.058578643762691
 21
7.482811128306614
 31
0.0
  0
ARC
  5
1C5
100
AcDbEntity
  8
USP-GEO
100
AcDbCircle
 10
0.2000000000000011
 20
7.624232484543924
 30
0.0
 40
0.2
100
AcDbArc
 50
180.0
 51
224.9999999999999
  0
LINE
  5
1C6
100
AcDbEntity
  8
USP-GEO
100
AcDbLine
 10
0.4910000000000006
 20
7.504475823477218
 30
0.0
 11
0.5712061477896633
 21
7.724840402866476
 31
0.0
  0
ARC
  5
1C7
100
AcDbEntity
  8
USP-GEO
100
AcDbCircle
 10
0.1120933895133591
 20
7.146453670081342
 30
0.0
 40
0.2
100
AcDbArc
 50
0.0
 51
44.99999999999983
  0
LINE
  5
1C8
100
AcDbEntity
  8
USP-GEO
100
AcDbLine
 10
0.4910000000000148
 20
7.297629674908747
 30
0.0
 11
0.4910000000000183
 21
7.466211144931996
 31
0.0
  0
LINE
  5
1C9
100
AcDbEntity
  8
USP-HID
100
AcDbLine
 10
0.4910000000000228
 20
7.427574111880431
 30
0.0
 11
0.5835000000000204
 21
7.468991819385356
 31
0.0
  0
LINE
  5
1CA
100
AcDbEntity
  8
USP-GEO
100
AcDbLine
 10
0.4910000000000237
 20
7.466211144931996
 30
0.0
 11
0.5835000000000213
 21
7.507628852436921
 31
0.0
  0
LINE
  5
1CB
100
AcDbEntity
  8
USP-GEO
100
AcDbLine
 10
0.4910000000000024
 20
7.466211144931989
 30
0.0
 11
0.4910000000000024
 21
7.504475823477214
 31
0.0
  0
LINE
  5
1CC
100
AcDbEntity
  8
USP-HID
100
AcDbLine
 10
0.5900000000000203
 20
7.466081385885008
 30
0.0
 11
0.5900000000000221
 21
7.504718418936572
 31
0.0
  0
LINE
  5
1CD
100
AcDbEntity
  8
USP-HID
100
AcDbLine
 10
0.5835000000000204
 20
7.468991819385356
 30
0.0
 11
0.5900000000000212
 21
7.46608138588501
 31
0.0
  0
LINE
  5
1CE
100
AcDbEntity
  8
USP-HID
100
AcDbLine
 10
0.5835000000000222
 20
7.507628852436916
 30
0.0
 11
0.5835000000000204
 21
7.468991819385356
 31
0.0
  0
LINE
  5
1CF
100
AcDbEntity
  8
USP-HID
100
AcDbLine
 10
0.590000000000023
 20
7.466081385885017
 30
0.0
 11
0.5965000000000229
 21
7.468991819385363
 31
0.0
  0
LINE
  5
1D0
100
AcDbEntity
  8
USP-HID
100
AcDbLine
 10
0.5965000000000238
 20
7.507628852436923
 30
0.0
 11
0.5965000000000221
 21
7.468991819385362
 31
0.0
  0
LINE
  5
1D1
100
AcDbEntity
  8
USP-GEO
100
AcDbLine
 10
0.583500000000023
 20
7.507628852436921
 30
0.0
 11
0.590000000000023
 21
7.504718418936574
 31
0.0
  0
LINE
  5
1D2
100
AcDbEntity
  8
USP-GEO
100
AcDbLine
 10
0.5900000000000239
 20
7.504718418936583
 30
0.0
 11
0.5965000000000229
 21
7.507628852436928
 31
0.0
  0
CIRCLE
  5
1D3
100
AcDbEntity
  8
USP-GEO
100
AcDbCircle
 10
0.299999999999998
 20
7.914999999999963
 30
0.0
 40
0.082
  0
ARC
  5
1D4
100
AcDbEntity
  8
USP-GEO
100
AcDbCircle
 10
0.5900000002053841
 20
7.71799999999996
 30
0.0
 40
0.02
100
AcDbArc
 50
20.00000000000145
 51
160.0000000000042
  0
LINE
  5
1D5
100
AcDbEntity
  8
USP-GEO
100
AcDbLine
 10
0.6890000000000019
 20
6.915999999999961
 30
0.0
 11
0.6890000000000187
 21
7.297629674908741
 31
0.0
  0
LINE
  5
1D6
100
AcDbEntity
  8
USP-GEO
100
AcDbLine
 10
0.9630000000000009
 20
7.146453670081378
 30
0.0
 11
0.9630000000000009
 21
7.012139095030626
 31
0.0
  0
LINE
  5
1D7
100
AcDbEntity
  8
USP-GEO
100
AcDbLine
 10
0.9230000000000018
 20
7.146453670081378
 30
0.0
 11
0.9230000000000018
 21
7.012139095030625
 31
0.0
  0
LINE
  5
1D8
100
AcDbEntity
  8
USP-GEO
100
AcDbLine
 10
0.963
 20
6.534360280568005
 30
0.0
 11
0.9630000000000009
 21
6.675781636805315
 31
0.0
  0
LINE
  5
1D9
100
AcDbEntity
  8
USP-GEO
100
AcDbLine
 10
0.9230000000000027
 20
6.675781636805315
 30
0.0
 11
0.9230000000000018
 21
6.534360280568005
 31
0.0
  0
LINE
  5
1DA
100
AcDbEntity
  8
USP-GEO
100
AcDbLine
 10
0.9630000000000018
 20
6.870717738793295
 30
0.0
 11
0.9630000000000018
 21
6.675781636805314
 31
0.0
  0
LINE
  5
1DB
100
AcDbEntity
  8
USP-GEO
100
AcDbLine
 10
0.9230000000000018
 20
6.870717738793295
 30
0.0
 11
0.9230000000000018
 21
6.675781636805314
 31
0.0
  0
LINE
  5
1DC
100
AcDbEntity
  8
USP-HID
100
AcDbLine
 10
0.9630000000000009
 20
6.996999999999972
 30
0.0
 11
0.9229999999999991
 21
6.996999999999972
 31
0.0
  0
LINE
  5
1DD
100
AcDbEntity
  8
USP-GEO
100
AcDbLine
 10
0.9630000000000018
 20
7.012139095030608
 30
0.0
 11
0.9630000000000009
 21
6.870717738793297
 31
0.0
  0
LINE
  5
1DE
100
AcDbEntity
  8
USP-GEO
100
AcDbLine
 10
0.9230000000000027
 20
7.012139095030608
 30
0.0
 11
0.9230000000000018
 21
6.870717738793297
 31
0.0
  0
LINE
  5
1DF
100
AcDbEntity
  8
USP-GEO
100
AcDbLine
 10
0.6890000000000179
 20
7.297629674908746
 30
0.0
 11
0.6890000000000214
 21
7.466211144931996
 31
0.0
  0
LINE
  5
1E0
100
AcDbEntity
  8
USP-GEO
100
AcDbLine
 10
0.689000000000001
 20
7.504475823477214
 30
0.0
 11
0.6890000000000019
 21
7.466211144931989
 31
0.0
  0
LINE
  5
1E1
100
AcDbEntity
  8
USP-GEO
100
AcDbLine
 10
0.963
 20
7.28787502631866
 30
0.0
 11
0.963
 21
7.482811128306625
 31
0.0
  0
LINE
  5
1E2
100
AcDbEntity
  8
USP-GEO
100
AcDbLine
 10
0.9230000000000018
 20
7.482811128306625
 30
0.0
 11
0.9230000000000018
 21
7.28787502631866
 31
0.0
  0
LINE
  5
1E3
100
AcDbEntity
  8
USP-HID
100
AcDbLine
 10
0.963
 20
7.160999999999972
 30
0.0
 11
0.923
 21
7.160999999999972
 31
0.0
  0
LINE
  5
1E4
100
AcDbEntity
  8
USP-GEO
100
AcDbLine
 10
0.9630000000000009
 20
7.287875026318669
 30
0.0
 11
0.9630000000000018
 21
7.14645367008136
 31
0.0
  0
LINE
  5
1E5
100
AcDbEntity
  8
USP-GEO
100
AcDbLine
 10
0.9230000000000018
 20
7.287875026318669
 30
0.0
 11
0.9230000000000027
 21
7.14645367008136
 31
0.0
  0
LINE
  5
1E6
100
AcDbEntity
  8
USP-GEO
100
AcDbLine
 10
0.9630000000000009
 20
7.482811128306623
 30
0.0
 11
0.963
 21
7.624232484543934
 31
0.0
  0
LINE
  5
1E7
100
AcDbEntity
  8
USP-GEO
100
AcDbLine
 10
0.9230000000000009
 20
7.624232484543934
 30
0.0
 11
0.9230000000000018
 21
7.482811128306623
 31
0.0
  0
LINE
  5
1E8
100
AcDbEntity
  8
USP-GEO
100
AcDbLine
 10
-0.0000000000000018
 20
8.258999999999964
 30
0.0
 11
0.923
 21
8.258999999999964
 31
0.0
  0
LINE
  5
1E9
100
AcDbEntity
  8
USP-GEO
100
AcDbLine
 10
0.963
 20
8.258999999999971
 30
0.0
 11
0.9230000000000009
 21
8.258999999999971
 31
0.0
  0
LINE
  5
1EA
100
AcDbEntity
  8
USP-GEO
100
AcDbLine
 10
2.564999999999995
 20
7.899639719431938
 30
0.0
 11
2.564999999999995
 21
8.258999999999971
 31
0.0
  0
LINE
  5
1EB
100
AcDbEntity
  8
USP-GEO
100
AcDbLine
 10
2.524999999999998
 20
7.899639719431938
 30
0.0
 11
2.524999999999998
 21
8.258999999999971
 31
0.0
  0
LINE
  5
1EC
100
AcDbEntity
  8
USP-HID
100
AcDbLine
 10
2.524999999999998
 20
7.436999999999976
 30
0.0
 11
2.564999999999997
 21
7.436999999999976
 31
0.0
  0
LINE
  5
1ED
100
AcDbEntity
  8
USP-HID
100
AcDbLine
 10
2.524999999999996
 20
7.272999999999975
 30
0.0
 11
2.564999999999997
 21
7.272999999999975
 31
0.0
  0
LINE
  5
1EE
100
AcDbEntity
  8
USP-GEO
100
AcDbLine
 10
2.524999999999998
 20
7.146124973681296
 30
0.0
 11
2.524999999999998
 21
6.951188871693322
 31
0.0
  0
LINE
  5
1EF
100
AcDbEntity
  8
USP-GEO
100
AcDbLine
 10
2.524999999999998
 20
6.128639719431944
 30
0.0
 11
2.524999999999998
 21
6.809767515456016
 31
0.0
  0
LINE
  5
1F0
100
AcDbEntity
  8
USP-GEO
100
AcDbLine
 10
2.524999999999998
 20
6.951188871693323
 30
0.0
 11
2.524999999999998
 21
6.809767515456012
 31
0.0
  0
LINE
  5
1F1
100
AcDbEntity
  8
USP-GEO
100
AcDbLine
 10
2.524999999999998
 20
7.563282261206659
 30
0.0
 11
2.524999999999998
 21
7.758218363194632
 31
0.0
  0
LINE
  5
1F2
100
AcDbEntity
  8
USP-GEO
100
AcDbLine
 10
2.524999999999998
 20
7.287546329918576
 30
0.0
 11
2.524999999999998
 21
7.42186090496933
 31
0.0
  0
LINE
  5
1F3
100
AcDbEntity
  8
USP-GEO
100
AcDbLine
 10
2.524999999999998
 20
7.146124973681291
 30
0.0
 11
2.524999999999998
 21
7.287546329918601
 31
0.0
  0
LINE
  5
1F4
100
AcDbEntity
  8
USP-GEO
100
AcDbLine
 10
2.524999999999998
 20
7.421860904969353
 30
0.0
 11
2.524999999999998
 21
7.56328226120666
 31
0.0
  0
LINE
  5
1F5
100
AcDbEntity
  8
USP-GEO
100
AcDbLine
 10
2.524999999999998
 20
7.899639719431942
 30
0.0
 11
2.524999999999998
 21
7.758218363194634
 31
0.0
  0
LINE
  5
1F6
100
AcDbEntity
  8
USP-GEO
100
AcDbLine
 10
2.996999999999994
 20
6.915999999999963
 30
0.0
 11
2.996999999999978
 21
7.297629674908742
 31
0.0
  0
LINE
  5
1F7
100
AcDbEntity
  8
USP-GEO
100
AcDbLine
 10
2.798999999999995
 20
6.91599999999996
 30
0.0
 11
2.798999999999979
 21
7.297629674908741
 31
0.0
  0
LINE
  5
1F8
100
AcDbEntity
  8
USP-GEO
100
AcDbLine
 10
2.564999999999997
 20
6.951188871693329
 30
0.0
 11
2.564999999999997
 21
7.146124973681303
 31
0.0
  0
LINE
  5
1F9
100
AcDbEntity
  8
USP-GEO
100
AcDbLine
 10
3.234485254249337
 20
7.146124973681279
 30
0.0
 11
3.429421356237298
 21
6.951188871693318
 31
0.0
  0
LINE
  5
1FA
100
AcDbEntity
  8
USP-GEO
100
AcDbLine
 10
2.564999999999997
 20
6.128639719431944
 30
0.0
 11
2.564999999999997
 21
6.809767515456017
 31
0.0
  0
LINE
  5
1FB
100
AcDbEntity
  8
USP-GEO
100
AcDbLine
 10
2.564999999999997
 20
6.809767515456012
 30
0.0
 11
2.564999999999997
 21
6.951188871693323
 31
0.0
  0
LINE
  5
1FC
100
AcDbEntity
  8
USP-HID
100
AcDbLine
 10
2.798999999999994
 20
6.926717967697207
 30
0.0
 11
2.996999999999994
 21
6.926717967697214
 31
0.0
  0
LINE
  5
1FD
100
AcDbEntity
  8
USP-GEO
100
AcDbLine
 10
2.798999999999994
 20
6.915999999999961
 30
0.0
 11
2.996999999999994
 21
6.915999999999968
 31
0.0
  0
CIRCLE
  5
1FE
100
AcDbEntity
  8
USP-GEO
100
AcDbCircle
 10
3.187999999999998
 20
6.679999999999964
 30
0.0
 40
0.082
  0
LINE
  5
1FF
100
AcDbEntity
  8
USP-GEO
100
AcDbLine
 10
2.798999999999997
 20
7.504475823477218
 30
0.0
 11
2.879206147378896
 21
7.724840402866476
 31
0.0
  0
LINE
  5
200
100
AcDbEntity
  8
USP-GEO
100
AcDbLine
 10
2.91679385221033
 20
7.724840402866471
 30
0.0
 11
2.996999999999994
 21
7.504475823477214
 31
0.0
  0
LINE
  5
201
100
AcDbEntity
  8
USP-GEO
100
AcDbLine
 10
2.564999999999997
 20
7.563282261206659
 30
0.0
 11
2.564999999999997
 21
7.758218363194631
 31
0.0
  0
LINE
  5
202
100
AcDbEntity
  8
USP-GEO
100
AcDbLine
 10
2.564999999999997
 20
7.287546329918576
 30
0.0
 11
2.564999999999997
 21
7.42186090496933
 31
0.0
  0
LINE
  5
203
100
AcDbEntity
  8
USP-GEO
100
AcDbLine
 10
2.564999999999997
 20
7.146124973681291
 30
0.0
 11
2.564999999999997
 21
7.287546329918601
 31
0.0
  0
LINE
  5
204
100
AcDbEntity
  8
USP-GEO
100
AcDbLine
 10
2.564999999999997
 20
7.421860904969353
 30
0.0
 11
2.564999999999997
 21
7.56328226120666
 31
0.0
  0
LINE
  5
205
100
AcDbEntity
  8
USP-GEO
100
AcDbLine
 10
2.99699999999998
 20
7.297629674908749
 30
0.0
 11
2.996999999999976
 21
7.466211144931996
 31
0.0
  0
LINE
  5
206
100
AcDbEntity
  8
USP-GEO
100
AcDbLine
 10
2.798999999999978
 20
7.297629674908748
 30
0.0
 11
2.798999999999974
 21
7.466211144931996
 31
0.0
  0
LINE
  5
207
100
AcDbEntity
  8
USP-HID
100
AcDbLine
 10
2.897999999999973
 20
7.466081385885019
 30
0.0
 11
2.891499999999972
 21
7.468991819385363
 31
0.0
  0
LINE
  5
208
100
AcDbEntity
  8
USP-GEO
100
AcDbLine
 10
2.897999999999969
 20
7.504718418936576
 30
0.0
 11
2.891499999999968
 21
7.507628852436923
 31
0.0
  0
LINE
  5
209
100
AcDbEntity
  8
USP-HID
100
AcDbLine
 10
2.891499999999973
 20
7.468991819385363
 30
0.0
 11
2.798999999999976
 21
7.427574111880431
 31
0.0
  0
LINE
  5
20A
100
AcDbEntity
  8
USP-HID
100
AcDbLine
 10
2.891499999999972
 20
7.507628852436923
 30
0.0
 11
2.891499999999973
 21
7.468991819385362
 31
0.0
  0
LINE
  5
20B
100
AcDbEntity
  8
USP-GEO
100
AcDbLine
 10
2.891499999999972
 20
7.507628852436928
 30
0.0
 11
2.798999999999972
 21
7.466211144931996
 31
0.0
  0
LINE
  5
20C
100
AcDbEntity
  8
USP-GEO
100
AcDbLine
 10
2.798999999999995
 20
7.466211144931989
 30
0.0
 11
2.798999999999995
 21
7.504475823477214
 31
0.0
  0
LINE
  5
20D
100
AcDbEntity
  8
USP-HID
100
AcDbLine
 10
2.897999999999974
 20
7.466081385885008
 30
0.0
 11
2.897999999999973
 21
7.504718418936571
 31
0.0
  0
LINE
  5
20E
100
AcDbEntity
  8
USP-HID
100
AcDbLine
 10
2.904499999999973
 20
7.507628852436916
 30
0.0
 11
2.904499999999975
 21
7.468991819385355
 31
0.0
  0
LINE
  5
20F
100
AcDbEntity
  8
USP-HID
100
AcDbLine
 10
2.904499999999975
 20
7.468991819385356
 30
0.0
 11
2.897999999999974
 21
7.46608138588501
 31
0.0
  0
LINE
  5
210
100
AcDbEntity
  8
USP-HID
100
AcDbLine
 10
2.996999999999973
 20
7.427574111880431
 30
0.0
 11
2.904499999999975
 21
7.468991819385356
 31
0.0
  0
LINE
  5
211
100
AcDbEntity
  8
USP-GEO
100
AcDbLine
 10
2.904499999999973
 20
7.507628852436921
 30
0.0
 11
2.897999999999973
 21
7.504718418936574
 31
0.0
  0
LINE
  5
212
100
AcDbEntity
  8
USP-GEO
100
AcDbLine
 10
2.996999999999973
 20
7.466211144931996
 30
0.0
 11
2.904499999999973
 21
7.507628852436921
 31
0.0
  0
LINE
  5
213
100
AcDbEntity
  8
USP-GEO
100
AcDbLine
 10
2.996999999999998
 20
7.504475823477214
 30
0.0
 11
2.996999999999998
 21
7.466211144931996
 31
0.0
  0
LINE
  5
214
100
AcDbEntity
  8
USP-GEO
100
AcDbLine
 10
2.564999999999997
 20
7.758218363194634
 30
0.0
 11
2.564999999999997
 21
7.899639719431942
 31
0.0
  0
ARC
  5
215
100
AcDbEntity
  8
USP-GEO
100
AcDbCircle
 10
2.897999999794613
 20
7.71799999999996
 30
0.0
 40
0.02
100
AcDbArc
 50
19.9999999999958
 51
160.0000000000042
  0
LINE
  5
216
100
AcDbEntity
  8
USP-GEO
100
AcDbLine
 10
3.429421356237302
 20
7.75821836319462
 30
0.0
 11
3.234485254249335
 21
7.563282261206651
 31
0.0
  0
LINE
  5
217
100
AcDbEntity
  8
USP-GEO
100
AcDbLine
 10
3.175906610486634
 20
7.421860904969335
 30
0.0
 11
3.175906610486649
 21
7.287546329918583
 31
0.0
  0
ARC
  5
218
100
AcDbEntity
  8
USP-GEO
100
AcDbCircle
 10
3.375906610486637
 20
7.287546329918583
 30
0.0
 40
0.2000000000000001
100
AcDbArc
 50
180.0
 51
225.000000000001
  0
ARC
  5
219
100
AcDbEntity
  8
USP-GEO
100
AcDbCircle
 10
3.375906610486637
 20
7.421860904969335
 30
0.0
 40
0.2000000000000001
100
AcDbArc
 50
134.9999999999964
 51
180.0
  0
CIRCLE
  5
21A
100
AcDbEntity
  8
USP-GEO
100
AcDbCircle
 10
3.187999999999998
 20
7.978999999999963
 30
0.0
 40
0.082
  0
LINE
  5
21B
100
AcDbEntity
  8
USP-GEO
100
AcDbLine
 10
2.524999999999998
 20
8.258999999999971
 30
0.0
 11
2.564999999999997
 21
8.258999999999971
 31
0.0
  0
LINE
  5
21C
100
AcDbEntity
  8
USP-GEO
100
AcDbLine
 10
3.487999999999997
 20
8.258999999999961
 30
0.0
 11
3.487999999999997
 21
7.899639719431931
 31
0.0
  0
LINE
  5
21D
100
AcDbEntity
  8
USP-GEO
100
AcDbLine
 10
3.487999999999997
 20
6.809767515455999
 30
0.0
 11
3.487999999999997
 21
6.12863971943193
 31
0.0
  0
ENDBLK
  5
21F
100
AcDbEntity
  8
0
100
AcDbBlockEnd
  0
BLOCK
  5
293
100
AcDbEntity
  8
0
100
AcDbBlockBegin
  2
JL210_T
 70
     0
 10
0.0
 20
0.0
 30
0.0
  3
JL210_T
  1

  0
TEXT
  5
222
100
AcDbEntity
  8
USP-TXT
100
AcDbText
 10
-0.1934999999999989
 20
-0.8242014187251811
 30
0.0
 40
0.25
  1
JL210 - TOP VIEW
 72
     1
 11
1.744000000000001
 21
-0.8242014187251811
 31
0.0
100
AcDbText
  0
LINE
  5
223
100
AcDbEntity
  8
USP-GEO
100
AcDbLine
 10
2.564999999999997
 20
1.827000000000159
 30
0.0
 11
3.487999999999999
 21
1.827000000000161
 31
0.0
  0
LINE
  5
224
100
AcDbEntity
  8
USP-GEO
100
AcDbLine
 10
2.524999999999998
 20
1.867000000000153
 30
0.0
 11
3.487999999999999
 21
1.867000000000155
 31
0.0
  0
LINE
  5
225
100
AcDbEntity
  8
USP-GEO
100
AcDbLine
 10
1.062999999999996
 20
0.0
 30
0.0
 11
2.425000000000007
 21
0.0000000000000036
 31
0.0
  0
LINE
  5
226
100
AcDbEntity
  8
USP-GEO
100
AcDbLine
 10
1.063
 20
1.5
 30
0.0
 11
2.425000000000006
 21
1.500000000000003
 31
0.0
  0
LINE
  5
227
100
AcDbEntity
  8
USP-GEO
100
AcDbLine
 10
0.9630000000000009
 20
1.867000000000155
 30
0.0
 11
0.9630000000000018
 21
1.250000000000154
 31
0.0
  0
LINE
  5
228
100
AcDbEntity
  8
USP-GEO
100
AcDbLine
 10
0.9230000000000018
 20
1.827000000000154
 30
0.0
 11
0.9230000000000027
 21
1.250000000000154
 31
0.0
  0
ARC
  5
229
100
AcDbEntity
  8
USP-GEO
100
AcDbCircle
 10
0.9630000000000009
 20
1.5
 30
0.0
 40
0.1
100
AcDbArc
 50
269.9999999999998
 51
359.9999999999997
  0
LINE
  5
22A
100
AcDbEntity
  8
USP-GEO
100
AcDbLine
 10
0.963000000000008
 20
0.0707106781186582
 30
0.0
 11
0.9630000000000062
 21
0.9379066104867188
 31
0.0
  0
LINE
  5
22B
100
AcDbEntity
  8
USP-GEO
100
AcDbLine
 10
0.9230000000000071
 20
0.9379066104867082
 30
0.0
 11
0.9230000000000089
 21
0.0707106781186582
 31
0.0
  0
ARC
  5
22C
100
AcDbEntity
  8
USP-GEO
100
AcDbCircle
 10
0.963000000000008
 20
0.0
 30
0.0
 40
0.1
100
AcDbArc
 50
359.9999999999997
 51
89.99999999999984
  0
LINE
  5
22D
100
AcDbEntity
  8
USP-HID
100
AcDbLine
 10
0.963000000000008
 20
0.1000000000000014
 30
0.0
 11
0.9230000000000089
 21
0.1000000000000014
 31
0.0
  0
LINE
  5
22E
100
AcDbEntity
  8
USP-GEO
100
AcDbLine
 10
0.9630000000000089
 20
0.0707106781186582
 30
0.0
 11
0.9230000000000098
 21
0.0707106781186582
 31
0.0
  0
LINE
  5
22F
100
AcDbEntity
  8
USP-GEO
100
AcDbLine
 10
0.9630000000000027
 20
0.9964852542494799
 30
0.0
 11
0.9630000000000018
 21
1.191421356237452
 31
0.0
  0
LINE
  5
230
100
AcDbEntity
  8
USP-GEO
100
AcDbLine
 10
0.9230000000000027
 20
1.191421356237452
 30
0.0
 11
0.9230000000000035
 21
0.9964852542494799
 31
0.0
  0
LINE
  5
231
100
AcDbEntity
  8
USP-HID
100
AcDbLine
 10
0.9630000000000018
 20
1.146300047856414
 30
0.0
 11
0.9230000000000009
 21
1.146300047856414
 31
0.0
  0
LINE
  5
232
100
AcDbEntity
  8
USP-GEO
100
AcDbLine
 10
0.9630000000000027
 20
0.9964852542494657
 30
0.0
 11
0.9630000000000036
 21
0.9379066104867739
 31
0.0
  0
LINE
  5
233
100
AcDbEntity
  8
USP-GEO
100
AcDbLine
 10
0.9230000000000035
 20
0.9964852542494657
 30
0.0
 11
0.9230000000000044
 21
0.9379066104867739
 31
0.0
  0
LINE
  5
234
100
AcDbEntity
  8
USP-GEO
100
AcDbLine
 10
0.9630000000000027
 20
0.9379066104867845
 30
0.0
 11
0.9230000000000035
 21
0.9379066104867845
 31
0.0
  0
LINE
  5
235
100
AcDbEntity
  8
USP-HID
100
AcDbLine
 10
0.9630000000000009
 20
1.399999999999998
 30
0.0
 11
0.9230000000000018
 21
1.399999999999998
 31
0.0
  0
LINE
  5
236
100
AcDbEntity
  8
USP-HID
100
AcDbLine
 10
0.9630000000000018
 20
1.310300047856415
 30
0.0
 11
0.9230000000000009
 21
1.310300047856415
 31
0.0
  0
LINE
  5
237
100
AcDbEntity
  8
USP-HID
100
AcDbLine
 10
0.9630000000000027
 20
1.381750000000081
 30
0.0
 11
0.9230000000000009
 21
1.381750000000081
 31
0.0
  0
LINE
  5
238
100
AcDbEntity
  8
USP-GEO
100
AcDbLine
 10
0.9630000000000027
 20
1.191421356237453
 30
0.0
 11
0.9630000000000018
 21
1.250000000000145
 31
0.0
  0
LINE
  5
239
100
AcDbEntity
  8
USP-GEO
100
AcDbLine
 10
0.9630000000000018
 20
1.250000000000156
 30
0.0
 11
0.9230000000000027
 21
1.250000000000156
 31
0.0
  0
LINE
  5
23A
100
AcDbEntity
  8
USP-GEO
100
AcDbLine
 10
0.9230000000000035
 20
1.250000000000145
 30
0.0
 11
0.9230000000000044
 21
1.191421356237453
 31
0.0
  0
LINE
  5
23B
100
AcDbEntity
  8
USP-HID
100
AcDbLine
 10
0.6890000000000036
 20
1.847000000000129
 30
0.0
 11
0.4910000000000033
 21
1.847000000000125
 31
0.0
  0
LINE
  5
23C
100
AcDbEntity
  8
USP-HID
100
AcDbLine
 10
0.6890000000000036
 20
1.80700000000013
 30
0.0
 11
0.4910000000000033
 21
1.807000000000126
 31
0.0
  0
LINE
  5
23D
100
AcDbEntity
  8
USP-HID
100
AcDbLine
 10
0.4910000000000183
 20
1.611258925896002
 30
0.0
 11
0.6890000000000205
 21
1.611258925896006
 31
0.0
  0
LINE
  5
23E
100
AcDbEntity
  8
USP-GEO
100
AcDbLine
 10
0.5965000000000247
 20
1.821420486254723
 30
0.0
 11
0.6890000000000223
 21
1.666847497513325
 31
0.0
  0
LINE
  5
23F
100
AcDbEntity
  8
USP-GEO
100
AcDbLine
 10
0.5965000000000247
 20
1.811067724450623
 30
0.0
 11
0.6890000000000241
 21
1.656494735709225
 31
0.0
  0
LINE
  5
240
100
AcDbEntity
  8
USP-GEO
100
AcDbLine
 10
0.0
 20
1.827000000000152
 30
0.0
 11
0.9230000000000018
 21
1.827000000000154
 31
0.0
  0
LINE
  5
241
100
AcDbEntity
  8
USP-GEO
100
AcDbLine
 10
0.9630000000000009
 20
1.867000000000153
 30
0.0
 11
0.0
 21
1.867000000000151
 31
0.0
  0
LINE
  5
242
100
AcDbEntity
  8
USP-GEO
100
AcDbLine
 10
0.4910000000000192
 20
1.571258925896001
 30
0.0
 11
0.6890000000000214
 21
1.571258925896005
 31
0.0
  0
LINE
  5
243
100
AcDbEntity
  8
USP-GEO
100
AcDbLine
 10
0.0
 20
1.867000000000153
 30
0.0
 11
0.0
 21
1.827000000000152
 31
0.0
  0
LINE
  5
244
100
AcDbEntity
  8
USP-HID
100
AcDbLine
 10
0.3120933895133611
 20
1.867000000000132
 30
0.0
 11
0.3120933895133611
 21
1.827000000000131
 31
0.0
  0
LINE
  5
245
100
AcDbEntity
  8
USP-HID
100
AcDbLine
 10
0.2180000000000009
 20
1.867000000000146
 30
0.0
 11
0.2180000000000009
 21
1.827000000000147
 31
0.0
  0
LINE
  5
246
100
AcDbEntity
  8
USP-HID
100
AcDbLine
 10
0.3820000000000005
 20
1.867000000000146
 30
0.0
 11
0.3820000000000005
 21
1.827000000000147
 31
0.0
  0
LINE
  5
247
100
AcDbEntity
  8
USP-HID
100
AcDbLine
 10
0.4180000000000011
 20
1.867000000000125
 30
0.0
 11
0.4180000000000011
 21
1.827000000000126
 31
0.0
  0
LINE
  5
248
100
AcDbEntity
  8
USP-GEO
100
AcDbLine
 10
0.4910000000000148
 20
1.666847497513323
 30
0.0
 11
0.4910000000000033
 21
1.827000000000129
 31
0.0
  0
LINE
  5
249
100
AcDbEntity
  8
USP-GEO
100
AcDbLine
 10
0.4910000000000255
 20
1.666847497513323
 30
0.0
 11
0.583500000000023
 21
1.821420486254725
 31
0.0
  0
LINE
  5
24A
100
AcDbEntity
  8
USP-GEO
100
AcDbLine
 10
0.4910000000000255
 20
1.656494735709225
 30
0.0
 11
0.583500000000023
 21
1.811067724450627
 31
0.0
  0
LINE
  5
24B
100
AcDbEntity
  8
USP-GEO
100
AcDbLine
 10
0.4910000000000192
 20
1.571258925896005
 30
0.0
 11
0.491000000000021
 21
1.656494735709221
 31
0.0
  0
LINE
  5
24C
100
AcDbEntity
  8
USP-GEO
100
AcDbLine
 10
0.4910000000000219
 20
1.656494735709221
 30
0.0
 11
0.4910000000000201
 21
1.666847497513323
 31
0.0
  0
LINE
  5
24D
100
AcDbEntity
  8
USP-HID
100
AcDbLine
 10
0.4910000000000033
 20
1.867000000000139
 30
0.0
 11
0.4910000000000033
 21
1.82700000000014
 31
0.0
  0
LINE
  5
24E
100
AcDbEntity
  8
USP-HID
100
AcDbLine
 10
0.5820000000000008
 20
1.867000000000125
 30
0.0
 11
0.5820000000000008
 21
1.827000000000126
 31
0.0
  0
LINE
  5
24F
100
AcDbEntity
  8
USP-GEO
100
AcDbLine
 10
0.5900000000000221
 20
1.810558600559385
 30
0.0
 11
0.5900000000000239
 21
1.800205838755282
 31
0.0
  0
LINE
  5
250
100
AcDbEntity
  8
USP-GEO
100
AcDbLine
 10
0.5835000000000222
 20
1.821420486254723
 30
0.0
 11
0.590000000000023
 21
1.81055860055938
 31
0.0
  0
LINE
  5
251
100
AcDbEntity
  8
USP-GEO
100
AcDbLine
 10
0.5835000000000239
 20
1.811067724450623
 30
0.0
 11
0.5835000000000222
 21
1.821420486254725
 31
0.0
  0
LINE
  5
252
100
AcDbEntity
  8
USP-GEO
100
AcDbLine
 10
0.5835000000000248
 20
1.811067724450621
 30
0.0
 11
0.5900000000000248
 21
1.80020583875528
 31
0.0
  0
LINE
  5
253
100
AcDbEntity
  8
USP-GEO
100
AcDbLine
 10
0.5900000000000248
 20
1.810558600559376
 30
0.0
 11
0.5965000000000247
 21
1.821420486254718
 31
0.0
  0
LINE
  5
254
100
AcDbEntity
  8
USP-GEO
100
AcDbLine
 10
0.5965000000000256
 20
1.811067724450623
 30
0.0
 11
0.5965000000000238
 21
1.821420486254725
 31
0.0
  0
LINE
  5
255
100
AcDbEntity
  8
USP-GEO
100
AcDbLine
 10
0.5900000000000257
 20
1.80020583875528
 30
0.0
 11
0.5965000000000247
 21
1.811067724450619
 31
0.0
  0
LINE
  5
256
100
AcDbEntity
  8
USP-GEO
100
AcDbLine
 10
0.689000000000017
 20
1.666847497513323
 30
0.0
 11
0.6890000000000054
 21
1.827000000000126
 31
0.0
  0
LINE
  5
257
100
AcDbEntity
  8
USP-GEO
100
AcDbLine
 10
0.6890000000000241
 20
1.666847497513323
 30
0.0
 11
0.6890000000000259
 21
1.656494735709221
 31
0.0
  0
LINE
  5
258
100
AcDbEntity
  8
USP-GEO
100
AcDbLine
 10
0.6890000000000214
 20
1.571258925896005
 30
0.0
 11
0.6890000000000232
 21
1.656494735709221
 31
0.0
  0
LINE
  5
259
100
AcDbEntity
  8
USP-HID
100
AcDbLine
 10
0.6890000000000036
 20
1.867000000000139
 30
0.0
 11
0.6890000000000036
 21
1.827000000000138
 31
0.0
  0
LINE
  5
25A
100
AcDbEntity
  8
USP-HID
100
AcDbLine
 10
0.9630000000000045
 20
1.570710678118672
 30
0.0
 11
0.9230000000000053
 21
1.570710678118672
 31
0.0
  0
LINE
  5
25B
100
AcDbEntity
  8
USP-HID
100
AcDbLine
 10
0.9630000000000027
 20
1.694250000000081
 30
0.0
 11
0.9229999999999991
 21
1.694250000000081
 31
0.0
  0
LINE
  5
25C
100
AcDbEntity
  8
USP-HID
100
AcDbLine
 10
0.9230000000000044
 20
1.827000000000005
 30
0.0
 11
0.9230000000000044
 21
1.867000000000004
 31
0.0
  0
LINE
  5
25D
100
AcDbEntity
  8
USP-HID
100
AcDbLine
 10
0.9630000000000036
 20
1.827000000000005
 30
0.0
 11
0.9230000000000044
 21
1.827000000000005
 31
0.0
  0
ARC
  5
25E
100
AcDbEntity
  8
USP-GEO
100
AcDbCircle
 10
2.525000000000007
 20
1.500000000000007
 30
0.0
 40
0.1
100
AcDbArc
 50
179.9999999999998
 51
269.9999999999998
  0
LINE
  5
25F
100
AcDbEntity
  8
USP-GEO
100
AcDbLine
 10
2.564999999999999
 20
1.250000000000156
 30
0.0
 11
2.564999999999997
 21
1.827000000000156
 31
0.0
  0
LINE
  5
260
100
AcDbEntity
  8
USP-GEO
100
AcDbLine
 10
2.525
 20
1.250000000000156
 30
0.0
 11
2.524999999999998
 21
1.867000000000153
 31
0.0
  0
LINE
  5
261
100
AcDbEntity
  8
USP-HID
100
AcDbLine
 10
2.525
 20
1.400000000000005
 30
0.0
 11
2.565000000000001
 21
1.400000000000005
 31
0.0
  0
LINE
  5
262
100
AcDbEntity
  8
USP-HID
100
AcDbLine
 10
2.525000000000003
 20
0.1000000000000014
 30
0.0
 11
2.565000000000004
 21
0.1000000000000014
 31
0.0
  0
LINE
  5
263
100
AcDbEntity
  8
USP-HID
100
AcDbLine
 10
2.525
 20
1.310300047856422
 30
0.0
 11
2.564999999999999
 21
1.310300047856422
 31
0.0
  0
LINE
  5
264
100
AcDbEntity
  8
USP-HID
100
AcDbLine
 10
2.525
 20
1.146300047856421
 30
0.0
 11
2.564999999999999
 21
1.146300047856421
 31
0.0
  0
LINE
  5
265
100
AcDbEntity
  8
USP-HID
100
AcDbLine
 10
2.524999999999998
 20
1.381750000000089
 30
0.0
 11
2.564999999999999
 21
1.381750000000089
 31
0.0
  0
LINE
  5
266
100
AcDbEntity
  8
USP-GEO
100
AcDbLine
 10
2.525000000000003
 20
0.0707106781186795
 30
0.0
 11
2.565000000000004
 21
0.0707106781186795
 31
0.0
  0
LINE
  5
267
100
AcDbEntity
  8
USP-GEO
100
AcDbLine
 10
2.525
 20
0.9379066104867845
 30
0.0
 11
2.564999999999999
 21
0.9379066104867845
 31
0.0
  0
LINE
  5
268
100
AcDbEntity
  8
USP-GEO
100
AcDbLine
 10
2.525
 20
1.250000000000156
 30
0.0
 11
2.564999999999999
 21
1.250000000000156
 31
0.0
  0
LINE
  5
269
100
AcDbEntity
  8
USP-GEO
100
AcDbLine
 10
2.525000000000003
 20
0.0707106781186795
 30
0.0
 11
2.525000000000002
 21
0.9379066104867099
 31
0.0
  0
ARC
  5
26A
100
AcDbEntity
  8
USP-GEO
100
AcDbCircle
 10
2.525000000000009
 20
0.0000000000000071
 30
0.0
 40
0.1
100
AcDbArc
 50
89.99999999999984
 51
179.9999999999998
  0
LINE
  5
26B
100
AcDbEntity
  8
USP-GEO
100
AcDbLine
 10
2.525
 20
0.9964852542494782
 30
0.0
 11
2.525
 21
1.19142135623746
 31
0.0
  0
LINE
  5
26C
100
AcDbEntity
  8
USP-GEO
100
AcDbLine
 10
2.525
 20
0.9379066104867881
 30
0.0
 11
2.525
 21
0.9964852542494799
 31
0.0
  0
LINE
  5
26D
100
AcDbEntity
  8
USP-GEO
100
AcDbLine
 10
2.525
 20
1.250000000000152
 30
0.0
 11
2.525
 21
1.19142135623746
 31
0.0
  0
LINE
  5
26E
100
AcDbEntity
  8
USP-GEO
100
AcDbLine
 10
2.565000000000003
 20
0.0707106781186795
 30
0.0
 11
2.565000000000001
 21
0.9379066104867188
 31
0.0
  0
LINE
  5
26F
100
AcDbEntity
  8
USP-GEO
100
AcDbLine
 10
2.564999999999999
 20
0.9964852542494782
 30
0.0
 11
2.564999999999999
 21
1.19142135623746
 31
0.0
  0
LINE
  5
270
100
AcDbEntity
  8
USP-GEO
100
AcDbLine
 10
2.565000000000001
 20
0.9379066104867881
 30
0.0
 11
2.565000000000001
 21
0.9964852542494799
 31
0.0
  0
LINE
  5
271
100
AcDbEntity
  8
USP-GEO
100
AcDbLine
 10
2.564999999999999
 20
1.19142135623746
 30
0.0
 11
2.564999999999999
 21
1.250000000000152
 31
0.0
  0
LINE
  5
272
100
AcDbEntity
  8
USP-HID
100
AcDbLine
 10
2.525
 20
1.827000000000012
 30
0.0
 11
2.565000000000001
 21
1.827000000000012
 31
0.0
  0
LINE
  5
273
100
AcDbEntity
  8
USP-HID
100
AcDbLine
 10
2.525
 20
1.570710678118658
 30
0.0
 11
2.565000000000001
 21
1.570710678118658
 31
0.0
  0
LINE
  5
274
100
AcDbEntity
  8
USP-HID
100
AcDbLine
 10
2.524999999999998
 20
1.694250000000089
 30
0.0
 11
2.564999999999999
 21
1.694250000000089
 31
0.0
  0
LINE
  5
275
100
AcDbEntity
  8
USP-HID
100
AcDbLine
 10
2.564999999999999
 20
1.867000000000011
 30
0.0
 11
2.564999999999999
 21
1.827000000000012
 31
0.0
  0
LINE
  5
276
100
AcDbEntity
  8
USP-GEO
100
AcDbLine
 10
2.996999999999985
 20
1.66684749751333
 30
0.0
 11
2.996999999999996
 21
1.827000000000134
 31
0.0
  0
LINE
  5
277
100
AcDbEntity
  8
USP-GEO
100
AcDbLine
 10
2.798999999999983
 20
1.66684749751333
 30
0.0
 11
2.798999999999994
 21
1.827000000000129
 31
0.0
  0
LINE
  5
278
100
AcDbEntity
  8
USP-GEO
100
AcDbLine
 10
2.996999999999975
 20
1.666847497513332
 30
0.0
 11
2.904499999999977
 21
1.821420486254732
 31
0.0
  0
LINE
  5
279
100
AcDbEntity
  8
USP-GEO
100
AcDbLine
 10
2.996999999999975
 20
1.656494735709225
 30
0.0
 11
2.904499999999975
 21
1.811067724450627
 31
0.0
  0
LINE
  5
27A
100
AcDbEntity
  8
USP-GEO
100
AcDbLine
 10
2.891499999999975
 20
1.821420486254723
 30
0.0
 11
2.798999999999978
 21
1.666847497513327
 31
0.0
  0
LINE
  5
27B
100
AcDbEntity
  8
USP-GEO
100
AcDbLine
 10
2.891499999999975
 20
1.811067724450625
 30
0.0
 11
2.798999999999976
 21
1.656494735709225
 31
0.0
  0
LINE
  5
27C
100
AcDbEntity
  8
USP-HID
100
AcDbLine
 10
2.798999999999979
 20
1.611258925896013
 30
0.0
 11
2.99699999999998
 21
1.611258925896011
 31
0.0
  0
LINE
  5
27D
100
AcDbEntity
  8
USP-GEO
100
AcDbLine
 10
2.798999999999978
 20
1.571258925896012
 30
0.0
 11
2.996999999999978
 21
1.57125892589601
 31
0.0
  0
LINE
  5
27E
100
AcDbEntity
  8
USP-GEO
100
AcDbLine
 10
2.798999999999978
 20
1.571258925896012
 30
0.0
 11
2.798999999999976
 21
1.656494735709229
 31
0.0
  0
LINE
  5
27F
100
AcDbEntity
  8
USP-GEO
100
AcDbLine
 10
2.798999999999974
 20
1.66684749751333
 30
0.0
 11
2.798999999999974
 21
1.656494735709229
 31
0.0
  0
LINE
  5
280
100
AcDbEntity
  8
USP-GEO
100
AcDbLine
 10
2.99699999999998
 20
1.656494735709229
 30
0.0
 11
2.99699999999998
 21
1.66684749751333
 31
0.0
  0
LINE
  5
281
100
AcDbEntity
  8
USP-GEO
100
AcDbLine
 10
2.99699999999998
 20
1.571258925896012
 30
0.0
 11
2.996999999999978
 21
1.656494735709223
 31
0.0
  0
LINE
  5
282
100
AcDbEntity
  8
USP-HID
100
AcDbLine
 10
2.798999999999995
 20
1.847000000000136
 30
0.0
 11
2.996999999999996
 21
1.847000000000134
 31
0.0
  0
LINE
  5
283
100
AcDbEntity
  8
USP-HID
100
AcDbLine
 10
2.798999999999995
 20
1.80700000000013
 30
0.0
 11
2.996999999999996
 21
1.807000000000128
 31
0.0
  0
LINE
  5
284
100
AcDbEntity
  8
USP-GEO
100
AcDbLine
 10
2.897999999999974
 20
1.810558600559385
 30
0.0
 11
2.891499999999973
 21
1.821420486254726
 31
0.0
  0
LINE
  5
285
100
AcDbEntity
  8
USP-GEO
100
AcDbLine
 10
2.897999999999971
 20
1.80020583875528
 30
0.0
 11
2.89149999999997
 21
1.811067724450621
 31
0.0
  0
LINE
  5
286
100
AcDbEntity
  8
USP-HID
100
AcDbLine
 10
2.798999999999999
 20
1.867000000000146
 30
0.0
 11
2.798999999999999
 21
1.827000000000147
 31
0.0
  0
LINE
  5
287
100
AcDbEntity
  8
USP-GEO
100
AcDbLine
 10
2.891499999999973
 20
1.811067724450623
 30
0.0
 11
2.891499999999975
 21
1.821420486254725
 31
0.0
  0
LINE
  5
288
100
AcDbEntity
  8
USP-HID
100
AcDbLine
 10
2.996999999999998
 20
1.867000000000146
 30
0.0
 11
2.996999999999998
 21
1.827000000000147
 31
0.0
  0
LINE
  5
289
100
AcDbEntity
  8
USP-HID
100
AcDbLine
 10
2.906
 20
1.867000000000118
 30
0.0
 11
2.906
 21
1.827000000000118
 31
0.0
  0
LINE
  5
28A
100
AcDbEntity
  8
USP-GEO
100
AcDbLine
 10
2.897999999999976
 20
1.810558600559385
 30
0.0
 11
2.897999999999974
 21
1.800205838755283
 31
0.0
  0
LINE
  5
28B
100
AcDbEntity
  8
USP-GEO
100
AcDbLine
 10
2.904499999999975
 20
1.81106772445063
 30
0.0
 11
2.897999999999974
 21
1.800205838755287
 31
0.0
  0
LINE
  5
28C
100
AcDbEntity
  8
USP-GEO
100
AcDbLine
 10
2.904499999999975
 20
1.81106772445063
 30
0.0
 11
2.904499999999977
 21
1.821420486254732
 31
0.0
  0
LINE
  5
28D
100
AcDbEntity
  8
USP-GEO
100
AcDbLine
 10
2.904499999999977
 20
1.82142048625473
 30
0.0
 11
2.897999999999976
 21
1.810558600559387
 31
0.0
  0
LINE
  5
28E
100
AcDbEntity
  8
USP-HID
100
AcDbLine
 10
3.070000000000002
 20
1.867000000000118
 30
0.0
 11
3.070000000000002
 21
1.827000000000118
 31
0.0
  0
LINE
  5
28F
100
AcDbEntity
  8
USP-HID
100
AcDbLine
 10
3.105999999999999
 20
1.867000000000153
 30
0.0
 11
3.105999999999999
 21
1.827000000000154
 31
0.0
  0
LINE
  5
290
100
AcDbEntity
  8
USP-HID
100
AcDbLine
 10
3.17590661048664
 20
1.867000000000139
 30
0.0
 11
3.17590661048664
 21
1.82700000000014
 31
0.0
  0
LINE
  5
291
100
AcDbEntity
  8
USP-HID
100
AcDbLine
 10
3.270000000000001
 20
1.867000000000153
 30
0.0
 11
3.270000000000001
 21
1.827000000000154
 31
0.0
  0
LINE
  5
292
100
AcDbEntity
  8
USP-GEO
100
AcDbLine
 10
3.487999999999999
 20
1.86700000000016
 30
0.0
 11
3.487999999999999
 21
1.827000000000161
 31
0.0
  0
ENDBLK
  5
294
100
AcDbEntity
  8
0
100
AcDbBlockEnd
  0
ENDSEC
  0
SECTION
  2
ENTITIES
  0
INSERT
  5
3
100
AcDbEntity
  8
USP
100
AcDbBlockReference
  2
JL210_S
 10
1.140421569223718
 20
0.6978403972441925
 30
0.0
  0
INSERT
  5
E1
100
AcDbEntity
  8
USP
100
AcDbBlockReference
  2
JL210_F
 10
6.268010125297156
 20
0.6978403972441783
 30
0.0
  0
INSERT
  5
220
100
AcDbEntity
  8
USP
100
AcDbBlockReference
  2
JL210_T
 10
6.26801012529715
 20
11.64542345705861
 30
0.0
  0
ENDSEC
  0
SECTION
  2
OBJECTS
  0
DICTIONARY
  5
2A9
102
{ACAD_XDICTIONARY
360
2AA
102
}
100
AcDbDictionary
  3
ACAD_GROUP
350
2A7
  3
ACAD_MLINESTYLE
350
2A8
1001
ACAD
1000
TREAT_AS_HARD
1070
     0
  0
DICTIONARY
  5
A
100
AcDbDictionary
280
     1
1001
ACAD
1000
TREAT_AS_HARD
1070
     1
  0
DICTIONARY
  5
295
100
AcDbDictionary
280
     1
  0
DICTIONARY
  5
299
100
AcDbDictionary
280
     1
  0
DICTIONARY
  5
2AA
100
AcDbDictionary
280
     1
  0
DICTIONARY
  5
2A7
102
{ACAD_REACTORS
330
2A9
102
}
100
AcDbDictionary
1001
ACAD
1000
TREAT_AS_HARD
1070
     0
  0
DICTIONARY
  5
2A8
102
{ACAD_REACTORS
330
2A9
102
}
100
AcDbDictionary
  3
STANDARD
350
2AB
1001
ACAD
1000
TREAT_AS_HARD
1070
     0
  0
MLINESTYLE
  5
2AB
102
{ACAD_REACTORS
330
2A8
102
}
100
AcDbMlineStyle
  2
STANDARD
 70
     0
  3

 62
     0
 51
90.0
 52
90.0
 71
     2
 49
0.5
 62
   256
  6
BYLAYER
 49
-0.5
 62
   256
  6
BYLAYER
  0
ENDSEC
  0
EOF
