  0
SECTION
  2
HEADER
  9
$ACADVER
  1
AC1015
  9
$ACADMAINTVER
 70
    20
  9
$DWGCODEPAGE
  3
ANSI_1252
  9
$INSBASE
 10
0.0
 20
0.0
 30
0.0
  9
$EXTMIN
 10
0.0003661829982491
 20
0.0003805860384674
 30
0.0000000000000093
  9
$EXTMAX
 10
10.58306041189228
 20
12.46796274820968
 30
0.00000000000001
  9
$LIMMIN
 10
0.0
 20
0.0
  9
$LIMMAX
 10
12.0
 20
9.0
  9
$ORTHOMODE
 70
     0
  9
$REGENMODE
 70
     1
  9
$FILLMODE
 70
     1
  9
$QTEXTMODE
 70
     0
  9
$MIRRTEXT
 70
     1
  9
$LTSCALE
 40
1.0
  9
$ATTMODE
 70
     1
  9
$TEXTSIZE
 40
0.25
  9
$TRACEWID
 40
0.05
  9
$TEXTSTYLE
  7
STANDARD
  9
$CLAYER
  8
0
  9
$CELTYPE
  6
BYLAYER
  9
$CECOLOR
 62
   256
  9
$CELTSCALE
 40
1.0
  9
$DISPSILH
 70
     0
  9
$DIMSCALE
 40
1.0
  9
$DIMASZ
 40
0.18
  9
$DIMEXO
 40
0.0625
  9
$DIMDLI
 40
0.38
  9
$DIMRND
 40
0.0
  9
$DIMDLE
 40
0.0
  9
$DIMEXE
 40
0.18
  9
$DIMTP
 40
0.0
  9
$DIMTM
 40
0.0
  9
$DIMTXT
 40
0.18
  9
$DIMCEN
 40
0.09
  9
$DIMTSZ
 40
0.0
  9
$DIMTOL
 70
     0
  9
$DIMLIM
 70
     0
  9
$DIMTIH
 70
     1
  9
$DIMTOH
 70
     1
  9
$DIMSE1
 70
     0
  9
$DIMSE2
 70
     0
  9
$DIMTAD
 70
     0
  9
$DIMZIN
 70
     0
  9
$DIMBLK
  1

  9
$DIMASO
 70
     1
  9
$DIMSHO
 70
     1
  9
$DIMPOST
  1

  9
$DIMAPOST
  1

  9
$DIMALT
 70
     0
  9
$DIMALTD
 70
     2
  9
$DIMALTF
 40
25.4
  9
$DIMLFAC
 40
1.0
  9
$DIMTOFL
 70
     0
  9
$DIMTVP
 40
0.0
  9
$DIMTIX
 70
     0
  9
$DIMSOXD
 70
     0
  9
$DIMSAH
 70
     0
  9
$DIMBLK1
  1

  9
$DIMBLK2
  1

  9
$DIMSTYLE
  2
STANDARD
  9
$DIMCLRD
 70
     0
  9
$DIMCLRE
 70
     0
  9
$DIMCLRT
 70
     0
  9
$DIMTFAC
 40
1.0
  9
$DIMGAP
 40
0.09
  9
$DIMJUST
 70
     0
  9
$DIMSD1
 70
     0
  9
$DIMSD2
 70
     0
  9
$DIMTOLJ
 70
     1
  9
$DIMTZIN
 70
     0
  9
$DIMALTZ
 70
     0
  9
$DIMALTTZ
 70
     0
  9
$DIMUPT
 70
     0
  9
$DIMDEC
 70
     4
  9
$DIMTDEC
 70
     4
  9
$DIMALTU
 70
     2
  9
$DIMALTTD
 70
     2
  9
$DIMTXSTY
  7
STANDARD
  9
$DIMAUNIT
 70
     0
  9
$DIMADEC
 70
     0
  9
$DIMALTRND
 40
0.0
  9
$DIMAZIN
 70
     0
  9
$DIMDSEP
 70
    46
  9
$DIMATFIT
 70
     3
  9
$DIMFRAC
 70
     0
  9
$DIMLDRBLK
  1

  9
$DIMLUNIT
 70
     2
  9
$DIMLWD
 70
    -2
  9
$DIMLWE
 70
    -2
  9
$DIMTMOVE
 70
     0
  9
$LUNITS
 70
     2
  9
$LUPREC
 70
     4
  9
$SKETCHINC
 40
0.1
  9
$FILLETRAD
 40
0.5
  9
$AUNITS
 70
     0
  9
$AUPREC
 70
     0
  9
$MENU
  1
.
  9
$ELEVATION
 40
0.0
  9
$PELEVATION
 40
0.0
  9
$THICKNESS
 40
0.0
  9
$LIMCHECK
 70
     0
  9
$CHAMFERA
 40
0.5
  9
$CHAMFERB
 40
0.5
  9
$CHAMFERC
 40
1.0
  9
$CHAMFERD
 40
0.0
  9
$SKPOLY
 70
     0
  9
$TDCREATE
 40
2451667.537949422
  9
$TDUCREATE
 40
2451667.746282755
  9
$TDUPDATE
 40
2455846.457184514
  9
$TDUUPDATE
 40
2455846.665517847
  9
$TDINDWG
 40
0.2202474190
  9
$TDUSRTIMER
 40
0.2202474190
  9
$USRTIMER
 70
     1
  9
$ANGBASE
 50
0.0
  9
$ANGDIR
 70
     0
  9
$PDMODE
 70
     0
  9
$PDSIZE
 40
0.0
  9
$PLINEWID
 40
0.0
  9
$SPLFRAME
 70
     0
  9
$SPLINETYPE
 70
     6
  9
$SPLINESEGS
 70
     8
  9
$HANDSEED
  5
1AF
  9
$SURFTAB1
 70
     6
  9
$SURFTAB2
 70
     6
  9
$SURFTYPE
 70
     6
  9
$SURFU
 70
     6
  9
$SURFV
 70
     6
  9
$UCSBASE
  2

  9
$UCSNAME
  2

  9
$UCSORG
 10
0.0
 20
0.0
 30
0.0
  9
$UCSXDIR
 10
1.0
 20
0.0
 30
0.0
  9
$UCSYDIR
 10
0.0
 20
1.0
 30
0.0
  9
$UCSORTHOREF
  2

  9
$UCSORTHOVIEW
 70
     0
  9
$UCSORGTOP
 10
0.0
 20
0.0
 30
0.0
  9
$UCSORGBOTTOM
 10
0.0
 20
0.0
 30
0.0
  9
$UCSORGLEFT
 10
0.0
 20
0.0
 30
0.0
  9
$UCSORGRIGHT
 10
0.0
 20
0.0
 30
0.0
  9
$UCSORGFRONT
 10
0.0
 20
0.0
 30
0.0
  9
$UCSORGBACK
 10
0.0
 20
0.0
 30
0.0
  9
$PUCSBASE
  2

  9
$PUCSNAME
  2

  9
$PUCSORG
 10
0.0
 20
0.0
 30
0.0
  9
$PUCSXDIR
 10
1.0
 20
0.0
 30
0.0
  9
$PUCSYDIR
 10
0.0
 20
1.0
 30
0.0
  9
$PUCSORTHOREF
  2

  9
$PUCSORTHOVIEW
 70
     0
  9
$PUCSORGTOP
 10
0.0
 20
0.0
 30
0.0
  9
$PUCSORGBOTTOM
 10
0.0
 20
0.0
 30
0.0
  9
$PUCSORGLEFT
 10
0.0
 20
0.0
 30
0.0
  9
$PUCSORGRIGHT
 10
0.0
 20
0.0
 30
0.0
  9
$PUCSORGFRONT
 10
0.0
 20
0.0
 30
0.0
  9
$PUCSORGBACK
 10
0.0
 20
0.0
 30
0.0
  9
$USERI1
 70
     0
  9
$USERI2
 70
     0
  9
$USERI3
 70
     0
  9
$USERI4
 70
     0
  9
$USERI5
 70
     0
  9
$USERR1
 40
0.0
  9
$USERR2
 40
0.0
  9
$USERR3
 40
0.0
  9
$USERR4
 40
0.0
  9
$USERR5
 40
0.0
  9
$WORLDVIEW
 70
     1
  9
$SHADEDGE
 70
     3
  9
$SHADEDIF
 70
    70
  9
$TILEMODE
 70
     1
  9
$MAXACTVP
 70
    48
  9
$PINSBASE
 10
0.0
 20
0.0
 30
0.0
  9
$PLIMCHECK
 70
     0
  9
$PEXTMIN
 10
1.000000000000000E+20
 20
1.000000000000000E+20
 30
1.000000000000000E+20
  9
$PEXTMAX
 10
-1.000000000000000E+20
 20
-1.000000000000000E+20
 30
-1.000000000000000E+20
  9
$PLIMMIN
 10
0.0
 20
0.0
  9
$PLIMMAX
 10
12.0
 20
9.0
  9
$UNITMODE
 70
     0
  9
$VISRETAIN
 70
     1
  9
$PLINEGEN
 70
     0
  9
$PSLTSCALE
 70
     1
  9
$TREEDEPTH
 70
  3020
  9
$CMLSTYLE
  2
STANDARD
  9
$CMLJUST
 70
     0
  9
$CMLSCALE
 40
1.0
  9
$PROXYGRAPHICS
 70
     1
  9
$MEASUREMENT
 70
     0
  9
$CELWEIGHT
370
    -1
  9
$ENDCAPS
280
     0
  9
$JOINSTYLE
280
     0
  9
$LWDISPLAY
290
     0
  9
$INSUNITS
 70
     0
  9
$HYPERLINKBASE
  1

  9
$STYLESHEET
  1

  9
$XEDIT
290
     1
  9
$CEPSNTYPE
380
     0
  9
$PSTYLEMODE
290
     1
  9
$FINGERPRINTGUID
  2
{C682B099-EBD7-4EDA-9AD2-FFDAEE647FBB}
  9
$VERSIONGUID
  2
{8F058FFA-1351-4C8F-A35F-2C276E793A31}
  9
$EXTNAMES
290
     1
  9
$PSVPSCALE
 40
0.0
  9
$OLESTARTUP
290
     0
  0
ENDSEC
  0
SECTION
  2
CLASSES
  0
CLASS
  1
ACDBDICTIONARYWDFLT
  2
AcDbDictionaryWithDefault
  3
ObjectDBX Classes
 90
        0
280
     1
281
     0
  0
CLASS
  1
ACDBPLACEHOLDER
  2
AcDbPlaceHolder
  3
ObjectDBX Classes
 90
        0
280
     0
281
     0
  0
CLASS
  1
LAYOUT
  2
AcDbLayout
  3
ObjectDBX Classes
 90
        0
280
     0
281
     0
  0
CLASS
  1
DICTIONARYVAR
  2
AcDbDictionaryVar
  3
ObjectDBX Classes
 90
        0
280
     0
281
     0
  0
ENDSEC
  0
SECTION
  2
TABLES
  0
TABLE
  2
VPORT
  5
17C
330
0
100
AcDbSymbolTable
 70
     2
  0
VPORT
  5
1A7
330
17C
100
AcDbSymbolTableRecord
100
AcDbViewportTableRecord
  2
*Active
 70
     0
 10
0.0
 20
0.0
 11
1.0
 21
1.0
 12
10.40119469661512
 22
6.388011361066084
 13
0.0
 23
0.0
 14
0.5
 24
0.5
 15
0.5
 25
0.5
 16
0.0
 26
0.0
 36
1.0
 17
0.0
 27
0.0
 37
0.0
 40
12.86709828006913
 41
2.25531914893617
 42
50.0
 43
0.0
 44
0.0
 50
0.0
 51
0.0
 71
     0
 72
   100
 73
     1
 74
     3
 75
     0
 76
     0
 77
     0
 78
     0
281
     0
 65
     1
110
0.0
120
0.0
130
0.0
111
1.0
121
0.0
131
0.0
112
0.0
122
1.0
132
0.0
 79
     0
146
0.0
  0
ENDTAB
  0
TABLE
  2
LTYPE
  5
175
330
0
100
AcDbSymbolTable
 70
     2
  0
LTYPE
  5
176
102
{ACAD_XDICTIONARY
360
177
102
}
330
175
100
AcDbSymbolTableRecord
100
AcDbLinetypeTableRecord
  2
BYBLOCK
 70
     0
  3

 72
    65
 73
     0
 40
0.0
  0
LTYPE
  5
178
102
{ACAD_XDICTIONARY
360
179
102
}
330
175
100
AcDbSymbolTableRecord
100
AcDbLinetypeTableRecord
  2
BYLAYER
 70
     0
  3

 72
    65
 73
     0
 40
0.0
  0
LTYPE
  5
5
102
{ACAD_XDICTIONARY
360
6
102
}
330
175
100
AcDbSymbolTableRecord
100
AcDbLinetypeTableRecord
  2
CONTINUOUS
 70
     0
  3
Solid line
 72
    65
 73
     0
 40
0.0
  0
LTYPE
  5
14B
330
175
100
AcDbSymbolTableRecord
100
AcDbLinetypeTableRecord
  2
HIDDEN
 70
     0
  3
Hidden __ __ __ __ __ __ __ __ __ __ __ __ __ _
 72
    65
 73
     2
 40
0.375
 49
0.25
 74
     0
 49
-0.125
 74
     0
  0
ENDTAB
  0
TABLE
  2
LAYER
  5
173
330
0
100
AcDbSymbolTable
 70
     5
  0
LAYER
  5
5C
330
173
100
AcDbSymbolTableRecord
100
AcDbLayerTableRecord
  2
0
 70
     0
 62
     7
  6
CONTINUOUS
370
    -3
390
19B
  0
LAYER
  5
4
330
173
100
AcDbSymbolTableRecord
100
AcDbLayerTableRecord
  2
USP
 70
     0
 62
     7
  6
CONTINUOUS
370
    -3
390
19B
  0
LAYER
  5
14A
330
173
100
AcDbSymbolTableRecord
100
AcDbLayerTableRecord
  2
USP-HID
 70
     0
 62
     7
  6
HIDDEN
370
    -3
390
19B
  0
LAYER
  5
D
330
173
100
AcDbSymbolTableRecord
100
AcDbLayerTableRecord
  2
USP-GEO
 70
     0
 62
     7
  6
CONTINUOUS
370
    -3
390
19B
  0
LAYER
  5
9
330
173
100
AcDbSymbolTableRecord
100
AcDbLayerTableRecord
  2
USP-TXT
 70
     0
 62
     7
  6
CONTINUOUS
370
    -3
390
19B
  0
ENDTAB
  0
TABLE
  2
STYLE
  5
174
330
0
100
AcDbSymbolTable
 70
     1
  0
STYLE
  5
A
102
{ACAD_XDICTIONARY
360
B
102
}
330
174
100
AcDbSymbolTableRecord
100
AcDbTextStyleTableRecord
  2
STANDARD
 70
     0
 40
0.0
 41
1.0
 50
0.0
 71
     0
 42
0.25
  3
txt
  4

  0
ENDTAB
  0
TABLE
  2
VIEW
  5
17A
330
0
100
AcDbSymbolTable
 70
     0
  0
ENDTAB
  0
TABLE
  2
UCS
  5
17B
330
0
100
AcDbSymbolTable
 70
     0
  0
ENDTAB
  0
TABLE
  2
APPID
  5
17E
330
0
100
AcDbSymbolTable
 70
     1
  0
APPID
  5
17F
330
17E
100
AcDbSymbolTableRecord
100
AcDbRegAppTableRecord
  2
ACAD
 70
     0
  0
ENDTAB
  0
TABLE
  2
DIMSTYLE
  5
180
330
0
100
AcDbSymbolTable
 70
     1
100
AcDbDimStyleTable
 71
     0
  0
DIMSTYLE
105
189
102
{ACAD_XDICTIONARY
360
18A
102
}
330
180
100
AcDbSymbolTableRecord
100
AcDbDimStyleTableRecord
  2
STANDARD
 70
     0
340
A
  0
ENDTAB
  0
TABLE
  2
BLOCK_RECORD
  5
1
330
0
100
AcDbSymbolTable
 70
     3
  0
BLOCK_RECORD
  5
2
102
{ACAD_XDICTIONARY
360
16A
102
}
330
1
100
AcDbSymbolTableRecord
100
AcDbBlockTableRecord
  2
*MODEL_SPACE
340
1A0
  0
BLOCK_RECORD
  5
16E
102
{ACAD_XDICTIONARY
360
16F
102
}
330
1
100
AcDbSymbolTableRecord
100
AcDbBlockTableRecord
  2
*PAPER_SPACE
340
1A1
  0
BLOCK_RECORD
  5
7
330
1
100
AcDbSymbolTableRecord
100
AcDbBlockTableRecord
  2
JUS28-2_T
340
0
102
{BLKREFS
331
3
102
}
  0
BLOCK_RECORD
  5
5F
330
1
100
AcDbSymbolTableRecord
100
AcDbBlockTableRecord
  2
JUS28-2_F
340
0
102
{BLKREFS
331
5E
102
}
  0
BLOCK_RECORD
  5
110
330
1
100
AcDbSymbolTableRecord
100
AcDbBlockTableRecord
  2
JUS28-2_S
340
0
102
{BLKREFS
331
10F
102
}
  0
ENDTAB
  0
ENDSEC
  0
SECTION
  2
BLOCKS
  0
BLOCK
  5
16C
330
2
100
AcDbEntity
  8
0
100
AcDbBlockBegin
  2
*MODEL_SPACE
 70
     0
 10
0.0
 20
0.0
 30
0.0
  3
*MODEL_SPACE
  1

  0
ENDBLK
  5
16D
330
2
100
AcDbEntity
  8
0
100
AcDbBlockEnd
  0
BLOCK
  5
171
330
16E
100
AcDbEntity
 67
     1
  8
0
100
AcDbBlockBegin
  2
*PAPER_SPACE
 70
     0
 10
0.0
 20
0.0
 30
0.0
  3
*PAPER_SPACE
  1

  0
ENDBLK
  5
172
330
16E
100
AcDbEntity
 67
     1
  8
0
100
AcDbBlockEnd
  0
BLOCK
  5
5B
330
7
100
AcDbEntity
  8
0
100
AcDbBlockBegin
  2
JUS28-2_T
 70
     0
 10
0.0
 20
0.0
 30
0.0
  3
JUS28-2_T
  1

  0
TEXT
  5
8
330
7
100
AcDbEntity
  8
USP-TXT
100
AcDbText
 10
0.3603000000000098
 20
-0.8105342321866544
 30
0.0
 40
0.25
  1
JUS28-2 - TOP VIEW
 72
     1
 11
2.610300000000009
 21
-0.8105342321866544
 31
0.0
100
AcDbText
  0
ARC
  5
C
330
7
100
AcDbEntity
  8
USP-GEO
100
AcDbCircle
 10
3.516550000000009
 20
0.03125
 30
0.0
 40
0.03125
100
AcDbArc
 50
90.0
 51
179.9999999999935
  0
ARC
  5
E
330
7
100
AcDbEntity
  8
USP-GEO
100
AcDbCircle
 10
3.516550000000009
 20
1.968750000000014
 30
0.0
 40
0.03125
100
AcDbArc
 50
179.9999999999935
 51
270.0
  0
LINE
  5
F
330
7
100
AcDbEntity
  8
USP-GEO
100
AcDbLine
 10
-0.0000000000000142
 20
2.297799999999995
 30
0.0
 11
1.047800000000009
 21
2.297799999999995
 31
0.0
  0
LINE
  5
10
330
7
100
AcDbEntity
  8
USP-GEO
100
AcDbLine
 10
1.0
 20
2.25
 30
0.0
 11
0.0
 21
2.25
 31
0.0
  0
LINE
  5
11
330
7
100
AcDbEntity
  8
USP-GEO
100
AcDbLine
 10
-0.0000000000000142
 20
2.250000000000014
 30
0.0
 11
-0.0000000000000142
 21
2.297800000000009
 31
0.0
  0
LINE
  5
12
330
7
100
AcDbEntity
  8
USP-GEO
100
AcDbLine
 10
1.735300000000009
 20
2.000000000000014
 30
0.0
 11
3.485300000000009
 21
2.000000000000014
 31
0.0
  0
LINE
  5
13
330
7
100
AcDbEntity
  8
USP-GEO
100
AcDbLine
 10
3.485300000000009
 20
0.0
 30
0.0
 11
1.735300000000009
 21
0.0
 31
0.0
  0
ARC
  5
14
330
7
100
AcDbEntity
  8
USP-GEO
100
AcDbCircle
 10
1.047800000000009
 20
1.15673432041008
 30
0.0
 40
0.2977999999999987
100
AcDbArc
 50
99.23652345544919
 51
209.0169729401735
  0
LINE
  5
15
330
7
100
AcDbEntity
  8
USP-GEO
100
AcDbLine
 10
1.000000000000014
 20
1.25
 30
0.0
 11
1.000000000000014
 21
1.066666666666677
 31
0.0
  0
LINE
  5
16
330
7
100
AcDbEntity
  8
USP-GEO
100
AcDbLine
 10
1.047800000000009
 20
1.25
 30
0.0
 11
1.047800000000009
 21
1.066666666666677
 31
0.0
  0
LINE
  5
17
330
7
100
AcDbEntity
  8
USP-GEO
100
AcDbLine
 10
1.485299999999995
 20
0.0000000000000142
 30
0.0
 11
1.047800000000009
 21
0.0000000000000142
 31
0.0
  0
ARC
  5
18
330
7
100
AcDbEntity
  8
USP-GEO
100
AcDbCircle
 10
1.047800000000009
 20
1.15673432041008
 30
0.0
 40
0.2977999999999987
100
AcDbArc
 50
240.9830270598272
 51
260.7634765445508
  0
LINE
  5
19
330
7
100
AcDbEntity
  8
USP-GEO
100
AcDbLine
 10
1.000000000000014
 20
0.0467990710866531
 30
0.0
 11
1.000000000000014
 21
0.0
 31
0.0
  0
LINE
  5
1A
330
7
100
AcDbEntity
  8
USP-GEO
100
AcDbLine
 10
1.000000000000014
 20
0.8375000000000056
 30
0.0
 11
1.000000000000014
 21
0.0467990710866531
 31
0.0
  0
LINE
  5
1B
330
7
100
AcDbEntity
  8
USP-GEO
100
AcDbLine
 10
1.0
 20
1.066666666666677
 30
0.0
 11
1.0
 21
0.8375000000000198
 31
0.0
  0
LINE
  5
1C
330
7
100
AcDbEntity
  8
USP-GEO
100
AcDbLine
 10
0.7873810317671257
 20
1.012280864291795
 30
0.0
 11
0.9033465438817245
 21
0.8963153521771971
 31
0.0
  0
LINE
  5
1D
330
7
100
AcDbEntity
  8
USP-GEO
100
AcDbLine
 10
1.047800000000009
 20
0.8375000000000056
 30
0.0
 11
1.000000000000014
 21
0.8375000000000056
 31
0.0
  0
LINE
  5
1E
330
7
100
AcDbEntity
  8
USP-GEO
100
AcDbLine
 10
1.047800000000009
 20
1.066666666666677
 30
0.0
 11
1.047800000000009
 21
0.8375000000000198
 31
0.0
  0
LINE
  5
1F
330
7
100
AcDbEntity
  8
USP-GEO
100
AcDbLine
 10
1.047800000000009
 20
0.8375000000000056
 30
0.0
 11
1.047800000000009
 21
0.0467990710866673
 31
0.0
  0
LINE
  5
20
330
7
100
AcDbEntity
  8
USP-GEO
100
AcDbLine
 10
1.047800000000009
 20
0.0000000000000142
 30
0.0
 11
1.000000000000014
 21
0.0000000000000142
 31
0.0
  0
LINE
  5
21
330
7
100
AcDbEntity
  8
USP-GEO
100
AcDbLine
 10
1.047800000000009
 20
0.0467990710866531
 30
0.0
 11
1.047800000000009
 21
0.0
 31
0.0
  0
LINE
  5
22
330
7
100
AcDbEntity
  8
USP-GEO
100
AcDbLine
 10
1.485299999999995
 20
0.0312500000000142
 30
0.0
 11
1.485299999999995
 21
0.0000000000000142
 31
0.0
  0
ARC
  5
23
330
7
100
AcDbEntity
  8
USP-GEO
100
AcDbCircle
 10
1.516549999999995
 20
0.03125
 30
0.0
 40
0.03125
100
AcDbArc
 50
90.0
 51
179.9999999999935
  0
LINE
  5
24
330
7
100
AcDbEntity
  8
USP-GEO
100
AcDbLine
 10
1.704050000000009
 20
0.0625000000000142
 30
0.0
 11
1.516549999999995
 21
0.0625000000000142
 31
0.0
  0
ARC
  5
25
330
7
100
AcDbEntity
  8
USP-GEO
100
AcDbCircle
 10
1.704049999999995
 20
0.0312500000000142
 30
0.0
 40
0.03125
100
AcDbArc
 50
0.0
 51
89.99999999997395
  0
LINE
  5
26
330
7
100
AcDbEntity
  8
USP-GEO
100
AcDbLine
 10
1.735300000000009
 20
0.0000000000000142
 30
0.0
 11
1.735300000000009
 21
0.0312500000000142
 31
0.0
  0
LINE
  5
27
330
7
100
AcDbEntity
  8
USP-GEO
100
AcDbLine
 10
1.047800000000009
 20
2.000000000000014
 30
0.0
 11
1.485299999999995
 21
2.000000000000014
 31
0.0
  0
LINE
  5
28
330
7
100
AcDbEntity
  8
USP-GEO
100
AcDbLine
 10
1.000000000000014
 20
1.25
 30
0.0
 11
1.000000000000014
 21
2.250000000000014
 31
0.0
  0
LINE
  5
29
330
7
100
AcDbEntity
  8
USP-GEO
100
AcDbLine
 10
1.047800000000009
 20
2.297800000000009
 30
0.0
 11
1.047800000000009
 21
1.25
 31
0.0
  0
LINE
  5
2A
330
7
100
AcDbEntity
  8
USP-GEO
100
AcDbLine
 10
1.047800000000009
 20
1.250000000000014
 30
0.0
 11
1.000000000000014
 21
1.250000000000014
 31
0.0
  0
LINE
  5
2B
330
7
100
AcDbEntity
  8
USP-GEO
100
AcDbLine
 10
0.5875000000000199
 20
2.041028851245343
 30
0.0
 11
0.7874999999999944
 21
2.041028851245343
 31
0.0
  0
LINE
  5
2C
330
7
100
AcDbEntity
  8
USP-GEO
100
AcDbLine
 10
0.7875000000000086
 20
2.250000000000014
 30
0.0
 11
0.7874999999999944
 21
2.049673383528329
 31
0.0
  0
LINE
  5
2D
330
7
100
AcDbEntity
  8
USP-GEO
100
AcDbLine
 10
0.7874999999999944
 20
2.041028851245343
 30
0.0
 11
0.7874999999999944
 21
2.049673383528329
 31
0.0
  0
LINE
  5
2E
330
7
100
AcDbEntity
  8
USP-GEO
100
AcDbLine
 10
0.5875000000000199
 20
2.049673383528315
 30
0.0
 11
0.5875000000000199
 21
2.041028851245343
 31
0.0
  0
LINE
  5
2F
330
7
100
AcDbEntity
  8
USP-GEO
100
AcDbLine
 10
0.6875000000000142
 20
2.355157643635109
 30
0.0
 11
0.7875000000000086
 21
2.297799999999995
 31
0.0
  0
LINE
  5
30
330
7
100
AcDbEntity
  8
USP-GEO
100
AcDbLine
 10
0.5875000000000199
 20
2.297800000000009
 30
0.0
 11
0.6875000000000142
 21
2.355157643635109
 31
0.0
  0
LINE
  5
31
330
7
100
AcDbEntity
  8
USP-GEO
100
AcDbLine
 10
0.5875000000000199
 20
2.049673383528329
 30
0.0
 11
0.5875000000000199
 21
2.250000000000014
 31
0.0
  0
LINE
  5
32
330
7
100
AcDbEntity
  8
USP-GEO
100
AcDbLine
 10
1.735300000000009
 20
1.968750000000014
 30
0.0
 11
1.735300000000009
 21
2.000000000000014
 31
0.0
  0
ARC
  5
33
330
7
100
AcDbEntity
  8
USP-GEO
100
AcDbCircle
 10
1.704050000000009
 20
1.968750000000014
 30
0.0
 40
0.03125
100
AcDbArc
 50
269.9999999999739
 51
359.999999999987
  0
LINE
  5
34
330
7
100
AcDbEntity
  8
USP-GEO
100
AcDbLine
 10
1.516549999999995
 20
1.937500000000014
 30
0.0
 11
1.704049999999995
 21
1.937500000000014
 31
0.0
  0
ARC
  5
35
330
7
100
AcDbEntity
  8
USP-GEO
100
AcDbCircle
 10
1.516549999999995
 20
1.968750000000014
 30
0.0
 40
0.03125
100
AcDbArc
 50
179.999999999987
 51
270.0
  0
LINE
  5
36
330
7
100
AcDbEntity
  8
USP-GEO
100
AcDbLine
 10
1.485299999999995
 20
2.000000000000014
 30
0.0
 11
1.485299999999995
 21
1.968750000000014
 31
0.0
  0
LINE
  5
37
330
7
100
AcDbEntity
  8
USP-GEO
100
AcDbLine
 10
3.485300000000009
 20
0.0312500000000142
 30
0.0
 11
3.485300000000009
 21
0.0
 31
0.0
  0
LINE
  5
38
330
7
100
AcDbEntity
  8
USP-GEO
100
AcDbLine
 10
3.485300000000009
 20
2.000000000000014
 30
0.0
 11
3.485300000000009
 21
1.968750000000014
 31
0.0
  0
LINE
  5
39
330
7
100
AcDbEntity
  8
USP-GEO
100
AcDbLine
 10
5.220600000000032
 20
2.250000000000014
 30
0.0
 11
4.220600000000032
 21
2.250000000000014
 31
0.0
  0
LINE
  5
3A
330
7
100
AcDbEntity
  8
USP-GEO
100
AcDbLine
 10
4.172800000000037
 20
2.297800000000009
 30
0.0
 11
5.220600000000047
 21
2.297800000000009
 31
0.0
  0
ARC
  5
3B
330
7
100
AcDbEntity
  8
USP-GEO
100
AcDbCircle
 10
4.172800000000037
 20
1.156734320410095
 30
0.0
 40
0.2977999999999987
100
AcDbArc
 50
330.9830270598265
 51
80.76347654455082
  0
LINE
  5
3C
330
7
100
AcDbEntity
  8
USP-GEO
100
AcDbLine
 10
4.172800000000037
 20
1.250000000000014
 30
0.0
 11
4.172800000000037
 21
1.066666666666677
 31
0.0
  0
LINE
  5
3D
330
7
100
AcDbEntity
  8
USP-GEO
100
AcDbLine
 10
4.220600000000032
 20
1.066666666666677
 30
0.0
 11
4.220600000000032
 21
1.250000000000014
 31
0.0
  0
ARC
  5
3E
330
7
100
AcDbEntity
  8
USP-GEO
100
AcDbCircle
 10
4.172800000000037
 20
1.156734320410095
 30
0.0
 40
0.2977999999999987
100
AcDbArc
 50
279.2365234554492
 51
299.0169729401728
  0
LINE
  5
3F
330
7
100
AcDbEntity
  8
USP-GEO
100
AcDbLine
 10
4.172800000000037
 20
0.0000000000000142
 30
0.0
 11
3.735300000000023
 21
0.0000000000000142
 31
0.0
  0
LINE
  5
40
330
7
100
AcDbEntity
  8
USP-GEO
100
AcDbLine
 10
3.704050000000023
 20
0.0625000000000142
 30
0.0
 11
3.516550000000009
 21
0.0625000000000142
 31
0.0
  0
ARC
  5
41
330
7
100
AcDbEntity
  8
USP-GEO
100
AcDbCircle
 10
3.704050000000009
 20
0.0312500000000142
 30
0.0
 40
0.03125
100
AcDbArc
 50
0.0
 51
90.0
  0
LINE
  5
42
330
7
100
AcDbEntity
  8
USP-GEO
100
AcDbLine
 10
3.735300000000023
 20
0.0000000000000142
 30
0.0
 11
3.735300000000023
 21
0.0312500000000142
 31
0.0
  0
LINE
  5
43
330
7
100
AcDbEntity
  8
USP-GEO
100
AcDbLine
 10
4.172800000000037
 20
0.0467990710866673
 30
0.0
 11
4.172800000000037
 21
0.0
 31
0.0
  0
LINE
  5
44
330
7
100
AcDbEntity
  8
USP-GEO
100
AcDbLine
 10
4.172800000000037
 20
0.8375000000000056
 30
0.0
 11
4.172800000000037
 21
0.0467990710866673
 31
0.0
  0
LINE
  5
45
330
7
100
AcDbEntity
  8
USP-GEO
100
AcDbLine
 10
4.172800000000037
 20
1.066666666666677
 30
0.0
 11
4.172800000000037
 21
0.8375000000000056
 31
0.0
  0
LINE
  5
46
330
7
100
AcDbEntity
  8
USP-GEO
100
AcDbLine
 10
4.220600000000032
 20
0.8375000000000056
 30
0.0
 11
4.220600000000032
 21
1.066666666666677
 31
0.0
  0
LINE
  5
47
330
7
100
AcDbEntity
  8
USP-GEO
100
AcDbLine
 10
4.220600000000032
 20
0.0467990710866673
 30
0.0
 11
4.220600000000032
 21
0.8375000000000198
 31
0.0
  0
LINE
  5
48
330
7
100
AcDbEntity
  8
USP-GEO
100
AcDbLine
 10
4.220600000000032
 20
0.0000000000000142
 30
0.0
 11
4.220600000000032
 21
0.0467990710866673
 31
0.0
  0
LINE
  5
49
330
7
100
AcDbEntity
  8
USP-GEO
100
AcDbLine
 10
4.172800000000037
 20
0.0
 30
0.0
 11
4.220600000000032
 21
0.0
 31
0.0
  0
LINE
  5
4A
330
7
100
AcDbEntity
  8
USP-GEO
100
AcDbLine
 10
4.172800000000037
 20
0.8375000000000056
 30
0.0
 11
4.220600000000032
 21
0.8375000000000056
 31
0.0
  0
LINE
  5
4B
330
7
100
AcDbEntity
  8
USP-GEO
100
AcDbLine
 10
4.433218968232921
 20
1.01228086429181
 30
0.0
 11
4.317253456118322
 21
0.8963153521772113
 31
0.0
  0
LINE
  5
4C
330
7
100
AcDbEntity
  8
USP-GEO
100
AcDbLine
 10
3.735300000000023
 20
2.000000000000014
 30
0.0
 11
4.172800000000037
 21
2.000000000000014
 31
0.0
  0
LINE
  5
4D
330
7
100
AcDbEntity
  8
USP-GEO
100
AcDbLine
 10
3.735300000000023
 20
1.968750000000014
 30
0.0
 11
3.735300000000023
 21
2.000000000000014
 31
0.0
  0
ARC
  5
4E
330
7
100
AcDbEntity
  8
USP-GEO
100
AcDbCircle
 10
3.704050000000023
 20
1.968750000000014
 30
0.0
 40
0.03125
100
AcDbArc
 50
270.0
 51
0.0
  0
LINE
  5
4F
330
7
100
AcDbEntity
  8
USP-GEO
100
AcDbLine
 10
3.516550000000009
 20
1.937500000000014
 30
0.0
 11
3.704050000000023
 21
1.937500000000014
 31
0.0
  0
LINE
  5
50
330
7
100
AcDbEntity
  8
USP-GEO
100
AcDbLine
 10
4.172800000000037
 20
1.25
 30
0.0
 11
4.172800000000037
 21
2.297799999999995
 31
0.0
  0
LINE
  5
51
330
7
100
AcDbEntity
  8
USP-GEO
100
AcDbLine
 10
4.220600000000032
 20
2.250000000000014
 30
0.0
 11
4.220600000000032
 21
1.250000000000014
 31
0.0
  0
LINE
  5
52
330
7
100
AcDbEntity
  8
USP-GEO
100
AcDbLine
 10
4.220600000000032
 20
1.25
 30
0.0
 11
4.172800000000037
 21
1.25
 31
0.0
  0
LINE
  5
53
330
7
100
AcDbEntity
  8
USP-GEO
100
AcDbLine
 10
4.433100000000038
 20
2.041028851245357
 30
0.0
 11
4.633100000000013
 21
2.041028851245357
 31
0.0
  0
LINE
  5
54
330
7
100
AcDbEntity
  8
USP-GEO
100
AcDbLine
 10
4.533100000000032
 20
2.355157643635109
 30
0.0
 11
4.633100000000027
 21
2.297800000000009
 31
0.0
  0
LINE
  5
55
330
7
100
AcDbEntity
  8
USP-GEO
100
AcDbLine
 10
4.433100000000038
 20
2.049673383528343
 30
0.0
 11
4.433100000000038
 21
2.250000000000014
 31
0.0
  0
LINE
  5
56
330
7
100
AcDbEntity
  8
USP-GEO
100
AcDbLine
 10
4.433100000000038
 20
2.049673383528343
 30
0.0
 11
4.433100000000038
 21
2.041028851245343
 31
0.0
  0
LINE
  5
57
330
7
100
AcDbEntity
  8
USP-GEO
100
AcDbLine
 10
4.433100000000038
 20
2.297800000000023
 30
0.0
 11
4.533100000000032
 21
2.355157643635124
 31
0.0
  0
LINE
  5
58
330
7
100
AcDbEntity
  8
USP-GEO
100
AcDbLine
 10
4.633100000000027
 20
2.250000000000014
 30
0.0
 11
4.633100000000013
 21
2.049673383528343
 31
0.0
  0
LINE
  5
59
330
7
100
AcDbEntity
  8
USP-GEO
100
AcDbLine
 10
4.633100000000013
 20
2.041028851245357
 30
0.0
 11
4.633100000000013
 21
2.049673383528343
 31
0.0
  0
LINE
  5
5A
330
7
100
AcDbEntity
  8
USP-GEO
100
AcDbLine
 10
5.220600000000032
 20
2.297800000000009
 30
0.0
 11
5.220600000000032
 21
2.250000000000014
 31
0.0
  0
ENDBLK
  5
5D
330
7
100
AcDbEntity
  8
0
100
AcDbBlockEnd
  0
BLOCK
  5
10D
330
5F
100
AcDbEntity
  8
0
100
AcDbBlockBegin
  2
JUS28-2_F
 70
     0
 10
0.0
 20
0.0
 30
0.0
  3
JUS28-2_F
  1

  0
ELLIPSE
  5
60
330
5F
100
AcDbEntity
  8
USP-GEO
100
AcDbEllipse
 10
4.375236212175622
 20
4.214931211054945
 30
0.0000000000000004
 11
0.0
 21
-0.0820000000000036
 31
0.0
210
-0.0000000000000001
220
0.0
230
1.0
 40
0.7071067811865475
 41
0.0
 42
6.283185307179586
  0
ELLIPSE
  5
61
330
5F
100
AcDbEntity
  8
USP-GEO
100
AcDbEllipse
 10
4.339797005961216
 20
4.214931211054945
 30
0.0000000000000004
 11
0.0
 21
0.0820000000000061
 31
0.0
210
-0.0000000000000001
220
0.0
230
1.0
 40
0.7071067811865258
 41
-1.570796326794896
 42
-0.310569831457707
  0
ELLIPSE
  5
62
330
5F
100
AcDbEntity
  8
USP-GEO
100
AcDbEllipse
 10
4.339797005961216
 20
4.214931211054945
 30
0.0000000000000004
 11
0.0
 21
0.0820000000000061
 31
0.0
210
-0.0000000000000001
220
0.0
230
1.0
 40
0.7071067811865258
 41
-2.831022822131555
 42
-1.570796326794896
  0
ELLIPSE
  5
63
330
5F
100
AcDbEntity
  8
USP-GEO
100
AcDbEllipse
 10
4.375236212175622
 20
2.172799999999995
 30
0.0000000000000004
 11
0.0
 21
-0.0820000000000036
 31
0.0
210
-0.0000000000000001
220
0.0
230
1.0
 40
0.7071067811865475
 41
0.0
 42
6.283185307179586
  0
ELLIPSE
  5
64
330
5F
100
AcDbEntity
  8
USP-GEO
100
AcDbEllipse
 10
4.339797005961216
 20
2.172799999999995
 30
0.0000000000000004
 11
0.0
 21
0.0820000000000061
 31
0.0
210
-0.0000000000000001
220
0.0
230
1.0
 40
0.7071067811865258
 41
-1.570796326794902
 42
-0.3105698314579814
  0
ELLIPSE
  5
65
330
5F
100
AcDbEntity
  8
USP-GEO
100
AcDbEllipse
 10
4.339797005961216
 20
2.172799999999995
 30
0.0000000000000004
 11
0.0
 21
0.0820000000000061
 31
0.0
210
-0.0000000000000001
220
0.0
230
1.0
 40
0.7071067811865258
 41
-2.831022822131811
 42
-1.570796326794902
  0
ELLIPSE
  5
66
330
5F
100
AcDbEntity
  8
USP-GEO
100
AcDbEllipse
 10
0.8453637878244251
 20
4.46493121105496
 30
0.0
 11
0.0
 21
-0.0820000000000036
 31
0.0
210
-0.0000000000000001
220
0.0
230
1.0
 40
0.7071067811865474
 41
0.0
 42
6.283185307179586
  0
ELLIPSE
  5
67
330
5F
100
AcDbEntity
  8
USP-GEO
100
AcDbEllipse
 10
0.8808029940388308
 20
4.464931211054974
 30
0.0
 11
0.0
 21
0.0820000000000061
 31
0.0
210
-0.0000000000000001
220
0.0
230
1.0
 40
0.7071067811865258
 41
0.3105698314582344
 42
1.570796326794983
  0
ELLIPSE
  5
68
330
5F
100
AcDbEntity
  8
USP-GEO
100
AcDbEllipse
 10
0.8808029940388308
 20
4.464931211054974
 30
0.0
 11
0.0
 21
0.0820000000000061
 31
0.0
210
-0.0000000000000001
220
0.0
230
1.0
 40
0.7071067811865258
 41
1.570796326794983
 42
2.83102282213208
  0
ELLIPSE
  5
69
330
5F
100
AcDbEntity
  8
USP-GEO
100
AcDbEllipse
 10
0.8453637878244251
 20
2.297800000000009
 30
0.0
 11
0.0
 21
-0.0820000000000036
 31
0.0
210
-0.0000000000000001
220
0.0
230
1.0
 40
0.7071067811865474
 41
0.0
 42
6.283185307179586
  0
ELLIPSE
  5
6A
330
5F
100
AcDbEntity
  8
USP-GEO
100
AcDbEllipse
 10
0.8808029940388308
 20
2.297800000000009
 30
0.0
 11
0.0
 21
0.0820000000000061
 31
0.0
210
-0.0000000000000001
220
0.0
230
1.0
 40
0.7071067811865258
 41
0.310569831457976
 42
1.570796326794896
  0
ELLIPSE
  5
6B
330
5F
100
AcDbEntity
  8
USP-GEO
100
AcDbEllipse
 10
0.8808029940388308
 20
2.297800000000009
 30
0.0
 11
0.0
 21
0.0820000000000061
 31
0.0
210
-0.0000000000000001
220
0.0
230
1.0
 40
0.7071067811865258
 41
1.570796326794896
 42
2.831022822131817
  0
LINE
  5
6C
330
5F
100
AcDbEntity
  8
USP-GEO
100
AcDbLine
 10
1.735300000000009
 20
0.0000000000000142
 30
0.0000000000000001
 11
3.485300000000009
 21
0.0000000000000142
 31
0.0000000000000003
210
0.0
220
1.0
230
0.0
  0
LINE
  5
6D
330
5F
100
AcDbEntity
  8
USP-GEO
100
AcDbLine
 10
3.485300000000009
 20
0.0478000000000094
 30
0.0000000000000003
 11
1.735300000000009
 21
0.0478000000000094
 31
0.0000000000000001
210
0.0
220
1.0
230
0.0
  0
TEXT
  5
6E
330
5F
100
AcDbEntity
  8
USP-TXT
100
AcDbText
 10
0.1103000000000103
 20
-0.8105342321866402
 30
0.0000000000000002
 40
0.25
  1
JUS28-2 - FRONT VIEW
 72
     1
 11
2.610300000000009
 21
-0.8105342321866402
 31
0.0000000000000002
100
AcDbText
  0
LINE
  5
6F
330
5F
100
AcDbEntity
  8
USP-GEO
100
AcDbLine
 10
1.047800000000009
 20
1.172800000000009
 30
0.0
 11
1.047800000000009
 21
0.0478000000000094
 31
0.0
210
0.0
220
1.0
230
0.0
  0
LINE
  5
70
330
5F
100
AcDbEntity
  8
USP-GEO
100
AcDbLine
 10
1.000000000000014
 20
1.172800000000009
 30
0.0
 11
1.000000000000014
 21
0.0
 31
0.0
210
0.0
220
1.0
230
0.0
  0
LINE
  5
71
330
5F
100
AcDbEntity
  8
USP-GEO
100
AcDbLine
 10
1.000000000000014
 20
0.0000000000000142
 30
0.0
 11
1.485299999999995
 21
0.0000000000000142
 31
0.0000000000000001
210
0.0
220
1.0
230
0.0
  0
LINE
  5
72
330
5F
100
AcDbEntity
  8
USP-GEO
100
AcDbLine
 10
1.485299999999995
 20
0.0478000000000094
 30
0.0000000000000001
 11
1.047800000000009
 21
0.0478000000000094
 31
0.0
210
0.0
220
1.0
230
0.0
  0
LINE
  5
73
330
5F
100
AcDbEntity
  8
USP-GEO
100
AcDbLine
 10
1.704050000000009
 20
0.0000000000000142
 30
0.0000000000000001
 11
1.735299999999995
 21
0.0000000000000142
 31
0.0000000000000001
210
0.0
220
1.0
230
0.0
  0
LINE
  5
74
330
5F
100
AcDbEntity
  8
USP-GEO
100
AcDbLine
 10
1.516549999999995
 20
0.0000000000000142
 30
0.0000000000000001
 11
1.704050000000009
 21
0.0000000000000142
 31
0.0000000000000001
210
0.0
220
1.0
230
0.0
  0
LINE
  5
75
330
5F
100
AcDbEntity
  8
USP-GEO
100
AcDbLine
 10
1.485299999999995
 20
0.0000000000000142
 30
0.0000000000000001
 11
1.516549999999995
 21
0.0000000000000142
 31
0.0000000000000001
210
0.0
220
1.0
230
0.0
  0
LINE
  5
76
330
5F
100
AcDbEntity
  8
USP-GEO
100
AcDbLine
 10
1.485299999999995
 20
0.0478000000000094
 30
0.0000000000000001
 11
1.485299999999995
 21
0.0000000000000142
 31
0.0000000000000001
210
0.0
220
1.0
230
0.0
  0
LINE
  5
77
330
5F
100
AcDbEntity
  8
USP-GEO
100
AcDbLine
 10
1.735300000000009
 20
0.0478000000000094
 30
0.0000000000000001
 11
1.735300000000009
 21
0.0
 31
0.0000000000000001
210
0.0
220
1.0
230
0.0
  0
LINE
  5
78
330
5F
100
AcDbEntity
  8
USP-GEO
100
AcDbLine
 10
1.735299999999995
 20
0.0478000000000094
 30
0.0000000000000001
 11
1.704050000000009
 21
0.0478000000000094
 31
0.0000000000000001
210
0.0
220
1.0
230
0.0
  0
LINE
  5
79
330
5F
100
AcDbEntity
  8
USP-GEO
100
AcDbLine
 10
1.704050000000009
 20
0.0478000000000094
 30
0.0000000000000001
 11
1.516549999999995
 21
0.0478000000000094
 31
0.0000000000000001
210
0.0
220
1.0
230
0.0
  0
LINE
  5
7A
330
5F
100
AcDbEntity
  8
USP-GEO
100
AcDbLine
 10
1.516549999999995
 20
0.0478000000000094
 30
0.0000000000000001
 11
1.485299999999995
 21
0.0478000000000094
 31
0.0000000000000001
210
0.0
220
1.0
230
0.0
  0
LINE
  5
7B
330
5F
100
AcDbEntity
  8
USP-GEO
100
AcDbLine
 10
1.0
 20
1.601956806832475
 30
0.0
 11
0.1871962843466406
 21
2.736046378881596
 31
-0.0000000000000001
210
0.0
220
1.0
230
0.0
  0
CIRCLE
  5
7C
330
5F
100
AcDbEntity
  8
USP-GEO
100
AcDbCircle
 10
0.3125
 20
3.172800000000009
 30
-0.0000000000000001
 40
0.0860000000000001
  0
CIRCLE
  5
7D
330
5F
100
AcDbEntity
  8
USP-GEO
100
AcDbCircle
 10
0.3125
 20
5.089931211054945
 30
-0.0000000000000001
 40
0.0860000000000001
  0
ARC
  5
7E
330
5F
100
AcDbEntity
  8
USP-GEO
100
AcDbCircle
 10
0.1000000000000227
 20
4.589931211054945
 30
-0.0000000000000001
 40
0.3124999999999979
100
AcDbArc
 50
0.0
 51
74.5339900465778
  0
ARC
  5
7F
330
5F
100
AcDbEntity
  8
USP-GEO
100
AcDbCircle
 10
0.1000000000000512
 20
4.339931211055031
 30
-0.0000000000000001
 40
0.3124999999999597
100
AcDbArc
 50
285.4660099534111
 51
359.999999999987
  0
LINE
  5
80
330
5F
100
AcDbEntity
  8
USP-GEO
100
AcDbLine
 10
1.0
 20
7.297800000000009
 30
0.0
 11
0.0
 21
7.297800000000009
 31
-0.0000000000000001
210
0.0
220
1.0
230
0.0
  0
CIRCLE
  5
81
330
5F
100
AcDbEntity
  8
USP-GEO
100
AcDbCircle
 10
0.3125
 20
6.922800000000009
 30
-0.0000000000000001
 40
0.0860000000000001
  0
ARC
  5
82
330
5F
100
AcDbEntity
  8
USP-GEO
100
AcDbCircle
 10
0.1000000000000512
 20
6.422799999999966
 30
-0.0000000000000001
 40
0.3124999999999514
100
AcDbArc
 50
0.0000000000105849
 51
74.5339900465863
  0
ARC
  5
83
330
5F
100
AcDbEntity
  8
USP-GEO
100
AcDbCircle
 10
0.1000000000000085
 20
6.172800000000023
 30
-0.0000000000000001
 40
0.3124999999999979
100
AcDbArc
 50
285.4660099534255
 51
0.0000000000024427
  0
ARC
  5
84
330
5F
100
AcDbEntity
  8
USP-GEO
100
AcDbCircle
 10
0.2499999999999716
 20
5.132062422109967
 30
-0.0000000000000001
 40
0.2499999999999579
100
AcDbArc
 50
180.0000000000163
 51
254.5339900465878
  0
ARC
  5
85
330
5F
100
AcDbEntity
  8
USP-GEO
100
AcDbCircle
 10
1.0
 20
3.318584034162441
 30
0.0
 40
0.9999999999999978
100
AcDbArc
 50
180.0000000000008
 51
215.6292264487012
  0
LINE
  5
86
330
5F
100
AcDbEntity
  8
USP-GEO
100
AcDbLine
 10
0.0
 20
3.318584034162412
 30
-0.0000000000000001
 11
0.0
 21
3.797800000000023
 31
-0.0000000000000001
210
0.0
220
1.0
230
0.0
  0
ARC
  5
87
330
5F
100
AcDbEntity
  8
USP-GEO
100
AcDbCircle
 10
0.25
 20
3.797800000000023
 30
-0.0000000000000001
 40
0.2499999999999962
100
AcDbArc
 50
105.4660099534196
 51
180.0
  0
ARC
  5
88
330
5F
100
AcDbEntity
  8
USP-GEO
100
AcDbCircle
 10
0.25
 20
6.96493121105496
 30
-0.0000000000000001
 40
0.2500000000000008
100
AcDbArc
 50
180.0
 51
254.5339900465803
  0
LINE
  5
89
330
5F
100
AcDbEntity
  8
USP-GEO
100
AcDbLine
 10
0.0
 20
5.132062422109882
 30
-0.0000000000000001
 11
0.0
 21
5.630668788945072
 31
-0.0000000000000001
210
0.0
220
1.0
230
0.0
  0
ARC
  5
8A
330
5F
100
AcDbEntity
  8
USP-GEO
100
AcDbCircle
 10
0.2499999999999716
 20
5.630668788945015
 30
-0.0000000000000001
 40
0.249999999999959
100
AcDbArc
 50
105.4660099534085
 51
179.9999999999853
  0
LINE
  5
8B
330
5F
100
AcDbEntity
  8
USP-GEO
100
AcDbLine
 10
0.0
 20
6.96493121105496
 30
-0.0000000000000001
 11
0.0
 21
7.297800000000009
 31
-0.0000000000000001
210
0.0
220
1.0
230
0.0
  0
LINE
  5
8C
330
5F
100
AcDbEntity
  8
USP-GEO
100
AcDbLine
 10
1.0
 20
4.891115217196627
 30
0.0
 11
1.0
 21
4.589931211054945
 31
0.0
210
0.0
220
1.0
230
0.0
  0
LINE
  5
8D
330
5F
100
AcDbEntity
  8
USP-GEO
100
AcDbLine
 10
1.047800000000009
 20
4.891115217196642
 30
0.0
 11
1.047800000000009
 21
4.589931211054945
 31
0.0
210
0.0
220
1.0
230
0.0
  0
LINE
  5
8E
330
5F
100
AcDbEntity
  8
USP-GEO
100
AcDbLine
 10
1.000000000000014
 20
3.318584034162412
 30
0.0
 11
1.000000000000014
 21
2.736046378881596
 31
0.0
210
0.0
220
1.0
230
0.0
  0
LINE
  5
8F
330
5F
100
AcDbEntity
  8
USP-GEO
100
AcDbLine
 10
1.047800000000009
 20
3.318584034162412
 30
0.0
 11
1.047800000000009
 21
2.736046378881596
 31
0.0
210
0.0
220
1.0
230
0.0
  0
LINE
  5
90
330
5F
100
AcDbEntity
  8
USP-GEO
100
AcDbLine
 10
1.000000000000014
 20
2.736046378881596
 30
0.0
 11
1.000000000000014
 21
1.318434413820213
 31
0.0
210
0.0
220
1.0
230
0.0
  0
LINE
  5
91
330
5F
100
AcDbEntity
  8
USP-GEO
100
AcDbLine
 10
1.047800000000009
 20
2.736046378881596
 30
0.0
 11
1.047800000000009
 21
1.318434413820213
 31
0.0
210
0.0
220
1.0
230
0.0
  0
LINE
  5
92
330
5F
100
AcDbEntity
  8
USP-GEO
100
AcDbLine
 10
1.000000000000014
 20
1.318434413820213
 30
0.0
 11
1.000000000000014
 21
1.172800000000009
 31
0.0
210
0.0
220
1.0
230
0.0
  0
LINE
  5
93
330
5F
100
AcDbEntity
  8
USP-GEO
100
AcDbLine
 10
1.047800000000009
 20
1.318434413820213
 30
0.0
 11
1.047800000000009
 21
1.172800000000009
 31
0.0
210
0.0
220
1.0
230
0.0
  0
ARC
  5
94
330
5F
100
AcDbEntity
  8
USP-GEO
100
AcDbCircle
 10
1.047800000000009
 20
2.297800000000009
 30
0.0
 40
0.2977999999999987
100
AcDbArc
 50
99.23652345544919
 51
260.7634765445508
  0
LINE
  5
95
330
5F
100
AcDbEntity
  8
USP-GEO
100
AcDbLine
 10
0.4125000000000228
 20
4.339931211054945
 30
-0.0000000000000001
 11
0.4125000000000228
 21
4.589931211054945
 31
-0.0000000000000001
210
0.0
220
1.0
230
0.0
  0
LINE
  5
96
330
5F
100
AcDbEntity
  8
USP-GEO
100
AcDbLine
 10
1.000000000000014
 20
3.797799999999895
 30
0.0
 11
1.000000000000014
 21
3.318584034162412
 31
0.0
210
0.0
220
1.0
230
0.0
  0
LINE
  5
97
330
5F
100
AcDbEntity
  8
USP-GEO
100
AcDbLine
 10
1.047800000000009
 20
3.797799999999895
 30
0.0
 11
1.047800000000009
 21
3.318584034162412
 31
0.0
210
0.0
220
1.0
230
0.0
  0
ARC
  5
98
330
5F
100
AcDbEntity
  8
USP-GEO
100
AcDbCircle
 10
1.047800000000009
 20
4.464931211054945
 30
0.0
 40
0.2977999999999987
100
AcDbArc
 50
99.23652345544919
 51
260.7634765445508
  0
LINE
  5
99
330
5F
100
AcDbEntity
  8
USP-GEO
100
AcDbLine
 10
1.0
 20
4.038747204913263
 30
0.0
 11
1.0
 21
3.797799999999895
 31
0.0
210
0.0
220
1.0
230
0.0
  0
LINE
  5
9A
330
5F
100
AcDbEntity
  8
USP-GEO
100
AcDbLine
 10
1.0
 20
4.339931211054945
 30
0.0
 11
1.0
 21
4.038747204913263
 31
0.0
210
0.0
220
1.0
230
0.0
  0
LINE
  5
9B
330
5F
100
AcDbEntity
  8
USP-GEO
100
AcDbLine
 10
1.0
 20
4.589931211054945
 30
0.0
 11
1.0
 21
4.339931211054945
 31
0.0
210
0.0
220
1.0
230
0.0
  0
LINE
  5
9C
330
5F
100
AcDbEntity
  8
USP-GEO
100
AcDbLine
 10
1.047800000000009
 20
4.589931211054945
 30
0.0
 11
1.047800000000009
 21
4.339931211054945
 31
0.0
210
0.0
220
1.0
230
0.0
  0
LINE
  5
9D
330
5F
100
AcDbEntity
  8
USP-GEO
100
AcDbLine
 10
1.047800000000009
 20
4.339931211054945
 30
0.0
 11
1.047800000000009
 21
4.038747204913263
 31
0.0
210
0.0
220
1.0
230
0.0
  0
LINE
  5
9E
330
5F
100
AcDbEntity
  8
USP-GEO
100
AcDbLine
 10
1.047800000000009
 20
4.038747204913263
 30
0.0
 11
1.047800000000009
 21
3.797799999999895
 31
0.0
210
0.0
220
1.0
230
0.0
  0
LINE
  5
9F
330
5F
100
AcDbEntity
  8
USP-GEO
100
AcDbLine
 10
1.000000000000014
 20
6.964931211055059
 30
0.0
 11
1.000000000000014
 21
6.723984006141719
 31
0.0
210
0.0
220
1.0
230
0.0
  0
LINE
  5
A0
330
5F
100
AcDbEntity
  8
USP-GEO
100
AcDbLine
 10
1.047800000000009
 20
6.964931211055059
 30
0.0
 11
1.047800000000009
 21
6.723984006141719
 31
0.0
210
0.0
220
1.0
230
0.0
  0
LINE
  5
A1
330
5F
100
AcDbEntity
  8
USP-GEO
100
AcDbLine
 10
1.000000000000014
 20
5.630668788944987
 30
0.0
 11
1.000000000000014
 21
5.132062422109981
 31
0.0
210
0.0
220
1.0
230
0.0
  0
LINE
  5
A2
330
5F
100
AcDbEntity
  8
USP-GEO
100
AcDbLine
 10
1.047800000000009
 20
5.630668788944987
 30
0.0
 11
1.047800000000009
 21
5.132062422109981
 31
0.0
210
0.0
220
1.0
230
0.0
  0
LINE
  5
A3
330
5F
100
AcDbEntity
  8
USP-GEO
100
AcDbLine
 10
1.000000000000014
 20
5.132062422109981
 30
0.0
 11
1.000000000000014
 21
4.891115217196642
 31
0.0
210
0.0
220
1.0
230
0.0
  0
LINE
  5
A4
330
5F
100
AcDbEntity
  8
USP-GEO
100
AcDbLine
 10
1.047800000000009
 20
5.132062422109981
 30
0.0
 11
1.047800000000009
 21
4.891115217196642
 31
0.0
210
0.0
220
1.0
230
0.0
  0
LINE
  5
A5
330
5F
100
AcDbEntity
  8
USP-GEO
100
AcDbLine
 10
0.4125000000000086
 20
6.172800000000037
 30
-0.0000000000000001
 11
0.4125000000000086
 21
6.422800000000023
 31
-0.0000000000000001
210
0.0
220
1.0
230
0.0
  0
LINE
  5
A6
330
5F
100
AcDbEntity
  8
USP-GEO
100
AcDbLine
 10
1.000000000000014
 20
5.871615993858327
 30
0.0
 11
1.000000000000014
 21
5.630668788944987
 31
0.0
210
0.0
220
1.0
230
0.0
  0
LINE
  5
A7
330
5F
100
AcDbEntity
  8
USP-GEO
100
AcDbLine
 10
1.0
 20
6.172800000000023
 30
0.0
 11
1.0
 21
5.871615993858327
 31
0.0
210
0.0
220
1.0
230
0.0
  0
LINE
  5
A8
330
5F
100
AcDbEntity
  8
USP-GEO
100
AcDbLine
 10
1.000000000000014
 20
6.422800000000037
 30
0.0
 11
1.000000000000014
 21
6.172800000000023
 31
0.0
210
0.0
220
1.0
230
0.0
  0
LINE
  5
A9
330
5F
100
AcDbEntity
  8
USP-GEO
100
AcDbLine
 10
1.0
 20
6.723984006141719
 30
0.0
 11
1.0
 21
6.422800000000037
 31
0.0
210
0.0
220
1.0
230
0.0
  0
LINE
  5
AA
330
5F
100
AcDbEntity
  8
USP-GEO
100
AcDbLine
 10
0.5875000000000199
 20
6.687871282108417
 30
-0.0000000000000001
 11
0.7875000000000086
 21
6.687871282108417
 31
0.0
210
0.0
220
1.0
230
0.0
  0
LINE
  5
AB
330
5F
100
AcDbEntity
  8
USP-GEO
100
AcDbLine
 10
0.7875000000000086
 20
6.060845258770413
 30
0.0
 11
0.7875000000000086
 21
5.97280000000002
 31
0.0
210
0.0
220
1.0
230
0.0
  0
LINE
  5
AC
330
5F
100
AcDbEntity
  8
USP-GEO
100
AcDbLine
 10
0.7875000000000086
 20
5.97280000000002
 30
0.0
 11
0.6875000000000142
 21
5.872800000000012
 31
0.0
210
0.0
220
1.0
230
0.0
  0
LINE
  5
AD
330
5F
100
AcDbEntity
  8
USP-GEO
100
AcDbLine
 10
0.6875000000000142
 20
5.872800000000026
 30
0.0
 11
0.5875000000000199
 21
5.97280000000002
 31
-0.0000000000000001
210
0.0
220
1.0
230
0.0
  0
LINE
  5
AE
330
5F
100
AcDbEntity
  8
USP-GEO
100
AcDbLine
 10
0.5875000000000199
 20
5.97280000000002
 30
-0.0000000000000001
 11
0.5875000000000199
 21
6.060845258770442
 31
-0.0000000000000001
210
0.0
220
1.0
230
0.0
  0
LINE
  5
AF
330
5F
100
AcDbEntity
  8
USP-GEO
100
AcDbLine
 10
0.7875000000000086
 20
6.687871282108417
 30
0.0
 11
0.7874999999999944
 21
6.401775224097008
 31
0.0
210
0.0
220
1.0
230
0.0
  0
LINE
  5
B0
330
5F
100
AcDbEntity
  8
USP-GEO
100
AcDbLine
 10
0.7874999999999944
 20
6.346941316781851
 30
0.0
 11
0.7874999999999944
 21
6.401775224097008
 31
0.0
210
0.0
220
1.0
230
0.0
  0
LINE
  5
B1
330
5F
100
AcDbEntity
  8
USP-GEO
100
AcDbLine
 10
0.7875000000000086
 20
6.346941316781837
 30
0.0
 11
0.7875000000000086
 21
6.060845258770413
 31
0.0
210
0.0
220
1.0
230
0.0
  0
LINE
  5
B2
330
5F
100
AcDbEntity
  8
USP-GEO
100
AcDbLine
 10
0.5875000000000199
 20
6.401775224097008
 30
-0.0000000000000001
 11
0.5875000000000199
 21
6.346941316781851
 31
-0.0000000000000001
210
0.0
220
1.0
230
0.0
  0
LINE
  5
B3
330
5F
100
AcDbEntity
  8
USP-GEO
100
AcDbLine
 10
0.5875000000000199
 20
6.060845258770442
 30
-0.0000000000000001
 11
0.5875000000000199
 21
6.346941316781851
 31
-0.0000000000000001
210
0.0
220
1.0
230
0.0
  0
LINE
  5
B4
330
5F
100
AcDbEntity
  8
USP-GEO
100
AcDbLine
 10
0.6875000000000142
 20
5.966584382792362
 30
0.0
 11
0.5875000000000199
 21
6.048499587221257
 31
-0.0000000000000001
210
0.0
220
1.0
230
0.0
  0
LINE
  5
B5
330
5F
100
AcDbEntity
  8
USP-GEO
100
AcDbLine
 10
0.7875000000000086
 20
6.048499587221257
 30
0.0
 11
0.6875000000000142
 21
5.966584382792362
 31
0.0
210
0.0
220
1.0
230
0.0
  0
LINE
  5
B6
330
5F
100
AcDbEntity
  8
USP-GEO
100
AcDbLine
 10
0.5875000000000199
 20
6.401775224097008
 30
-0.0000000000000001
 11
0.5875000000000199
 21
6.687871282108446
 31
-0.0000000000000001
210
0.0
220
1.0
230
0.0
  0
LINE
  5
B7
330
5F
100
AcDbEntity
  8
USP-GEO
100
AcDbLine
 10
1.047800000000009
 20
6.723984006141719
 30
0.0
 11
1.047800000000009
 21
6.422800000000023
 31
0.0
210
0.0
220
1.0
230
0.0
  0
LINE
  5
B8
330
5F
100
AcDbEntity
  8
USP-GEO
100
AcDbLine
 10
1.047800000000009
 20
6.422800000000023
 30
0.0
 11
1.047800000000009
 21
6.172800000000023
 31
0.0
210
0.0
220
1.0
230
0.0
  0
LINE
  5
B9
330
5F
100
AcDbEntity
  8
USP-GEO
100
AcDbLine
 10
1.047800000000009
 20
6.172800000000023
 30
0.0
 11
1.047800000000009
 21
5.871615993858327
 31
0.0
210
0.0
220
1.0
230
0.0
  0
LINE
  5
BA
330
5F
100
AcDbEntity
  8
USP-GEO
100
AcDbLine
 10
1.047800000000009
 20
5.871615993858327
 30
0.0
 11
1.047800000000009
 21
5.630668788944987
 31
0.0
210
0.0
220
1.0
230
0.0
  0
LINE
  5
BB
330
5F
100
AcDbEntity
  8
USP-GEO
100
AcDbLine
 10
1.000000000000014
 20
7.297800000000009
 30
0.0
 11
1.000000000000014
 21
6.964931211055059
 31
0.0
210
0.0
220
1.0
230
0.0
  0
LINE
  5
BC
330
5F
100
AcDbEntity
  8
USP-GEO
100
AcDbLine
 10
1.047800000000009
 20
7.297800000000009
 30
0.0
 11
1.047800000000009
 21
6.964931211055059
 31
0.0
210
0.0
220
1.0
230
0.0
  0
LINE
  5
BD
330
5F
100
AcDbEntity
  8
USP-GEO
100
AcDbLine
 10
1.047800000000009
 20
7.297800000000009
 30
0.0
 11
1.000000000000014
 21
7.297800000000009
 31
0.0
210
0.0
220
1.0
230
0.0
  0
LINE
  5
BE
330
5F
100
AcDbEntity
  8
USP-GEO
100
AcDbLine
 10
3.485300000000009
 20
0.0000000000000142
 30
0.0000000000000003
 11
3.516550000000009
 21
0.0000000000000142
 31
0.0000000000000003
210
0.0
220
1.0
230
0.0
  0
LINE
  5
BF
330
5F
100
AcDbEntity
  8
USP-GEO
100
AcDbLine
 10
3.516550000000009
 20
0.0478000000000094
 30
0.0000000000000003
 11
3.485300000000009
 21
0.0478000000000094
 31
0.0000000000000003
210
0.0
220
1.0
230
0.0
  0
LINE
  5
C0
330
5F
100
AcDbEntity
  8
USP-GEO
100
AcDbLine
 10
3.485300000000009
 20
0.0478000000000094
 30
0.0000000000000003
 11
3.485300000000009
 21
0.0000000000000142
 31
0.0000000000000003
210
0.0
220
1.0
230
0.0
  0
LINE
  5
C1
330
5F
100
AcDbEntity
  8
USP-GEO
100
AcDbLine
 10
4.220600000000032
 20
0.0000000000000142
 30
0.0000000000000004
 11
4.220600000000032
 21
1.17279999999998
 31
0.0000000000000004
210
0.0
220
1.0
230
0.0
  0
LINE
  5
C2
330
5F
100
AcDbEntity
  8
USP-GEO
100
AcDbLine
 10
4.172800000000037
 20
1.17279999999998
 30
0.0000000000000004
 11
4.172800000000037
 21
0.0478000000000094
 31
0.0000000000000004
210
0.0
220
1.0
230
0.0
  0
LINE
  5
C3
330
5F
100
AcDbEntity
  8
USP-GEO
100
AcDbLine
 10
3.735300000000023
 20
0.0478000000000094
 30
0.0000000000000003
 11
3.735300000000023
 21
0.0
 31
0.0000000000000003
210
0.0
220
1.0
230
0.0
  0
LINE
  5
C4
330
5F
100
AcDbEntity
  8
USP-GEO
100
AcDbLine
 10
3.704050000000009
 20
0.0000000000000142
 30
0.0000000000000003
 11
3.735300000000009
 21
0.0000000000000142
 31
0.0000000000000003
210
0.0
220
1.0
230
0.0
  0
LINE
  5
C5
330
5F
100
AcDbEntity
  8
USP-GEO
100
AcDbLine
 10
3.516550000000009
 20
0.0000000000000142
 30
0.0000000000000003
 11
3.704050000000023
 21
0.0000000000000142
 31
0.0000000000000003
210
0.0
220
1.0
230
0.0
  0
LINE
  5
C6
330
5F
100
AcDbEntity
  8
USP-GEO
100
AcDbLine
 10
3.735300000000009
 20
0.0478000000000094
 30
0.0000000000000003
 11
3.704050000000009
 21
0.0478000000000094
 31
0.0000000000000003
210
0.0
220
1.0
230
0.0
  0
LINE
  5
C7
330
5F
100
AcDbEntity
  8
USP-GEO
100
AcDbLine
 10
3.704050000000023
 20
0.0478000000000094
 30
0.0000000000000003
 11
3.516550000000009
 21
0.0478000000000094
 31
0.0000000000000003
210
0.0
220
1.0
230
0.0
  0
LINE
  5
C8
330
5F
100
AcDbEntity
  8
USP-GEO
100
AcDbLine
 10
3.735300000000023
 20
0.0000000000000142
 30
0.0000000000000003
 11
4.220600000000032
 21
0.0000000000000142
 31
0.0000000000000004
210
0.0
220
1.0
230
0.0
  0
LINE
  5
C9
330
5F
100
AcDbEntity
  8
USP-GEO
100
AcDbLine
 10
4.172800000000037
 20
0.0478000000000094
 30
0.0000000000000004
 11
3.735300000000023
 21
0.0478000000000094
 31
0.0000000000000003
210
0.0
220
1.0
230
0.0
  0
LINE
  5
CA
330
5F
100
AcDbEntity
  8
USP-GEO
100
AcDbLine
 10
4.172800000000037
 20
4.882062422109967
 30
0.0000000000000004
 11
4.172800000000037
 21
4.641115217196627
 31
0.0000000000000004
210
0.0
220
1.0
230
0.0
  0
LINE
  5
CB
330
5F
100
AcDbEntity
  8
USP-GEO
100
AcDbLine
 10
4.220600000000032
 20
4.641115217196627
 30
0.0000000000000004
 11
4.220600000000032
 21
4.882062422109967
 31
0.0000000000000004
210
0.0
220
1.0
230
0.0
  0
ARC
  5
CC
330
5F
100
AcDbEntity
  8
USP-GEO
100
AcDbCircle
 10
4.970600000000089
 20
4.882062422109953
 30
0.0000000000000005
 40
0.2499999999999579
100
AcDbArc
 50
285.4660099534052
 51
359.9999999999837
  0
CIRCLE
  5
CD
330
5F
100
AcDbEntity
  8
USP-GEO
100
AcDbCircle
 10
4.908100000000032
 20
4.839931211054917
 30
0.0000000000000005
 40
0.0860000000000001
  0
ARC
  5
CE
330
5F
100
AcDbEntity
  8
USP-GEO
100
AcDbCircle
 10
4.220600000000047
 20
3.318584034162412
 30
0.0000000000000004
 40
0.9999999999999978
100
AcDbArc
 50
324.3707735512988
 51
359.9999999999992
  0
ARC
  5
CF
330
5F
100
AcDbEntity
  8
USP-GEO
100
AcDbCircle
 10
4.970600000000047
 20
3.547800000000009
 30
0.0000000000000005
 40
0.2499999999999961
100
AcDbArc
 50
0.0000000000016284
 51
74.533990046577
  0
LINE
  5
D0
330
5F
100
AcDbEntity
  8
USP-GEO
100
AcDbLine
 10
4.172800000000037
 20
3.318584034162412
 30
0.0000000000000004
 11
4.172800000000037
 21
2.736046378881596
 31
0.0000000000000004
210
0.0
220
1.0
230
0.0
  0
LINE
  5
D1
330
5F
100
AcDbEntity
  8
USP-GEO
100
AcDbLine
 10
4.220600000000032
 20
2.736046378881596
 30
0.0000000000000004
 11
4.220600000000032
 21
3.318584034162412
 31
0.0000000000000004
210
0.0
220
1.0
230
0.0
  0
CIRCLE
  5
D2
330
5F
100
AcDbEntity
  8
USP-GEO
100
AcDbCircle
 10
4.908100000000018
 20
3.047800000000009
 30
0.0000000000000005
 40
0.0860000000000001
  0
LINE
  5
D3
330
5F
100
AcDbEntity
  8
USP-GEO
100
AcDbLine
 10
5.033403715653406
 20
2.736046378881596
 30
0.0000000000000005
 11
4.220600000000032
 21
1.601956806832461
 31
0.0000000000000004
210
0.0
220
1.0
230
0.0
  0
ARC
  5
D4
330
5F
100
AcDbEntity
  8
USP-GEO
100
AcDbCircle
 10
4.172800000000037
 20
2.17279999999998
 30
0.0000000000000004
 40
0.2977999999999987
100
AcDbArc
 50
279.2365234554492
 51
80.76347654455082
  0
LINE
  5
D5
330
5F
100
AcDbEntity
  8
USP-GEO
100
AcDbLine
 10
4.172800000000037
 20
2.736046378881596
 30
0.0000000000000004
 11
4.172800000000037
 21
1.318434413820185
 31
0.0000000000000004
210
0.0
220
1.0
230
0.0
  0
LINE
  5
D6
330
5F
100
AcDbEntity
  8
USP-GEO
100
AcDbLine
 10
4.220600000000032
 20
1.318434413820185
 30
0.0000000000000004
 11
4.220600000000032
 21
2.736046378881596
 31
0.0000000000000004
210
0.0
220
1.0
230
0.0
  0
LINE
  5
D7
330
5F
100
AcDbEntity
  8
USP-GEO
100
AcDbLine
 10
4.172800000000037
 20
1.318434413820185
 30
0.0000000000000004
 11
4.172800000000037
 21
1.17279999999998
 31
0.0000000000000004
210
0.0
220
1.0
230
0.0
  0
LINE
  5
D8
330
5F
100
AcDbEntity
  8
USP-GEO
100
AcDbLine
 10
4.220600000000032
 20
1.17279999999998
 30
0.0000000000000004
 11
4.220600000000032
 21
1.318434413820185
 31
0.0000000000000004
210
0.0
220
1.0
230
0.0
  0
ARC
  5
D9
330
5F
100
AcDbEntity
  8
USP-GEO
100
AcDbCircle
 10
4.172800000000037
 20
4.214931211054945
 30
0.0000000000000004
 40
0.2977999999999987
100
AcDbArc
 50
279.2365234554492
 51
80.76347654455082
  0
LINE
  5
DA
330
5F
100
AcDbEntity
  8
USP-GEO
100
AcDbLine
 10
4.172800000000037
 20
3.547800000000009
 30
0.0000000000000004
 11
4.172800000000037
 21
3.318584034162412
 31
0.0000000000000004
210
0.0
220
1.0
230
0.0
  0
LINE
  5
DB
330
5F
100
AcDbEntity
  8
USP-GEO
100
AcDbLine
 10
4.220600000000032
 20
3.318584034162412
 30
0.0000000000000004
 11
4.220600000000032
 21
3.547800000000009
 31
0.0000000000000004
210
0.0
220
1.0
230
0.0
  0
LINE
  5
DC
330
5F
100
AcDbEntity
  8
USP-GEO
100
AcDbLine
 10
4.172800000000037
 20
3.788747204913235
 30
0.0000000000000004
 11
4.172800000000037
 21
3.547800000000009
 31
0.0000000000000004
210
0.0
220
1.0
230
0.0
  0
LINE
  5
DD
330
5F
100
AcDbEntity
  8
USP-GEO
100
AcDbLine
 10
4.172800000000037
 20
4.089931211054945
 30
0.0000000000000004
 11
4.172800000000037
 21
3.788747204913235
 31
0.0000000000000004
210
0.0
220
1.0
230
0.0
  0
LINE
  5
DE
330
5F
100
AcDbEntity
  8
USP-GEO
100
AcDbLine
 10
4.172800000000037
 20
4.339931211054945
 30
0.0000000000000004
 11
4.172800000000037
 21
4.089931211054945
 31
0.0000000000000004
210
0.0
220
1.0
230
0.0
  0
LINE
  5
DF
330
5F
100
AcDbEntity
  8
USP-GEO
100
AcDbLine
 10
4.172800000000023
 20
4.641115217196627
 30
0.0000000000000004
 11
4.172800000000023
 21
4.339931211054945
 31
0.0000000000000004
210
0.0
220
1.0
230
0.0
  0
LINE
  5
E0
330
5F
100
AcDbEntity
  8
USP-GEO
100
AcDbLine
 10
4.220600000000032
 20
4.339931211054945
 30
0.0000000000000004
 11
4.220600000000032
 21
4.641115217196627
 31
0.0000000000000004
210
0.0
220
1.0
230
0.0
  0
LINE
  5
E1
330
5F
100
AcDbEntity
  8
USP-GEO
100
AcDbLine
 10
4.220600000000032
 20
4.089931211054945
 30
0.0000000000000004
 11
4.220600000000032
 21
4.339931211054945
 31
0.0000000000000004
210
0.0
220
1.0
230
0.0
  0
LINE
  5
E2
330
5F
100
AcDbEntity
  8
USP-GEO
100
AcDbLine
 10
4.220600000000032
 20
3.788747204913249
 30
0.0000000000000004
 11
4.220600000000032
 21
4.089931211054945
 31
0.0000000000000004
210
0.0
220
1.0
230
0.0
  0
LINE
  5
E3
330
5F
100
AcDbEntity
  8
USP-GEO
100
AcDbLine
 10
4.220600000000032
 20
3.547800000000009
 30
0.0000000000000004
 11
4.220600000000032
 21
3.788747204913235
 31
0.0000000000000004
210
0.0
220
1.0
230
0.0
  0
ARC
  5
E4
330
5F
100
AcDbEntity
  8
USP-GEO
100
AcDbCircle
 10
5.120600000000024
 20
4.339931211054945
 30
0.0000000000000005
 40
0.3124999999999979
100
AcDbArc
 50
105.4660099534222
 51
179.9999999999984
  0
LINE
  5
E5
330
5F
100
AcDbEntity
  8
USP-GEO
100
AcDbLine
 10
4.808100000000038
 20
4.339931211054945
 30
0.0000000000000005
 11
4.808100000000038
 21
4.089931211054945
 31
0.0000000000000005
210
0.0
220
1.0
230
0.0
  0
ARC
  5
E6
330
5F
100
AcDbEntity
  8
USP-GEO
100
AcDbCircle
 10
5.120599999999967
 20
4.089931211055002
 30
0.0000000000000005
 40
0.3124999999999597
100
AcDbArc
 50
180.0000000000114
 51
254.5339900465948
  0
LINE
  5
E7
330
5F
100
AcDbEntity
  8
USP-GEO
100
AcDbLine
 10
5.220600000000032
 20
3.547800000000009
 30
0.0000000000000005
 11
5.220600000000032
 21
3.318584034162412
 31
0.0000000000000005
210
0.0
220
1.0
230
0.0
  0
ARC
  5
E8
330
5F
100
AcDbEntity
  8
USP-GEO
100
AcDbCircle
 10
4.970600000000089
 20
6.714931211055017
 30
0.0000000000000005
 40
0.2499999999999543
100
AcDbArc
 50
285.4660099534062
 51
359.9999999999837
  0
ARC
  5
E9
330
5F
100
AcDbEntity
  8
USP-GEO
100
AcDbCircle
 10
4.970600000000047
 20
5.380668788945072
 30
0.0000000000000005
 40
0.2499999999999961
100
AcDbArc
 50
0.0000000000016284
 51
74.533990046577
  0
LINE
  5
EA
330
5F
100
AcDbEntity
  8
USP-GEO
100
AcDbLine
 10
5.220600000000032
 20
7.297800000000009
 30
0.0000000000000005
 11
4.220600000000032
 21
7.297800000000009
 31
0.0000000000000004
210
0.0
220
1.0
230
0.0
  0
LINE
  5
EB
330
5F
100
AcDbEntity
  8
USP-GEO
100
AcDbLine
 10
4.172800000000037
 20
7.297800000000009
 30
0.0000000000000004
 11
4.172800000000037
 21
6.714931211055059
 31
0.0000000000000004
210
0.0
220
1.0
230
0.0
  0
LINE
  5
EC
330
5F
100
AcDbEntity
  8
USP-GEO
100
AcDbLine
 10
4.220600000000032
 20
6.714931211055059
 30
0.0000000000000004
 11
4.220600000000032
 21
7.297800000000009
 31
0.0000000000000004
210
0.0
220
1.0
230
0.0
  0
LINE
  5
ED
330
5F
100
AcDbEntity
  8
USP-GEO
100
AcDbLine
 10
4.172800000000037
 20
5.621615993858313
 30
0.0000000000000004
 11
4.172800000000037
 21
5.380668788944987
 31
0.0000000000000004
210
0.0
220
1.0
230
0.0
  0
LINE
  5
EE
330
5F
100
AcDbEntity
  8
USP-GEO
100
AcDbLine
 10
4.172800000000023
 20
5.922800000000009
 30
0.0000000000000004
 11
4.172800000000023
 21
5.621615993858327
 31
0.0000000000000004
210
0.0
220
1.0
230
0.0
  0
LINE
  5
EF
330
5F
100
AcDbEntity
  8
USP-GEO
100
AcDbLine
 10
4.172800000000037
 20
6.172800000000009
 30
0.0000000000000004
 11
4.172800000000037
 21
5.922800000000009
 31
0.0000000000000004
210
0.0
220
1.0
230
0.0
  0
LINE
  5
F0
330
5F
100
AcDbEntity
  8
USP-GEO
100
AcDbLine
 10
4.172800000000037
 20
6.473984006141691
 30
0.0000000000000004
 11
4.172800000000037
 21
6.172800000000009
 31
0.0000000000000004
210
0.0
220
1.0
230
0.0
  0
LINE
  5
F1
330
5F
100
AcDbEntity
  8
USP-GEO
100
AcDbLine
 10
4.172800000000037
 20
6.714931211055059
 30
0.0000000000000004
 11
4.172800000000037
 21
6.473984006141691
 31
0.0000000000000004
210
0.0
220
1.0
230
0.0
  0
LINE
  5
F2
330
5F
100
AcDbEntity
  8
USP-GEO
100
AcDbLine
 10
4.220600000000032
 20
6.473984006141691
 30
0.0000000000000004
 11
4.220600000000032
 21
6.714931211055059
 31
0.0000000000000004
210
0.0
220
1.0
230
0.0
  0
LINE
  5
F3
330
5F
100
AcDbEntity
  8
USP-GEO
100
AcDbLine
 10
4.220600000000032
 20
6.172800000000009
 30
0.0000000000000004
 11
4.220600000000032
 21
6.473984006141691
 31
0.0000000000000004
210
0.0
220
1.0
230
0.0
  0
LINE
  5
F4
330
5F
100
AcDbEntity
  8
USP-GEO
100
AcDbLine
 10
4.220600000000032
 20
5.922800000000009
 30
0.0000000000000004
 11
4.220600000000032
 21
6.172800000000009
 31
0.0000000000000004
210
0.0
220
1.0
230
0.0
  0
LINE
  5
F5
330
5F
100
AcDbEntity
  8
USP-GEO
100
AcDbLine
 10
4.220600000000032
 20
5.621615993858327
 30
0.0000000000000004
 11
4.220600000000032
 21
5.922800000000009
 31
0.0000000000000004
210
0.0
220
1.0
230
0.0
  0
LINE
  5
F6
330
5F
100
AcDbEntity
  8
USP-GEO
100
AcDbLine
 10
4.220600000000032
 20
5.380668788944987
 30
0.0000000000000004
 11
4.220600000000032
 21
5.621615993858313
 31
0.0000000000000004
210
0.0
220
1.0
230
0.0
  0
LINE
  5
F7
330
5F
100
AcDbEntity
  8
USP-GEO
100
AcDbLine
 10
4.172800000000037
 20
5.380668788944987
 30
0.0000000000000004
 11
4.172800000000037
 21
4.882062422109967
 31
0.0000000000000004
210
0.0
220
1.0
230
0.0
  0
LINE
  5
F8
330
5F
100
AcDbEntity
  8
USP-GEO
100
AcDbLine
 10
4.220600000000032
 20
4.882062422109967
 30
0.0000000000000004
 11
4.220600000000032
 21
5.380668788944987
 31
0.0000000000000004
210
0.0
220
1.0
230
0.0
  0
LINE
  5
F9
330
5F
100
AcDbEntity
  8
USP-GEO
100
AcDbLine
 10
4.433100000000038
 20
6.437871282108417
 30
0.0000000000000004
 11
4.633100000000027
 21
6.437871282108417
 31
0.0000000000000004
210
0.0
220
1.0
230
0.0
  0
LINE
  5
FA
330
5F
100
AcDbEntity
  8
USP-GEO
100
AcDbLine
 10
4.633100000000027
 20
5.798499587221243
 30
0.0000000000000004
 11
4.533100000000032
 21
5.716584382792348
 31
0.0000000000000004
210
0.0
220
1.0
230
0.0
  0
LINE
  5
FB
330
5F
100
AcDbEntity
  8
USP-GEO
100
AcDbLine
 10
4.633100000000013
 20
5.722800000000006
 30
0.0000000000000004
 11
4.533100000000032
 21
5.622799999999998
 31
0.0000000000000004
210
0.0
220
1.0
230
0.0
  0
LINE
  5
FC
330
5F
100
AcDbEntity
  8
USP-GEO
100
AcDbLine
 10
4.433100000000038
 20
6.151775224096994
 30
0.0000000000000004
 11
4.433100000000038
 21
6.437871282108417
 31
0.0000000000000004
210
0.0
220
1.0
230
0.0
  0
LINE
  5
FD
330
5F
100
AcDbEntity
  8
USP-GEO
100
AcDbLine
 10
4.433100000000038
 20
6.151775224096994
 30
0.0000000000000004
 11
4.433100000000038
 21
6.096941316781837
 31
0.0000000000000004
210
0.0
220
1.0
230
0.0
  0
LINE
  5
FE
330
5F
100
AcDbEntity
  8
USP-GEO
100
AcDbLine
 10
4.433100000000038
 20
5.810845258770413
 30
0.0000000000000004
 11
4.433100000000038
 21
6.096941316781837
 31
0.0000000000000004
210
0.0
220
1.0
230
0.0
  0
LINE
  5
FF
330
5F
100
AcDbEntity
  8
USP-GEO
100
AcDbLine
 10
4.533100000000032
 20
5.716584382792348
 30
0.0000000000000004
 11
4.433100000000038
 21
5.798499587221243
 31
0.0000000000000004
210
0.0
220
1.0
230
0.0
  0
LINE
  5
100
330
5F
100
AcDbEntity
  8
USP-GEO
100
AcDbLine
 10
4.533100000000032
 20
5.622799999999998
 30
0.0000000000000004
 11
4.433100000000038
 21
5.722799999999992
 31
0.0000000000000004
210
0.0
220
1.0
230
0.0
  0
LINE
  5
101
330
5F
100
AcDbEntity
  8
USP-GEO
100
AcDbLine
 10
4.433100000000038
 20
5.722799999999992
 30
0.0000000000000004
 11
4.433100000000038
 21
5.810845258770413
 31
0.0000000000000004
210
0.0
220
1.0
230
0.0
  0
LINE
  5
102
330
5F
100
AcDbEntity
  8
USP-GEO
100
AcDbLine
 10
4.633100000000027
 20
6.437871282108417
 30
0.0000000000000004
 11
4.633100000000013
 21
6.151775224096994
 31
0.0000000000000004
210
0.0
220
1.0
230
0.0
  0
LINE
  5
103
330
5F
100
AcDbEntity
  8
USP-GEO
100
AcDbLine
 10
4.633100000000013
 20
6.096941316781837
 30
0.0000000000000004
 11
4.633100000000013
 21
6.151775224096994
 31
0.0000000000000004
210
0.0
220
1.0
230
0.0
  0
LINE
  5
104
330
5F
100
AcDbEntity
  8
USP-GEO
100
AcDbLine
 10
4.633100000000027
 20
6.096941316781837
 30
0.0000000000000004
 11
4.633100000000027
 21
5.810845258770413
 31
0.0000000000000004
210
0.0
220
1.0
230
0.0
  0
LINE
  5
105
330
5F
100
AcDbEntity
  8
USP-GEO
100
AcDbLine
 10
4.633100000000027
 20
5.810845258770413
 30
0.0000000000000004
 11
4.633100000000027
 21
5.722799999999992
 31
0.0000000000000004
210
0.0
220
1.0
230
0.0
  0
CIRCLE
  5
106
330
5F
100
AcDbEntity
  8
USP-GEO
100
AcDbCircle
 10
4.908100000000032
 20
6.672800000000009
 30
0.0000000000000005
 40
0.0860000000000001
  0
ARC
  5
107
330
5F
100
AcDbEntity
  8
USP-GEO
100
AcDbCircle
 10
5.120600000000038
 20
6.172800000000009
 30
0.0000000000000005
 40
0.3124999999999979
100
AcDbArc
 50
105.4660099534222
 51
179.9999999999984
  0
LINE
  5
108
330
5F
100
AcDbEntity
  8
USP-GEO
100
AcDbLine
 10
4.808100000000038
 20
6.172800000000009
 30
0.0000000000000005
 11
4.808100000000038
 21
5.922800000000009
 31
0.0000000000000005
210
0.0
220
1.0
230
0.0
  0
ARC
  5
109
330
5F
100
AcDbEntity
  8
USP-GEO
100
AcDbCircle
 10
5.120599999999996
 20
5.922800000000066
 30
0.0000000000000005
 40
0.3124999999999561
100
AcDbArc
 50
180.0000000000089
 51
254.5339900465889
  0
LINE
  5
10A
330
5F
100
AcDbEntity
  8
USP-GEO
100
AcDbLine
 10
4.220600000000032
 20
7.297800000000009
 30
0.0000000000000004
 11
4.172800000000037
 21
7.297800000000009
 31
0.0000000000000004
210
0.0
220
1.0
230
0.0
  0
LINE
  5
10B
330
5F
100
AcDbEntity
  8
USP-GEO
100
AcDbLine
 10
5.220600000000032
 20
7.297800000000009
 30
0.0000000000000005
 11
5.220600000000032
 21
6.714931211054945
 31
0.0000000000000005
210
0.0
220
1.0
230
0.0
  0
LINE
  5
10C
330
5F
100
AcDbEntity
  8
USP-GEO
100
AcDbLine
 10
5.220600000000032
 20
5.380668788945072
 30
0.0000000000000005
 11
5.220600000000032
 21
4.882062422109882
 31
0.0000000000000005
210
0.0
220
1.0
230
0.0
  0
ENDBLK
  5
10E
330
5F
100
AcDbEntity
  8
0
100
AcDbBlockEnd
  0
BLOCK
  5
168
330
110
100
AcDbEntity
  8
0
100
AcDbBlockBegin
  2
JUS28-2_S
 70
     0
 10
0.0
 20
0.0
 30
0.0
  3
JUS28-2_S
  1

  0
ELLIPSE
  5
111
330
110
100
AcDbEntity
  8
USP-GEO
100
AcDbEllipse
 10
1.343501891765512
 20
4.46493121105496
 30
0.0000000000000002
 11
0.0
 21
-0.0820000000000036
 31
0.0
210
-0.0000000000000002
220
0.0
230
1.0
 40
0.7071067811865474
 41
0.0
 42
6.283185307179586
  0
ELLIPSE
  5
112
330
110
100
AcDbEntity
  8
USP-GEO
100
AcDbEllipse
 10
1.308062685551107
 20
4.46493121105496
 30
0.0000000000000002
 11
0.0
 21
0.0820000000000061
 31
0.0
210
-0.0000000000000002
220
0.0
230
1.0
 40
0.7071067811865691
 41
-2.831022822132096
 42
-0.3105698314582165
  0
ELLIPSE
  5
113
330
110
100
AcDbEntity
  8
USP-GEO
100
AcDbEllipse
 10
1.343501891765498
 20
2.172799999999995
 30
0.0000000000000002
 11
0.0
 21
-0.0820000000000036
 31
0.0
210
-0.0000000000000002
220
0.0
230
1.0
 40
0.7071067811865475
 41
-2.152944679833223
 42
-1.570796326794902
  0
ELLIPSE
  5
114
330
110
100
AcDbEntity
  8
USP-GEO
100
AcDbEllipse
 10
1.343501891765512
 20
2.297800000000009
 30
0.0000000000000002
 11
0.0
 21
-0.0820000000000036
 31
0.0
210
-0.0000000000000002
220
0.0
230
1.0
 40
0.7071067811865474
 41
0.0
 42
6.283185307179586
  0
ELLIPSE
  5
115
330
110
100
AcDbEntity
  8
USP-GEO
100
AcDbEllipse
 10
1.308062685551107
 20
2.297800000000009
 30
0.0000000000000002
 11
0.0
 21
0.0820000000000061
 31
0.0
210
-0.0000000000000002
220
0.0
230
1.0
 40
0.7071067811865691
 41
-2.831022822131835
 42
-0.3105698314579583
  0
LINE
  5
116
330
110
100
AcDbEntity
  8
USP-GEO
100
AcDbLine
 10
1.047800000000009
 20
7.297799999999995
 30
0.0000000000000001
 11
0.0477999999999952
 21
7.297799999999995
 31
0.0
210
0.0
220
1.0
230
0.0
  0
LINE
  5
117
330
110
100
AcDbEntity
  8
USP-GEO
100
AcDbLine
 10
2.297800000000009
 20
0.0
 30
0.0000000000000004
 11
0.2977999999999952
 21
0.0
 31
0.0
210
0.0
220
1.0
230
0.0
  0
LINE
  5
118
330
110
100
AcDbEntity
  8
USP-GEO
100
AcDbLine
 10
0.2977999999999952
 20
0.0
 30
0.0
 11
0.2977999999999952
 21
1.172799999999995
 31
0.0
210
0.0
220
1.0
230
0.0
  0
CIRCLE
  5
119
330
110
100
AcDbEntity
  8
USP-GEO
100
AcDbCircle
 10
0.2352999999999952
 20
4.985300000000023
 30
0.0
 40
0.1535000000000001
  0
LINE
  5
11A
330
110
100
AcDbEntity
  8
USP-GEO
100
AcDbLine
 10
0.0477999999999952
 20
4.58993121105496
 30
0.0
 11
0.0477999999999952
 21
4.891115217196642
 31
0.0
210
0.0
220
1.0
230
0.0
  0
LINE
  5
11B
330
110
100
AcDbEntity
  8
USP-GEO
100
AcDbLine
 10
0.0
 20
4.58993121105496
 30
-0.0000000000000001
 11
0.0
 21
4.891115217196627
 31
-0.0000000000000001
210
0.0
220
1.0
230
0.0
  0
LINE
  5
11C
330
110
100
AcDbEntity
  8
USP-GEO
100
AcDbLine
 10
0.0478000000000094
 20
2.73604637888161
 30
0.0
 11
0.0478000000000094
 21
3.318584034162427
 31
0.0
210
0.0
220
1.0
230
0.0
  0
LINE
  5
11D
330
110
100
AcDbEntity
  8
USP-GEO
100
AcDbLine
 10
0.0
 20
2.73604637888161
 30
-0.0000000000000001
 11
0.0
 21
3.318584034162427
 31
-0.0000000000000001
210
0.0
220
1.0
230
0.0
  0
LINE
  5
11E
330
110
100
AcDbEntity
  8
USP-GEO
100
AcDbLine
 10
0.0477999999999952
 20
1.601956806832475
 30
0.0
 11
0.0477999999999952
 21
2.73604637888161
 31
0.0
210
0.0
220
1.0
230
0.0
  0
LINE
  5
11F
330
110
100
AcDbEntity
  8
USP-GEO
100
AcDbLine
 10
0.0
 20
1.601956806832475
 30
-0.0000000000000001
 11
0.0
 21
2.73604637888161
 31
-0.0000000000000001
210
0.0
220
1.0
230
0.0
  0
ARC
  5
120
330
110
100
AcDbEntity
  8
USP-GEO
100
AcDbCircle
 10
0.0477999999999952
 20
1.172799999999995
 30
0.0
 40
0.249999999999998
100
AcDbArc
 50
0.0
 51
35.62922644870007
  0
LINE
  5
121
330
110
100
AcDbEntity
  8
USP-GEO
100
AcDbLine
 10
0.2510009289133563
 20
1.318434413820199
 30
0.0
 11
0.0477999999999952
 21
1.601956806832475
 31
0.0
210
0.0
220
1.0
230
0.0
  0
LINE
  5
122
330
110
100
AcDbEntity
  8
USP-GEO
100
AcDbLine
 10
0.0477999999999952
 20
1.601956806832475
 30
0.0
 11
0.0000000000000142
 21
1.601956806832475
 31
-0.0000000000000001
210
0.0
220
1.0
230
0.0
  0
LINE
  5
123
330
110
100
AcDbEntity
  8
USP-GEO
100
AcDbLine
 10
0.0477999999999952
 20
3.318584034162427
 30
0.0
 11
0.0477999999999952
 21
3.797800000000023
 31
0.0
210
0.0
220
1.0
230
0.0
  0
LINE
  5
124
330
110
100
AcDbEntity
  8
USP-GEO
100
AcDbLine
 10
0.0
 20
3.318584034162427
 30
-0.0000000000000001
 11
0.0
 21
3.797800000000023
 31
-0.0000000000000001
210
0.0
220
1.0
230
0.0
  0
LINE
  5
125
330
110
100
AcDbEntity
  8
USP-GEO
100
AcDbLine
 10
0.0478000000000094
 20
4.33993121105496
 30
0.0
 11
0.0478000000000094
 21
4.58993121105496
 31
0.0
210
0.0
220
1.0
230
0.0
  0
LINE
  5
126
330
110
100
AcDbEntity
  8
USP-GEO
100
AcDbLine
 10
0.0478000000000094
 20
4.038747204913363
 30
0.0
 11
0.0478000000000094
 21
4.33993121105496
 31
0.0
210
0.0
220
1.0
230
0.0
  0
LINE
  5
127
330
110
100
AcDbEntity
  8
USP-GEO
100
AcDbLine
 10
0.0477999999999952
 20
3.797800000000023
 30
0.0
 11
0.0477999999999952
 21
4.038747204913363
 31
0.0
210
0.0
220
1.0
230
0.0
  0
LINE
  5
128
330
110
100
AcDbEntity
  8
USP-GEO
100
AcDbLine
 10
0.0
 20
3.797800000000023
 30
-0.0000000000000001
 11
0.0
 21
4.038747204913363
 31
-0.0000000000000001
210
0.0
220
1.0
230
0.0
  0
LINE
  5
129
330
110
100
AcDbEntity
  8
USP-GEO
100
AcDbLine
 10
0.0
 20
4.038747204913363
 30
-0.0000000000000001
 11
0.0
 21
4.33993121105496
 31
-0.0000000000000001
210
0.0
220
1.0
230
0.0
  0
LINE
  5
12A
330
110
100
AcDbEntity
  8
USP-GEO
100
AcDbLine
 10
0.0
 20
4.33993121105496
 30
-0.0000000000000001
 11
0.0
 21
4.58993121105496
 31
-0.0000000000000001
210
0.0
220
1.0
230
0.0
  0
LINE
  5
12B
330
110
100
AcDbEntity
  8
USP-GEO
100
AcDbLine
 10
0.0477999999999952
 20
6.723984006141606
 30
0.0
 11
0.0477999999999952
 21
6.96493121105496
 31
0.0
210
0.0
220
1.0
230
0.0
  0
LINE
  5
12C
330
110
100
AcDbEntity
  8
USP-GEO
100
AcDbLine
 10
0.0
 20
6.723984006141606
 30
-0.0000000000000001
 11
0.0
 21
6.96493121105496
 31
-0.0000000000000001
210
0.0
220
1.0
230
0.0
  0
LINE
  5
12D
330
110
100
AcDbEntity
  8
USP-GEO
100
AcDbLine
 10
-0.0182021759180913
 20
5.966584382792362
 30
-0.0000000000000001
 11
0.0
 21
5.99257978404816
 31
-0.0000000000000001
210
0.0
220
1.0
230
0.0
  0
LINE
  5
12E
330
110
100
AcDbEntity
  8
USP-GEO
100
AcDbLine
 10
0.0
 20
6.075916540878836
 30
-0.0000000000000001
 11
-0.0573576436351004
 21
5.99400133644994
 31
-0.0000000000000001
210
0.0
220
1.0
230
0.0
  0
LINE
  5
12F
330
110
100
AcDbEntity
  8
USP-GEO
100
AcDbLine
 10
-0.0182021759181055
 20
5.716584382792348
 30
-0.0000000000000001
 11
0.0
 21
5.74257978404816
 31
-0.0000000000000001
210
0.0
220
1.0
230
0.0
  0
LINE
  5
130
330
110
100
AcDbEntity
  8
USP-GEO
100
AcDbLine
 10
-0.0000000000000142
 20
5.825916540878822
 30
-0.0000000000000001
 11
-0.0573576436351147
 21
5.744001336449926
 31
-0.0000000000000001
210
0.0
220
1.0
230
0.0
  0
LINE
  5
131
330
110
100
AcDbEntity
  8
USP-GEO
100
AcDbLine
 10
-0.0182021759180913
 20
5.966584382792362
 30
-0.0000000000000001
 11
-0.0573576436351004
 21
5.99400133644994
 31
-0.0000000000000001
210
0.0
220
1.0
230
0.0
  0
LINE
  5
132
330
110
100
AcDbEntity
  8
USP-GEO
100
AcDbLine
 10
-0.0182021759181055
 20
5.716584382792348
 30
-0.0000000000000001
 11
-0.0573576436351147
 21
5.744001336449926
 31
-0.0000000000000001
210
0.0
220
1.0
230
0.0
  0
LINE
  5
133
330
110
100
AcDbEntity
  8
USP-GEO
100
AcDbLine
 10
0.0477999999999952
 20
5.132062422109896
 30
0.0
 11
0.0477999999999952
 21
5.630668788945087
 31
0.0
210
0.0
220
1.0
230
0.0
  0
LINE
  5
134
330
110
100
AcDbEntity
  8
USP-GEO
100
AcDbLine
 10
0.0
 20
5.132062422109896
 30
-0.0000000000000001
 11
0.0
 21
5.630668788945087
 31
-0.0000000000000001
210
0.0
220
1.0
230
0.0
  0
LINE
  5
135
330
110
100
AcDbEntity
  8
USP-GEO
100
AcDbLine
 10
0.0477999999999952
 20
4.891115217196642
 30
0.0
 11
0.0477999999999952
 21
5.132062422109896
 31
0.0
210
0.0
220
1.0
230
0.0
  0
LINE
  5
136
330
110
100
AcDbEntity
  8
USP-GEO
100
AcDbLine
 10
0.0
 20
4.891115217196642
 30
-0.0000000000000001
 11
0.0
 21
5.132062422109896
 31
-0.0000000000000001
210
0.0
220
1.0
230
0.0
  0
LINE
  5
137
330
110
100
AcDbEntity
  8
USP-GEO
100
AcDbLine
 10
0.0478000000000094
 20
6.422800000000023
 30
0.0
 11
0.0478000000000094
 21
6.72398400614162
 31
0.0
210
0.0
220
1.0
230
0.0
  0
LINE
  5
138
330
110
100
AcDbEntity
  8
USP-GEO
100
AcDbLine
 10
0.0478000000000094
 20
6.172800000000023
 30
0.0
 11
0.0478000000000094
 21
6.422800000000023
 31
0.0
210
0.0
220
1.0
230
0.0
  0
LINE
  5
139
330
110
100
AcDbEntity
  8
USP-GEO
100
AcDbLine
 10
0.0478000000000094
 20
5.871615993858341
 30
0.0
 11
0.0478000000000094
 21
6.172800000000037
 31
0.0
210
0.0
220
1.0
230
0.0
  0
LINE
  5
13A
330
110
100
AcDbEntity
  8
USP-GEO
100
AcDbLine
 10
0.0477999999999952
 20
5.630668788945087
 30
0.0
 11
0.0477999999999952
 21
5.871615993858341
 31
0.0
210
0.0
220
1.0
230
0.0
  0
ARC
  5
13B
330
110
100
AcDbEntity
  8
USP-GEO
100
AcDbCircle
 10
0.2089711487546708
 20
6.374358270439444
 30
0.0
 40
0.0478
100
AcDbArc
 50
324.9999999999938
 51
34.99999999998696
  0
LINE
  5
13C
330
110
100
AcDbEntity
  8
USP-GEO
100
AcDbLine
 10
0.0478000000000094
 20
6.060845258770427
 30
0.0
 11
0.24812661647168
 21
6.346941316781851
 31
0.0
210
0.0
220
1.0
230
0.0
  0
ARC
  5
13D
330
110
100
AcDbEntity
  8
USP-GEO
100
AcDbCircle
 10
0.1506181234118742
 20
6.374358270439429
 30
0.0
 40
0.0478
100
AcDbArc
 50
325.0000000000008
 51
34.99999999999623
  0
LINE
  5
13E
330
110
100
AcDbEntity
  8
USP-GEO
100
AcDbLine
 10
0.1897735911288976
 20
6.346941316781851
 30
0.0
 11
0.0478000000000094
 21
6.144182015601103
 31
0.0
210
0.0
220
1.0
230
0.0
  0
LINE
  5
13F
330
110
100
AcDbEntity
  8
USP-GEO
100
AcDbLine
 10
0.0478000000000094
 20
6.604534525277756
 30
0.0
 11
0.1897735911288976
 21
6.401775224097008
 31
0.0
210
0.0
220
1.0
230
0.0
  0
LINE
  5
140
330
110
100
AcDbEntity
  8
USP-GEO
100
AcDbLine
 10
0.24812661647168
 20
6.401775224097008
 30
0.0
 11
0.0477999999999952
 21
6.687871282108432
 31
0.0
210
0.0
220
1.0
230
0.0
  0
LINE
  5
141
330
110
100
AcDbEntity
  8
USP-GEO
100
AcDbLine
 10
0.0
 20
5.630668788945087
 30
-0.0000000000000001
 11
0.0
 21
5.871615993858341
 31
-0.0000000000000001
210
0.0
220
1.0
230
0.0
  0
LINE
  5
142
330
110
100
AcDbEntity
  8
USP-GEO
100
AcDbLine
 10
0.0
 20
5.871615993858341
 30
-0.0000000000000001
 11
0.0
 21
6.172800000000023
 31
-0.0000000000000001
210
0.0
220
1.0
230
0.0
  0
LINE
  5
143
330
110
100
AcDbEntity
  8
USP-GEO
100
AcDbLine
 10
0.0
 20
6.172800000000023
 30
-0.0000000000000001
 11
0.0
 21
6.422800000000023
 31
-0.0000000000000001
210
0.0
220
1.0
230
0.0
  0
LINE
  5
144
330
110
100
AcDbEntity
  8
USP-GEO
100
AcDbLine
 10
0.0
 20
6.422800000000023
 30
-0.0000000000000001
 11
0.0
 21
6.72398400614162
 31
-0.0000000000000001
210
0.0
220
1.0
230
0.0
  0
LINE
  5
145
330
110
100
AcDbEntity
  8
USP-GEO
100
AcDbLine
 10
0.0477999999999952
 20
6.96493121105496
 30
0.0
 11
0.0477999999999952
 21
7.297800000000009
 31
0.0
210
0.0
220
1.0
230
0.0
  0
LINE
  5
146
330
110
100
AcDbEntity
  8
USP-GEO
100
AcDbLine
 10
0.0
 20
6.96493121105496
 30
-0.0000000000000001
 11
0.0
 21
7.297800000000009
 31
-0.0000000000000001
210
0.0
220
1.0
230
0.0
  0
LINE
  5
147
330
110
100
AcDbEntity
  8
USP-GEO
100
AcDbLine
 10
0.0477999999999952
 20
7.297799999999995
 30
0.0
 11
0.0
 21
7.297799999999995
 31
-0.0000000000000001
210
0.0
220
1.0
230
0.0
  0
TEXT
  5
148
330
110
100
AcDbEntity
  8
USP-TXT
100
AcDbText
 10
-1.035533333333337
 20
-0.8105342321866544
 30
0.0000000000000002
 40
0.25
  1
JUS28-2 - SIDE VIEW
 72
     1
 11
1.297799999999995
 21
-0.8105342321866544
 31
0.0000000000000002
100
AcDbText
  0
LINE
  5
149
330
110
100
AcDbEntity
  8
USP-HID
100
AcDbLine
 10
0.2977999999999952
 20
0.0477999999999952
 30
0.0000000000000001
 11
2.297800000000009
 21
0.0477999999999952
 31
0.0000000000000001
  0
LINE
  5
14C
330
110
100
AcDbEntity
  8
USP-GEO
100
AcDbLine
 10
2.297800000000009
 20
1.172799999999995
 30
0.0000000000000004
 11
2.297800000000009
 21
0.0
 31
0.0000000000000004
210
0.0
220
1.0
230
0.0
  0
ARC
  5
14D
330
110
100
AcDbEntity
  8
USP-GEO
100
AcDbCircle
 10
1.297800000000009
 20
5.132062422109981
 30
0.0000000000000002
 40
0.2499999999999977
100
AcDbArc
 50
180.0000000000016
 51
254.5339900465795
  0
ARC
  5
14E
330
110
100
AcDbEntity
  8
USP-GEO
100
AcDbCircle
 10
1.147799999999989
 20
4.58993121105496
 30
0.0000000000000002
 40
0.3125000000000012
100
AcDbArc
 50
0.0
 51
74.5339900465778
  0
ARC
  5
14F
330
110
100
AcDbEntity
  8
USP-GEO
100
AcDbCircle
 10
2.047800000000009
 20
3.318584034162427
 30
0.0000000000000003
 40
0.9999999999999978
100
AcDbArc
 50
180.0000000000008
 51
215.6292264487012
  0
LINE
  5
150
330
110
100
AcDbEntity
  8
USP-GEO
100
AcDbLine
 10
1.234996284346649
 20
2.73604637888161
 30
0.0000000000000002
 11
2.251000928913356
 21
1.318434413820199
 31
0.0000000000000004
210
0.0
220
1.0
230
0.0
  0
CIRCLE
  5
151
330
110
100
AcDbEntity
  8
USP-GEO
100
AcDbCircle
 10
1.141065679589914
 20
2.297799999999995
 30
0.0000000000000002
 40
0.293938769133981
  0
ARC
  5
152
330
110
100
AcDbEntity
  8
USP-GEO
100
AcDbCircle
 10
1.141065679589914
 20
2.172799999999995
 30
0.0000000000000002
 40
0.2500000000000001
100
AcDbArc
 50
26.30903480974517
 51
48.67096500962522
  0
ARC
  5
153
330
110
100
AcDbEntity
  8
USP-GEO
100
AcDbCircle
 10
2.047800000000009
 20
1.172799999999995
 30
0.0000000000000003
 40
0.249999999999998
100
AcDbArc
 50
0.0
 51
35.62922644870007
  0
ARC
  5
154
330
110
100
AcDbEntity
  8
USP-GEO
100
AcDbCircle
 10
1.297799999999938
 20
3.547799999999938
 30
0.0000000000000002
 40
0.2499999999999324
100
AcDbArc
 50
105.4660099534078
 51
179.999999999987
  0
ARC
  5
155
330
110
100
AcDbEntity
  8
USP-GEO
100
AcDbCircle
 10
1.297800000000009
 20
3.797799999999909
 30
0.0000000000000002
 40
0.250000000000007
100
AcDbArc
 50
105.4660099534214
 51
180.0
  0
CIRCLE
  5
156
330
110
100
AcDbEntity
  8
USP-GEO
100
AcDbCircle
 10
1.141065679589914
 20
4.46493121105496
 30
0.0000000000000002
 40
0.293938769133981
  0
LINE
  5
157
330
110
100
AcDbEntity
  8
USP-GEO
100
AcDbLine
 10
1.047800000000009
 20
3.797799999999909
 30
0.0000000000000001
 11
1.047800000000009
 21
3.318584034162427
 31
0.0000000000000001
210
0.0
220
1.0
230
0.0
  0
ARC
  5
158
330
110
100
AcDbEntity
  8
USP-GEO
100
AcDbCircle
 10
1.147799999999989
 20
4.089931211054931
 30
0.0000000000000002
 40
0.3125000000000058
100
AcDbArc
 50
285.4660099534214
 51
0.0
  0
LINE
  5
159
330
110
100
AcDbEntity
  8
USP-GEO
100
AcDbLine
 10
1.460300000000003
 20
4.339931211054931
 30
0.0000000000000002
 11
1.460300000000003
 21
4.089931211054931
 31
0.0000000000000002
210
0.0
220
1.0
230
0.0
  0
ARC
  5
15A
330
110
100
AcDbEntity
  8
USP-GEO
100
AcDbCircle
 10
1.141065679589914
 20
4.214931211054931
 30
0.0000000000000002
 40
0.2500000000000001
100
AcDbArc
 50
263.6191508634897
 51
338.7772229973471
  0
ARC
  5
15B
330
110
100
AcDbEntity
  8
USP-GEO
100
AcDbCircle
 10
1.141065679589914
 20
4.214931211054931
 30
0.0000000000000002
 40
0.2500000000000001
100
AcDbArc
 50
44.68846250695762
 51
49.07055207075698
  0
ARC
  5
15C
330
110
100
AcDbEntity
  8
USP-GEO
100
AcDbCircle
 10
1.147799999999989
 20
4.33993121105496
 30
0.0000000000000002
 40
0.3125000000000059
100
AcDbArc
 50
285.4660099534222
 51
0.0
  0
LINE
  5
15D
330
110
100
AcDbEntity
  8
USP-GEO
100
AcDbLine
 10
1.460300000000003
 20
4.58993121105496
 30
0.0000000000000002
 11
1.460300000000003
 21
4.33993121105496
 31
0.0000000000000002
210
0.0
220
1.0
230
0.0
  0
ARC
  5
15E
330
110
100
AcDbEntity
  8
USP-GEO
100
AcDbCircle
 10
1.147799999999989
 20
6.422800000000023
 30
0.0000000000000002
 40
0.3125000000000012
100
AcDbArc
 50
0.0
 51
74.5339900465778
  0
ARC
  5
15F
330
110
100
AcDbEntity
  8
USP-GEO
100
AcDbCircle
 10
1.297800000000009
 20
6.964931211055073
 30
0.0000000000000002
 40
0.2500000000000023
100
AcDbArc
 50
180.0000000000016
 51
254.5339900465786
  0
ARC
  5
160
330
110
100
AcDbEntity
  8
USP-GEO
100
AcDbCircle
 10
1.297800000000009
 20
5.380668788944973
 30
0.0000000000000002
 40
0.2499999999999977
100
AcDbArc
 50
105.4660099534204
 51
179.9999999999967
  0
ARC
  5
161
330
110
100
AcDbEntity
  8
USP-GEO
100
AcDbCircle
 10
1.297800000000009
 20
5.630668788944973
 30
0.0000000000000002
 40
0.2500000000000023
100
AcDbArc
 50
105.4660099534214
 51
179.9999999999984
  0
LINE
  5
162
330
110
100
AcDbEntity
  8
USP-GEO
100
AcDbLine
 10
1.047799999999995
 20
5.630668788944973
 30
0.0000000000000001
 11
1.047799999999995
 21
5.132062422109981
 31
0.0000000000000001
210
0.0
220
1.0
230
0.0
  0
ARC
  5
163
330
110
100
AcDbEntity
  8
USP-GEO
100
AcDbCircle
 10
1.147799999999989
 20
5.922799999999995
 30
0.0000000000000002
 40
0.3124999999999964
100
AcDbArc
 50
285.4660099534214
 51
0.0000000000008142
  0
LINE
  5
164
330
110
100
AcDbEntity
  8
USP-GEO
100
AcDbLine
 10
1.460300000000003
 20
6.172799999999995
 30
0.0000000000000002
 11
1.460300000000003
 21
5.922800000000009
 31
0.0000000000000002
210
0.0
220
1.0
230
0.0
  0
ARC
  5
165
330
110
100
AcDbEntity
  8
USP-GEO
100
AcDbCircle
 10
1.147799999999989
 20
6.172800000000023
 30
0.0000000000000002
 40
0.3125000000000059
100
AcDbArc
 50
285.4660099534222
 51
0.0000000000008142
  0
LINE
  5
166
330
110
100
AcDbEntity
  8
USP-GEO
100
AcDbLine
 10
1.460300000000003
 20
6.422800000000023
 30
0.0000000000000002
 11
1.460300000000003
 21
6.172800000000023
 31
0.0000000000000002
210
0.0
220
1.0
230
0.0
  0
LINE
  5
167
330
110
100
AcDbEntity
  8
USP-GEO
100
AcDbLine
 10
1.047799999999995
 20
7.297799999999995
 30
0.0000000000000001
 11
1.047799999999995
 21
6.964931211055059
 31
0.0000000000000001
210
0.0
220
1.0
230
0.0
  0
ENDBLK
  5
169
330
110
100
AcDbEntity
  8
0
100
AcDbBlockEnd
  0
ENDSEC
  0
SECTION
  2
ENTITIES
  0
INSERT
  5
3
330
2
100
AcDbEntity
  8
USP
100
AcDbBlockReference
  2
JUS28-2_T
 10
5.316810875188839
 20
10.11280510457455
 30
0.0000000000000096
  0
INSERT
  5
5E
330
2
100
AcDbEntity
  8
USP
100
AcDbBlockReference
  2
JUS28-2_F
 10
5.316810875188839
 20
0.8109148182251075
 30
0.0000000000000094
  0
INSERT
  5
10F
330
2
100
AcDbEntity
  8
USP
100
AcDbBlockReference
  2
JUS28-2_S
 10
1.035899516331586
 20
0.8109148182251217
 30
0.0000000000000096
  0
ENDSEC
  0
SECTION
  2
OBJECTS
  0
DICTIONARY
  5
185
330
0
100
AcDbDictionary
281
     1
  3
ACAD_COLOR
350
19D
  3
ACAD_GROUP
350
182
  3
ACAD_LAYOUT
350
19E
  3
ACAD_MATERIAL
350
19C
  3
ACAD_MLINESTYLE
350
183
  3
ACAD_PLOTSETTINGS
350
19F
  3
ACAD_PLOTSTYLENAME
350
19A
  3
ACDBHEADERROUNDTRIPXREC
350
1A8
  3
AcDbVariableDictionary
350
1A4
  0
DICTIONARY
  5
177
330
176
100
AcDbDictionary
280
     1
281
     1
  0
DICTIONARY
  5
179
330
178
100
AcDbDictionary
280
     1
281
     1
  0
DICTIONARY
  5
6
330
5
100
AcDbDictionary
280
     1
281
     1
  0
DICTIONARY
  5
B
330
A
100
AcDbDictionary
280
     1
281
     1
  0
DICTIONARY
  5
18A
330
189
100
AcDbDictionary
280
     1
281
     1
  0
DICTIONARY
  5
16A
330
2
100
AcDbDictionary
280
     1
281
     1
  3
ACAD_LAYOUTSELFREF
360
16B
  0
DICTIONARY
  5
16F
330
16E
100
AcDbDictionary
280
     1
281
     1
  3
ACAD_LAYOUTSELFREF
360
170
  0
DICTIONARY
  5
19D
102
{ACAD_REACTORS
330
185
102
}
330
185
100
AcDbDictionary
281
     1
  0
DICTIONARY
  5
182
102
{ACAD_REACTORS
330
185
102
}
330
185
100
AcDbDictionary
281
     1
  0
DICTIONARY
  5
19E
102
{ACAD_REACTORS
330
185
102
}
330
185
100
AcDbDictionary
281
     1
  3
Layout1
350
1A1
  3
Model
350
1A0
  0
DICTIONARY
  5
19C
102
{ACAD_REACTORS
330
185
102
}
330
185
100
AcDbDictionary
281
     1
  0
DICTIONARY
  5
183
102
{ACAD_XDICTIONARY
360
184
102
}
102
{ACAD_REACTORS
330
185
102
}
330
185
100
AcDbDictionary
281
     1
  3
STANDARD
350
188
  0
DICTIONARY
  5
19F
102
{ACAD_REACTORS
330
185
102
}
330
185
100
AcDbDictionary
281
     1
  0
ACDBDICTIONARYWDFLT
  5
19A
102
{ACAD_REACTORS
330
185
102
}
330
185
100
AcDbDictionary
281
     1
  3
Normal
350
19B
100
AcDbDictionaryWithDefault
340
19B
  0
DICTIONARY
  5
1A8
102
{ACAD_REACTORS
330
185
102
}
330
185
100
AcDbDictionary
281
     1
  3
COLORDICT
350
1AA
  3
MATERIALDICT
350
1A9
  0
DICTIONARY
  5
1A4
102
{ACAD_REACTORS
330
185
102
}
330
185
100
AcDbDictionary
281
     1
  3
DIMASSOC
350
1A5
  3
PROJECTNAME
350
1A6
  0
XRECORD
  5
16B
102
{ACAD_REACTORS
330
16A
102
}
330
16A
100
AcDbXrecord
280
     1
340
2
  0
XRECORD
  5
170
102
{ACAD_REACTORS
330
16F
102
}
330
16F
100
AcDbXrecord
280
     1
340
170
  0
LAYOUT
  5
1A1
102
{ACAD_XDICTIONARY
360
1AD
102
}
102
{ACAD_REACTORS
330
19E
102
}
330
19E
100
AcDbPlotSettings
  1

  2
\\mitk-us-mtg-n28\Office Canon IR C2550
  4

  6

 40
0.0
 41
0.0
 42
0.0
 43
0.0
 44
0.0
 45
0.0
 46
0.0
 47
0.0
 48
0.0
 49
0.0
140
0.0
141
0.0
142
1.0
143
1.0
 70
   688
 72
     0
 73
     0
 74
     5
  7

 75
    16
147
1.0
148
0.0
149
0.0
100
AcDbLayout
  1
Layout1
 70
     1
 71
     1
 10
0.0
 20
0.0
 11
12.0
 21
9.0
 12
0.0
 22
0.0
 32
0.0
 14
1.000000000000000E+20
 24
1.000000000000000E+20
 34
1.000000000000000E+20
 15
-1.000000000000000E+20
 25
-1.000000000000000E+20
 35
-1.000000000000000E+20
146
0.0
 13
0.0
 23
0.0
 33
0.0
 16
1.0
 26
0.0
 36
0.0
 17
0.0
 27
1.0
 37
0.0
 76
     0
330
16E
  0
LAYOUT
  5
1A0
102
{ACAD_XDICTIONARY
360
1AB
102
}
102
{ACAD_REACTORS
330
19E
102
}
330
19E
100
AcDbPlotSettings
  1

  2
\\mitk-us-mtg-n28\Office Canon IR C2550
  4

  6

 40
0.0
 41
0.0
 42
0.0
 43
0.0
 44
0.0
 45
0.0
 46
0.0
 47
0.0
 48
0.0
 49
0.0
140
0.0
141
0.0
142
1.0
143
1.0
 70
  1712
 72
     0
 73
     0
 74
     0
  7

 75
     0
147
1.0
148
0.0
149
0.0
100
AcDbLayout
  1
Model
 70
     1
 71
     0
 10
0.0
 20
0.0
 11
12.0
 21
9.0
 12
0.0
 22
0.0
 32
0.0
 14
0.0
 24
0.0
 34
0.0
 15
0.0
 25
0.0
 35
0.0
146
0.0
 13
0.0
 23
0.0
 33
0.0
 16
1.0
 26
0.0
 36
0.0
 17
0.0
 27
1.0
 37
0.0
 76
     0
330
2
  0
DICTIONARY
  5
184
330
183
100
AcDbDictionary
280
     1
281
     1
  0
MLINESTYLE
  5
188
102
{ACAD_REACTORS
330
183
102
}
330
183
100
AcDbMlineStyle
  2
STANDARD
 70
     0
  3

 62
   256
 51
90.0
 52
90.0
 71
     2
 49
0.5
 62
   256
  6
BYLAYER
 49
-0.5
 62
   256
  6
BYLAYER
  0
ACDBPLACEHOLDER
  5
19B
102
{ACAD_REACTORS
330
19A
102
}
330
19A
  0
XRECORD
  5
1AA
102
{ACAD_REACTORS
330
1A8
102
}
330
1A8
100
AcDbXrecord
280
     1
340
19D
  0
XRECORD
  5
1A9
102
{ACAD_REACTORS
330
1A8
102
}
330
1A8
100
AcDbXrecord
280
     1
340
19C
  0
DICTIONARYVAR
  5
1A5
102
{ACAD_REACTORS
330
1A4
102
}
330
1A4
100
DictionaryVariables
280
     0
  1
1
  0
DICTIONARYVAR
  5
1A6
102
{ACAD_REACTORS
330
1A4
102
}
330
1A4
100
DictionaryVariables
280
     0
  1

  0
DICTIONARY
  5
1AD
330
1A1
100
AcDbDictionary
280
     1
281
     1
  3
ACAD_XREC_ROUNDTRIP
360
1AE
  0
DICTIONARY
  5
1AB
330
1A0
100
AcDbDictionary
280
     1
281
     1
  3
ACAD_XREC_ROUNDTRIP
360
1AC
  0
XRECORD
  5
1AE
102
{ACAD_REACTORS
330
1AD
102
}
330
1AD
100
AcDbXrecord
280
     1
102
SHADEPLOT
 70
     0
102
SHADEPLOTRESLEVEL
 70
     2
102
SHADEPLOTCUSTOMDPI
 70
   300
  0
XRECORD
  5
1AC
102
{ACAD_REACTORS
330
1AB
102
}
330
1AB
100
AcDbXrecord
280
     1
102
SHADEPLOT
 70
     0
102
SHADEPLOTRESLEVEL
 70
     2
102
SHADEPLOTCUSTOMDPI
 70
   300
  0
ENDSEC
  0
EOF
