  0
SECTION
  2
HEADER
  9
$ACADVER
  1
AC1027
  9
$ACADMAINTVER
 70
   125
  9
$DWGCODEPAGE
  3
ANSI_1252
  9
$LASTSAVEDBY
  1
722560
  9
$REQUIREDVERSIONS
160
                 0
  9
$INSBASE
 10
0.0
 20
0.0
 30
0.0
  9
$EXTMIN
 10
-1136.616177578487
 20
-371.1879923339424
 30
0.0
  9
$EXTMAX
 10
-85.43603997129389
 20
1114.320257417989
 30
0.0
  9
$LIMMIN
 10
0.0
 20
0.0
  9
$LIMMAX
 10
12.0
 20
9.0
  9
$ORTHOMODE
 70
     1
  9
$REGENMODE
 70
     1
  9
$FILLMODE
 70
     1
  9
$QTEXTMODE
 70
     0
  9
$MIRRTEXT
 70
     1
  9
$LTSCALE
 40
1.0
  9
$ATTMODE
 70
     1
  9
$TEXTSIZE
 40
0.25
  9
$TRACEWID
 40
0.05
  9
$TEXTSTYLE
  7
STANDARD
  9
$CLAYER
  8
0
  9
$CELTYPE
  6
BYLAYER
  9
$CECOLOR
 62
   256
  9
$CELTSCALE
 40
1.0
  9
$DISPSILH
 70
     0
  9
$DIMSCALE
 40
1.0
  9
$DIMASZ
 40
3.5
  9
$DIMEXO
 40
2.0
  9
$DIMDLI
 40
12.0
  9
$DIMRND
 40
0.0
  9
$DIMDLE
 40
0.0
  9
$DIMEXE
 40
1.5
  9
$DIMTP
 40
0.0
  9
$DIMTM
 40
0.0
  9
$DIMTXT
 40
3.0
  9
$DIMCEN
 40
4.0
  9
$DIMTSZ
 40
0.0
  9
$DIMTOL
 70
     0
  9
$DIMLIM
 70
     0
  9
$DIMTIH
 70
     1
  9
$DIMTOH
 70
     1
  9
$DIMSE1
 70
     0
  9
$DIMSE2
 70
     0
  9
$DIMTAD
 70
     0
  9
$DIMZIN
 70
     3
  9
$DIMBLK
  1
Closed
  9
$DIMASO
 70
     1
  9
$DIMSHO
 70
     1
  9
$DIMPOST
  1

  9
$DIMAPOST
  1

  9
$DIMALT
 70
     0
  9
$DIMALTD
 70
     2
  9
$DIMALTF
 40
25.4
  9
$DIMLFAC
 40
0.039370078
  9
$DIMTOFL
 70
     1
  9
$DIMTVP
 40
0.0
  9
$DIMTIX
 70
     0
  9
$DIMSOXD
 70
     0
  9
$DIMSAH
 70
     0
  9
$DIMBLK1
  1
Closed
  9
$DIMBLK2
  1
Dot
  9
$DIMSTYLE
  2
new 1
  9
$DIMCLRD
 70
     0
  9
$DIMCLRE
 70
     0
  9
$DIMCLRT
 70
     0
  9
$DIMTFAC
 40
0.8
  9
$DIMGAP
 40
1.5
  9
$DIMJUST
 70
     0
  9
$DIMSD1
 70
     0
  9
$DIMSD2
 70
     0
  9
$DIMTOLJ
 70
     1
  9
$DIMTZIN
 70
     0
  9
$DIMALTZ
 70
     0
  9
$DIMALTTZ
 70
     0
  9
$DIMUPT
 70
     0
  9
$DIMDEC
 70
     4
  9
$DIMTDEC
 70
     4
  9
$DIMALTU
 70
     2
  9
$DIMALTTD
 70
     2
  9
$DIMTXSTY
  7
STANDARD
  9
$DIMAUNIT
 70
     0
  9
$DIMADEC
 70
     2
  9
$DIMALTRND
 40
0.0
  9
$DIMAZIN
 70
     3
  9
$DIMDSEP
 70
    46
  9
$DIMATFIT
 70
     3
  9
$DIMFRAC
 70
     0
  9
$DIMLDRBLK
  1
Closed
  9
$DIMLUNIT
 70
     4
  9
$DIMLWD
 70
    -2
  9
$DIMLWE
 70
    -1
  9
$DIMTMOVE
 70
     2
  9
$DIMFXL
 40
1.0
  9
$DIMFXLON
 70
     0
  9
$DIMJOGANG
 40
1.570796326794896
  9
$DIMTFILL
 70
     1
  9
$DIMTFILLCLR
 70
     0
  9
$DIMARCSYM
 70
     0
  9
$DIMLTYPE
  6

  9
$DIMLTEX1
  6
BYLAYER
  9
$DIMLTEX2
  6
BYLAYER
  9
$DIMTXTDIRECTION
 70
     0
  9
$LUNITS
 70
     2
  9
$LUPREC
 70
     0
  9
$SKETCHINC
 40
0.1
  9
$FILLETRAD
 40
0.0
  9
$AUNITS
 70
     0
  9
$AUPREC
 70
     0
  9
$MENU
  1
.
  9
$ELEVATION
 40
0.0
  9
$PELEVATION
 40
0.0
  9
$THICKNESS
 40
0.0
  9
$LIMCHECK
 70
     0
  9
$CHAMFERA
 40
0.5
  9
$CHAMFERB
 40
0.5
  9
$CHAMFERC
 40
1.0
  9
$CHAMFERD
 40
0.0
  9
$SKPOLY
 70
     0
  9
$TDCREATE
 40
2451667.537939815
  9
$TDUCREATE
 40
2451667.246273149
  9
$TDUPDATE
 40
2460396.571064815
  9
$TDUUPDATE
 40
2460396.279398148
  9
$TDINDWG
 40
2.2519556597
  9
$TDUSRTIMER
 40
2.2519556597
  9
$USRTIMER
 70
     1
  9
$ANGBASE
 50
0.0
  9
$ANGDIR
 70
     0
  9
$PDMODE
 70
     0
  9
$PDSIZE
 40
0.0
  9
$PLINEWID
 40
0.0
  9
$SPLFRAME
 70
     0
  9
$SPLINETYPE
 70
     6
  9
$SPLINESEGS
 70
     8
  9
$HANDSEED
  5
296F7
  9
$SURFTAB1
 70
     6
  9
$SURFTAB2
 70
     6
  9
$SURFTYPE
 70
     6
  9
$SURFU
 70
     6
  9
$SURFV
 70
     6
  9
$UCSBASE
  2

  9
$UCSNAME
  2

  9
$UCSORG
 10
0.0
 20
0.0
 30
0.0
  9
$UCSXDIR
 10
1.0
 20
0.0
 30
0.0
  9
$UCSYDIR
 10
0.0
 20
1.0
 30
0.0
  9
$UCSORTHOREF
  2

  9
$UCSORTHOVIEW
 70
     0
  9
$UCSORGTOP
 10
0.0
 20
0.0
 30
0.0
  9
$UCSORGBOTTOM
 10
0.0
 20
0.0
 30
0.0
  9
$UCSORGLEFT
 10
0.0
 20
0.0
 30
0.0
  9
$UCSORGRIGHT
 10
0.0
 20
0.0
 30
0.0
  9
$UCSORGFRONT
 10
0.0
 20
0.0
 30
0.0
  9
$UCSORGBACK
 10
0.0
 20
0.0
 30
0.0
  9
$PUCSBASE
  2

  9
$PUCSNAME
  2

  9
$PUCSORG
 10
0.0
 20
0.0
 30
0.0
  9
$PUCSXDIR
 10
1.0
 20
0.0
 30
0.0
  9
$PUCSYDIR
 10
0.0
 20
1.0
 30
0.0
  9
$PUCSORTHOREF
  2

  9
$PUCSORTHOVIEW
 70
     0
  9
$PUCSORGTOP
 10
0.0
 20
0.0
 30
0.0
  9
$PUCSORGBOTTOM
 10
0.0
 20
0.0
 30
0.0
  9
$PUCSORGLEFT
 10
0.0
 20
0.0
 30
0.0
  9
$PUCSORGRIGHT
 10
0.0
 20
0.0
 30
0.0
  9
$PUCSORGFRONT
 10
0.0
 20
0.0
 30
0.0
  9
$PUCSORGBACK
 10
0.0
 20
0.0
 30
0.0
  9
$USERI1
 70
     0
  9
$USERI2
 70
     0
  9
$USERI3
 70
     0
  9
$USERI4
 70
     0
  9
$USERI5
 70
     0
  9
$USERR1
 40
0.0
  9
$USERR2
 40
0.0
  9
$USERR3
 40
0.0
  9
$USERR4
 40
0.0
  9
$USERR5
 40
0.0
  9
$WORLDVIEW
 70
     1
  9
$SHADEDGE
 70
     3
  9
$SHADEDIF
 70
    70
  9
$TILEMODE
 70
     0
  9
$MAXACTVP
 70
    48
  9
$PINSBASE
 10
0.0
 20
0.0
 30
0.0
  9
$PLIMCHECK
 70
     0
  9
$PEXTMIN
 10
-7.314369446621242
 20
-4.94030657662256
 30
-0.0015258207003583
  9
$PEXTMAX
 10
217.1793238819542
 20
298.4079798798715
 30
0.0000000349246037
  9
$PLIMMIN
 10
0.0
 20
0.0
  9
$PLIMMAX
 10
210.0
 20
297.0
  9
$UNITMODE
 70
     0
  9
$VISRETAIN
 70
     1
  9
$PLINEGEN
 70
     0
  9
$PSLTSCALE
 70
     1
  9
$TREEDEPTH
 70
  3020
  9
$CMLSTYLE
  2
STANDARD
  9
$CMLJUST
 70
     0
  9
$CMLSCALE
 40
1.0
  9
$PROXYGRAPHICS
 70
     1
  9
$MEASUREMENT
 70
     0
  9
$CELWEIGHT
370
     9
  9
$ENDCAPS
280
     0
  9
$JOINSTYLE
280
     0
  9
$LWDISPLAY
290
     0
  9
$INSUNITS
 70
     4
  9
$HYPERLINKBASE
  1

  9
$STYLESHEET
  1

  9
$XEDIT
290
     1
  9
$CEPSNTYPE
380
     0
  9
$PSTYLEMODE
290
     1
  9
$FINGERPRINTGUID
  2
{F1C9EDB5-A23C-6A47-A128-A2D269DD3D0B}
  9
$VERSIONGUID
  2
{6022CE53-E565-044A-A322-137529B65C83}
  9
$EXTNAMES
290
     1
  9
$PSVPSCALE
 40
0.0
  9
$OLESTARTUP
290
     0
  9
$SORTENTS
280
   127
  9
$INDEXCTL
280
     0
  9
$HIDETEXT
280
     0
  9
$XCLIPFRAME
280
     2
  9
$HALOGAP
280
     0
  9
$OBSCOLOR
 70
   257
  9
$OBSLTYPE
280
     0
  9
$INTERSECTIONDISPLAY
280
     0
  9
$INTERSECTIONCOLOR
 70
   257
  9
$DIMASSOC
280
     1
  9
$PROJECTNAME
  1

  9
$CAMERADISPLAY
290
     0
  9
$LENSLENGTH
 40
50.0
  9
$CAMERAHEIGHT
 40
0.0
  9
$STEPSPERSEC
 40
2.0
  9
$STEPSIZE
 40
6.0
  9
$3DDWFPREC
 40
2.0
  9
$PSOLWIDTH
 40
0.25
  9
$PSOLHEIGHT
 40
4.0
  9
$LOFTANG1
 40
1.570796326794896
  9
$LOFTANG2
 40
1.570796326794896
  9
$LOFTMAG1
 40
0.0
  9
$LOFTMAG2
 40
0.0
  9
$LOFTPARAM
 70
     7
  9
$LOFTNORMALS
280
     1
  9
$LATITUDE
 40
37.795
  9
$LONGITUDE
 40
-122.394
  9
$NORTHDIRECTION
 40
0.0
  9
$TIMEZONE
 70
 -8000
  9
$LIGHTGLYPHDISPLAY
280
     1
  9
$TILEMODELIGHTSYNCH
280
     1
  9
$CMATERIAL
347
1CF
  9
$SOLIDHIST
280
     0
  9
$SHOWHIST
280
     1
  9
$DWFFRAME
280
     2
  9
$DGNFRAME
280
     0
  9
$REALWORLDSCALE
290
     1
  9
$INTERFERECOLOR
 62
     1
  9
$INTERFEREOBJVS
345
1F1
  9
$INTERFEREVPVS
346
1EE
  9
$CSHADOW
280
     0
  9
$SHADOWPLANELOCATION
 40
0.0
  0
ENDSEC
  0
SECTION
  2
CLASSES
  0
CLASS
  1
ACDBDICTIONARYWDFLT
  2
AcDbDictionaryWithDefault
  3
ObjectDBX Classes
 90
        0
 91
        1
280
     1
281
     0
  0
CLASS
  1
DICTIONARYVAR
  2
AcDbDictionaryVar
  3
ObjectDBX Classes
 90
        0
 91
       10
280
     0
281
     0
  0
CLASS
  1
MATERIAL
  2
AcDbMaterial
  3
ObjectDBX Classes
 90
     1153
 91
        3
280
     0
281
     0
  0
CLASS
  1
VISUALSTYLE
  2
AcDbVisualStyle
  3
ObjectDBX Classes
 90
     4095
 91
       24
280
     0
281
     0
  0
CLASS
  1
TABLESTYLE
  2
AcDbTableStyle
  3
ObjectDBX Classes
 90
     4095
 91
        1
280
     0
281
     0
  0
CLASS
  1
SCALE
  2
AcDbScale
  3
ObjectDBX Classes
 90
     1153
 91
       29
280
     0
281
     0
  0
CLASS
  1
MLEADERSTYLE
  2
AcDbMLeaderStyle
  3
ACDB_MLEADERSTYLE_CLASS
 90
     4095
 91
        1
280
     0
281
     0
  0
CLASS
  1
ACDBSECTIONVIEWSTYLE
  2
AcDbSectionViewStyle
  3
ObjectDBX Classes
 90
     1025
 91
        1
280
     0
281
     0
  0
CLASS
  1
ACDBDETAILVIEWSTYLE
  2
AcDbDetailViewStyle
  3
ObjectDBX Classes
 90
     1025
 91
        1
280
     0
281
     0
  0
CLASS
  1
SORTENTSTABLE
  2
AcDbSortentsTable
  3
ObjectDBX Classes
 90
        0
 91
        1
280
     0
281
     0
  0
CLASS
  1
PLOTSETTINGS
  2
AcDbPlotSettings
  3
ObjectDBX Classes
 90
        0
 91
        1
280
     0
281
     0
  0
CLASS
  1
CELLSTYLEMAP
  2
AcDbCellStyleMap
  3
ObjectDBX Classes
 90
     1152
 91
        2
280
     0
281
     0
  0
CLASS
  1
ACDB_ALDIMOBJECTCONTEXTDATA_CLASS
  2
AcDbAlignedDimensionObjectContextData
  3
ObjectDBX Classes
 90
     1153
 91
        0
280
     0
281
     0
  0
CLASS
  1
EXACXREFPANELOBJECT
  2
ExAcXREFPanelObject
  3
EXAC_ESW
 90
     1025
 91
        0
280
     0
281
     0
  0
CLASS
  1
NPOCOLLECTION
  2
AcDbImpNonPersistentObjectsCollection
  3
ObjectDBX Classes
 90
     1153
 91
        0
280
     0
281
     0
  0
CLASS
  1
ACDB_DMDIMOBJECTCONTEXTDATA_CLASS
  2
AcDbDiametricDimensionObjectContextData
  3
ObjectDBX Classes
 90
     1153
 91
        0
280
     0
281
     0
  0
CLASS
  1
ACDB_ANGDIMOBJECTCONTEXTDATA_CLASS
  2
AcDbAngularDimensionObjectContextData
  3
ObjectDBX Classes
 90
     1153
 91
        0
280
     0
281
     0
  0
ENDSEC
  0
SECTION
  2
TABLES
  0
TABLE
  2
VPORT
  5
1AE
330
0
100
AcDbSymbolTable
 70
     1
1001
ACAD
1000
DbSaveVer
1071
      278
  0
VPORT
  5
1CA
330
1AE
100
AcDbSymbolTableRecord
100
AcDbViewportTableRecord
  2
*ACTIVE
 70
     0
 10
0.0
 20
0.0
 11
1.0
 21
1.0
 12
-611.0317338411321
 22
371.5661360007416
 13
0.0
 23
0.0
 14
0.5
 24
0.5
 15
0.5
 25
0.5
 16
0.0
 26
0.0
 36
1.0
 17
0.0
 27
0.0
 37
0.0
 40
1493.230419271166
 41
2.00771208226221
 42
50.0
 43
0.0
 44
0.0
 50
0.0
 51
0.0
 71
     0
 72
     0
 73
     1
 74
     3
 75
     0
 76
     0
 77
     0
 78
     0
281
     0
 65
     1
110
592.4002916125872
120
0.0
130
0.0
111
1.0
121
0.0
131
0.0
112
0.0
122
1.0
132
0.0
 79
     0
146
0.0
348
1ED
 60
     3
 61
     5
292
     1
282
     1
141
0.0
142
0.0
 63
   250
421
  3355443
1001
ACAD_NAV_VCDISPLAY
1070
     3
  0
ENDTAB
  0
TABLE
  2
LTYPE
  5
1A7
330
0
100
AcDbSymbolTable
 70
     1
  0
LTYPE
  5
1A8
102
{ACAD_XDICTIONARY
360
1A9
102
}
330
1A7
100
AcDbSymbolTableRecord
100
AcDbLinetypeTableRecord
  2
BYBLOCK
 70
     0
  3

 72
    65
 73
     0
 40
0.0
  0
LTYPE
  5
1AA
102
{ACAD_XDICTIONARY
360
1AB
102
}
330
1A7
100
AcDbSymbolTableRecord
100
AcDbLinetypeTableRecord
  2
BYLAYER
 70
     0
  3

 72
    65
 73
     0
 40
0.0
  0
LTYPE
  5
5
102
{ACAD_XDICTIONARY
360
6
102
}
330
1A7
100
AcDbSymbolTableRecord
100
AcDbLinetypeTableRecord
  2
CONTINUOUS
 70
     0
  3
Solid line
 72
    65
 73
     0
 40
0.0
  0
ENDTAB
  0
TABLE
  2
LAYER
  5
1A5
102
{ACAD_XDICTIONARY
360
22C
102
}
330
0
100
AcDbSymbolTable
 70
     3
  0
LAYER
  5
61
102
{ACAD_XDICTIONARY
360
686
102
}
330
1A5
100
AcDbSymbolTableRecord
100
AcDbLayerTableRecord
  2
0
 70
     0
 62
     7
  6
CONTINUOUS
370
    15
390
1CD
347
1DF
348
0
  0
LAYER
  5
85C
330
1A5
100
AcDbSymbolTableRecord
100
AcDbLayerTableRecord
  2
Defpoints
 70
     0
 62
     7
  6
CONTINUOUS
290
     0
370
    -3
390
1CD
347
1DF
348
0
  0
LAYER
  5
F68
102
{ACAD_XDICTIONARY
360
F69
102
}
330
1A5
100
AcDbSymbolTableRecord
100
AcDbLayerTableRecord
  2
OBJ
 70
     0
 62
   179
  6
CONTINUOUS
370
    -3
390
1CD
347
1DF
348
0
  0
ENDTAB
  0
TABLE
  2
STYLE
  5
1A6
330
0
100
AcDbSymbolTable
 70
     2
  0
STYLE
  5
A
102
{ACAD_XDICTIONARY
360
B
102
}
330
1A6
100
AcDbSymbolTableRecord
100
AcDbTextStyleTableRecord
  2
STANDARD
 70
     0
 40
0.0
 41
1.0
 50
0.0
 71
     0
 42
0.25
  3
txt
  4

  0
STYLE
  5
F6A
330
1A6
100
AcDbSymbolTableRecord
100
AcDbTextStyleTableRecord
  2
SLDTEXTSTYLE0
 70
     0
 40
0.0
 41
0.605
 50
0.0
 71
     0
 42
0.125
  3
TXT
  4

  0
ENDTAB
  0
TABLE
  2
VIEW
  5
1AC
330
0
100
AcDbSymbolTable
 70
     2
  0
ENDTAB
  0
TABLE
  2
UCS
  5
1AD
330
0
100
AcDbSymbolTable
 70
     0
  0
ENDTAB
  0
TABLE
  2
APPID
  5
1B0
330
0
100
AcDbSymbolTable
 70
    13
  0
APPID
  5
1B1
330
1B0
100
AcDbSymbolTableRecord
100
AcDbRegAppTableRecord
  2
ACAD
 70
     0
  0
APPID
  5
222
330
1B0
100
AcDbSymbolTableRecord
100
AcDbRegAppTableRecord
  2
ACAD_EXEMPT_FROM_CAD_STANDARDS
 70
     0
  0
APPID
  5
232
330
1B0
100
AcDbSymbolTableRecord
100
AcDbRegAppTableRecord
  2
ACAD_NAV_VCDISPLAY
 70
     0
  0
APPID
  5
238
330
1B0
100
AcDbSymbolTableRecord
100
AcDbRegAppTableRecord
  2
ACAD_PSEXT
 70
     0
  0
APPID
  5
19B9
330
1B0
100
AcDbSymbolTableRecord
100
AcDbRegAppTableRecord
  2
PLOTTRANSPARENCY
 70
     0
  0
APPID
  5
1B92
330
1B0
100
AcDbSymbolTableRecord
100
AcDbRegAppTableRecord
  2
AcadAnnoMonitorAlertIconDisabled
 70
     0
  0
APPID
  5
1BD0
330
1B0
100
AcDbSymbolTableRecord
100
AcDbRegAppTableRecord
  2
ACAD_DSTYLE_DIMJAG
 70
     0
  0
APPID
  5
1BD1
330
1B0
100
AcDbSymbolTableRecord
100
AcDbRegAppTableRecord
  2
ACAD_DSTYLE_DIMBREAK
 70
     0
  0
APPID
  5
1BD2
330
1B0
100
AcDbSymbolTableRecord
100
AcDbRegAppTableRecord
  2
ACAD_DSTYLE_DIMTALN
 70
     0
  0
APPID
  5
1C03
330
1B0
100
AcDbSymbolTableRecord
100
AcDbRegAppTableRecord
  2
AcadAnnotative
 70
     0
  0
APPID
  5
1FB1
330
1B0
100
AcDbSymbolTableRecord
100
AcDbRegAppTableRecord
  2
ACAD_DSTYLE_DIMRADIAL_EXTENSION
 70
     0
  0
APPID
  5
237A6
330
1B0
100
AcDbSymbolTableRecord
100
AcDbRegAppTableRecord
  2
ACAD_MLEADERVER
 70
     0
  0
APPID
  5
24F7A
330
1B0
100
AcDbSymbolTableRecord
100
AcDbRegAppTableRecord
  2
AcadAnnotativeDecomposition
 70
     0
  0
ENDTAB
  0
TABLE
  2
DIMSTYLE
  5
1B2
330
0
100
AcDbSymbolTable
 70
     4
100
AcDbDimStyleTable
 71
     2
340
1BD3
340
1BB
  0
DIMSTYLE
105
1BB
102
{ACAD_XDICTIONARY
360
1BC
102
}
330
1B2
100
AcDbSymbolTableRecord
100
AcDbDimStyleTableRecord
  2
STANDARD
 70
     0
340
A
  0
DIMSTYLE
105
1BD3
330
1B2
100
AcDbSymbolTableRecord
100
AcDbDimStyleTableRecord
  2
new 1
 70
     0
 41
3.5
 42
2.0
 43
12.0
 44
1.5
 50
90.0
 69
     1
 78
     3
 79
     3
140
3.0
141
4.0
144
0.039370078
146
0.8
147
1.5
172
     1
179
     2
277
     4
279
     2
340
A
341
1BF7
342
1BF7
343
1BF7
344
1BFE
346
1AA
347
1AA
372
    -1
1001
AcadAnnotative
1000
AnnotativeData
1002
{
1070
     1
1070
     1
1002
}
1001
ACAD_DSTYLE_DIMJAG
1070
   388
1040
1.5
1001
ACAD_DSTYLE_DIMBREAK
1070
   391
1040
0.13
1001
ACAD_DSTYLE_DIMTALN
1070
   392
1070
     0
  0
DIMSTYLE
105
271C7
330
1B2
100
AcDbSymbolTableRecord
100
AcDbDimStyleTableRecord
  2
SLDDIMSTYLE0
 70
     0
 41
0.13
 44
0.0
 45
0.000000001
 73
     0
 74
     0
 77
     1
 78
    12
 79
     3
140
0.1377952755905512
144
8.0
147
0.0344488188976378
173
     1
271
     2
272
     2
276
     2
277
     5
284
    12
340
F6A
  0
DIMSTYLE
105
271C8
330
1B2
100
AcDbSymbolTableRecord
100
AcDbDimStyleTableRecord
  2
SLDDIMSTYLE1
 70
     0
 41
0.13
 44
0.0
 45
0.000000001
 73
     0
 74
     0
 77
     1
 78
    12
 79
     3
140
0.1377952755905512
144
8.0
147
0.0344488188976378
172
     1
173
     1
271
     6
272
     2
276
     2
277
     5
284
    12
289
     0
340
F6A
  0
ENDTAB
  0
TABLE
  2
BLOCK_RECORD
  5
1
330
0
100
AcDbSymbolTable
 70
    36
  0
BLOCK_RECORD
  5
2
102
{ACAD_XDICTIONARY
360
19C
102
}
330
1
100
AcDbSymbolTableRecord
100
AcDbBlockTableRecord
  2
*MODEL_SPACE
340
21D
 70
     0
280
     1
281
     0
  0
BLOCK_RECORD
  5
1A0
102
{ACAD_XDICTIONARY
360
1A1
102
}
330
1
100
AcDbSymbolTableRecord
100
AcDbBlockTableRecord
  2
*PAPER_SPACE
340
21E
 70
     0
280
     1
281
     0
  0
BLOCK_RECORD
  5
1BF7
330
1
100
AcDbSymbolTableRecord
100
AcDbBlockTableRecord
  2
_Closed
340
0
102
{BLKREFS
102
}
 70
     0
280
     1
281
     0
  0
BLOCK_RECORD
  5
1BFE
330
1
100
AcDbSymbolTableRecord
100
AcDbBlockTableRecord
  2
_Dot
340
0
 70
     0
280
     1
281
     0
  0
BLOCK_RECORD
  5
271B1
330
1
100
AcDbSymbolTableRecord
100
AcDbBlockTableRecord
  2
_D
340
0
 70
     0
280
     1
281
     0
  0
BLOCK_RECORD
  5
271B8
330
1
100
AcDbSymbolTableRecord
100
AcDbBlockTableRecord
  2
_D_1
340
0
 70
     0
280
     1
281
     0
  0
ENDTAB
  0
ENDSEC
  0
SECTION
  2
BLOCKS
  0
BLOCK
  5
19E
330
2
100
AcDbEntity
  8
0
100
AcDbBlockBegin
  2
*MODEL_SPACE
 70
     0
 10
0.0
 20
0.0
 30
0.0
  3
*MODEL_SPACE
  1

  0
ENDBLK
  5
19F
330
2
100
AcDbEntity
  8
0
100
AcDbBlockEnd
  0
BLOCK
  5
1A3
330
1A0
100
AcDbEntity
 67
     1
  8
0
100
AcDbBlockBegin
  2
*PAPER_SPACE
 70
     0
 10
0.0
 20
0.0
 30
0.0
  3
*PAPER_SPACE
  1

  0
ENDBLK
  5
1A4
330
1A0
100
AcDbEntity
 67
     1
  8
0
100
AcDbBlockEnd
  0
BLOCK
  5
1BFC
330
1BF7
100
AcDbEntity
  8
0
100
AcDbBlockBegin
  2
_Closed
 70
     0
 10
0.0
 20
0.0
 30
0.0
  3
_Closed
  1

  0
LINE
  5
1BF8
330
1BF7
100
AcDbEntity
  8
0
  6
ByBlock
 62
     0
370
    -2
100
AcDbLine
 10
-1.0
 20
0.1666666666666666
 30
0.0
 11
0.0
 21
0.0
 31
0.0
  0
LINE
  5
1BF9
330
1BF7
100
AcDbEntity
  8
0
  6
ByBlock
 62
     0
370
    -2
100
AcDbLine
 10
0.0
 20
0.0
 30
0.0
 11
-1.0
 21
-0.1666666666666666
 31
0.0
  0
LINE
  5
1BFA
330
1BF7
100
AcDbEntity
  8
0
  6
ByBlock
 62
     0
370
    -2
100
AcDbLine
 10
-1.0
 20
0.1666666666666666
 30
0.0
 11
-1.0
 21
-0.1666666666666666
 31
0.0
  0
LINE
  5
1BFB
330
1BF7
100
AcDbEntity
  8
0
  6
ByBlock
 62
     0
370
    -2
100
AcDbLine
 10
0.0
 20
0.0
 30
0.0
 11
-1.0
 21
0.0
 31
0.0
  0
ENDBLK
  5
1BFD
330
1BF7
100
AcDbEntity
  8
0
100
AcDbBlockEnd
  0
BLOCK
  5
1C01
330
1BFE
100
AcDbEntity
  8
0
100
AcDbBlockBegin
  2
_Dot
 70
     0
 10
0.0
 20
0.0
 30
0.0
  3
_Dot
  1

  0
LWPOLYLINE
  5
1BFF
330
1BFE
100
AcDbEntity
  8
0
  6
ByBlock
 62
     0
100
AcDbPolyline
 90
        2
 70
     1
 43
0.5
 10
-0.25
 20
0.0
 42
1.0
 10
0.25
 20
0.0
 42
1.0
  0
LINE
  5
1C00
330
1BFE
100
AcDbEntity
  8
0
  6
ByBlock
 62
     0
370
    -2
100
AcDbLine
 10
-0.5
 20
0.0
 30
0.0
 11
-1.0
 21
0.0
 31
0.0
  0
ENDBLK
  5
1C02
330
1BFE
100
AcDbEntity
  8
0
100
AcDbBlockEnd
  0
BLOCK
  5
271B2
330
271B1
100
AcDbEntity
  8
0
100
AcDbBlockBegin
  2
_D
 70
     0
 10
0.0
 20
0.0
 30
0.0
  3
_D
  1

  0
SOLID
  5
271B3
330
271B1
100
AcDbEntity
  8
0
  6
Continuous
 62
     7
440
 16777216
370
    18
100
AcDbTrace
 10
4.535584269662923
 20
3.607441439355117
 30
0.0
 11
4.555584269662922
 21
3.720024741847094
 31
0.0
 12
4.515584269662923
 22
3.720024741847094
 32
0.0
 13
4.515584269662923
 23
3.720024741847094
 33
0.0
  0
SOLID
  5
271B4
330
271B1
100
AcDbEntity
  8
0
  6
Continuous
 62
     7
440
 16777216
370
    18
100
AcDbTrace
 10
4.535584269662923
 20
5.339492246923993
 30
0.0
 11
4.515584269662923
 21
5.226908944432016
 31
0.0
 12
4.555584269662922
 22
5.226908944432016
 32
0.0
 13
4.555584269662922
 23
5.226908944432016
 33
0.0
  0
LINE
  5
271B5
330
271B1
100
AcDbEntity
  8
0
  6
Continuous
 62
     7
440
 16777216
370
     0
100
AcDbLine
 10
4.535584269662923
 20
3.607441439355117
 30
0.0
 11
4.535584269662923
 21
5.339492246923993
 31
0.0
  0
MTEXT
  5
271B6
330
271B1
100
AcDbEntity
  8
0
  6
Continuous
 62
     7
440
 16777216
370
    18
100
AcDbMText
 10
4.357956832081076
 20
4.275629496366258
 30
0.0
 40
0.1377952755905512
 41
0.0
 46
0.0
 71
     1
 72
     1
  1
16"
  7
SLDTEXTSTYLE0
 11
0.0000000000000001
 21
1.0
 31
0.0
 73
     1
 44
1.0
  0
ENDBLK
  5
271B7
330
271B1
100
AcDbEntity
  8
0
100
AcDbBlockEnd
  0
BLOCK
  5
271B9
330
271B8
100
AcDbEntity
  8
0
100
AcDbBlockBegin
  2
_D_1
 70
     0
 10
0.0
 20
0.0
 30
0.0
  3
_D_1
  1

  0
SOLID
  5
271BA
330
271B8
100
AcDbEntity
  8
0
  6
Continuous
 62
     7
440
 16777216
370
    18
100
AcDbTrace
 10
4.055882197983131
 20
5.074118238591244
 30
0.0
 11
4.162918498512856
 21
5.022402860134635
 31
0.0
 12
4.174012502437361
 22
5.060833617047855
 32
0.0
 13
4.174012502437361
 23
5.060833617047855
 33
0.0
  0
SOLID
  5
271BB
330
271B8
100
AcDbEntity
  8
0
  6
Continuous
 62
     7
440
 16777216
370
    18
100
AcDbTrace
 10
3.866439140905285
 20
5.128805738591244
 30
0.0
 11
3.75940284037556
 21
5.180521117047853
 31
0.0
 12
3.748308836451056
 22
5.142090360134633
 32
0.0
 13
3.748308836451056
 23
5.142090360134633
 33
0.0
  0
LINE
  5
271BC
330
271B8
100
AcDbEntity
  8
0
  6
Continuous
 62
     7
440
 16777216
370
     0
100
AcDbLine
 10
3.98129452793645
 20
5.297914520272955
 30
0.0
 11
4.117913063952305
 21
5.258476146000432
 31
0.0
  0
LINE
  5
271BD
330
271B8
100
AcDbEntity
  8
0
  6
Continuous
 62
     7
440
 16777216
370
     0
100
AcDbLine
 10
4.05588219798313
 20
4.958153554939245
 30
0.0
 11
4.055882197983131
 21
5.108213726929214
 31
0.0
  0
LINE
  5
271BE
330
271B8
100
AcDbEntity
  8
0
  6
Continuous
 62
     7
440
 16777216
370
     0
100
AcDbLine
 10
3.866439140905285
 20
5.012841054939245
 30
0.0
 11
3.866439140905285
 21
5.162901226929213
 31
0.0
  0
LINE
  5
271BF
330
271B8
100
AcDbEntity
  8
0
  6
Continuous
 62
     7
440
 16777216
370
     0
100
AcDbLine
 10
4.055882197983131
 20
5.074118238591244
 30
0.0
 11
4.272388548929241
 21
5.011618238591244
 31
0.0
  0
LINE
  5
271C0
330
271B8
100
AcDbEntity
  8
0
  6
Continuous
 62
     7
440
 16777216
370
     0
100
AcDbLine
 10
4.055882197983131
 20
5.074118238591244
 30
0.0
 11
3.866439140905285
 21
5.128805738591244
 31
0.0
  0
LINE
  5
271C1
330
271B8
100
AcDbEntity
  8
0
  6
Continuous
 62
     7
440
 16777216
370
     0
100
AcDbLine
 10
3.866439140905285
 20
5.128805738591244
 30
0.0
 11
3.649932789959175
 21
5.191305738591244
 31
0.0
  0
MTEXT
  5
271C2
330
271B8
100
AcDbEntity
  8
0
  6
Continuous
 62
     7
440
 16777216
370
    18
100
AcDbMText
 10
3.882057073200437
 20
5.394045634331156
 30
0.0
 40
0.1377952755905512
 41
0.0
 46
0.0
 71
     1
 72
     1
  1
1
  7
SLDTEXTSTYLE0
 11
0.9607689228305204
 21
-0.2773500981126224
 31
0.0
 73
     1
 44
1.0
  0
MTEXT
  5
271C3
330
271B8
100
AcDbEntity
  8
0
  6
Continuous
 62
     7
440
 16777216
370
    18
100
AcDbMText
 10
4.046598290182623
 20
5.451334280818322
 30
0.0
 40
0.1377952755905512
 41
0.0
 46
0.0
 71
     1
 72
     1
  1
3
  7
SLDTEXTSTYLE0
 11
0.9607689228305204
 21
-0.2773500981126224
 31
0.0
 73
     1
 44
1.0
  0
MTEXT
  5
271C4
330
271B8
100
AcDbEntity
  8
0
  6
Continuous
 62
     7
440
 16777216
370
    18
100
AcDbMText
 10
3.996060909579357
 20
5.276267659045722
 30
0.0
 40
0.1377952755905512
 41
0.0
 46
0.0
 71
     1
 72
     1
  1
4
  7
SLDTEXTSTYLE0
 11
0.9607689228305204
 21
-0.2773500981126224
 31
0.0
 73
     1
 44
1.0
  0
MTEXT
  5
271C5
330
271B8
100
AcDbEntity
  8
0
  6
Continuous
 62
     7
440
 16777216
370
    18
100
AcDbMText
 10
4.155294145232148
 20
5.315168885786107
 30
0.0
 40
0.1377952755905512
 41
0.0
 46
0.0
 71
     1
 72
     1
  1
"
  7
SLDTEXTSTYLE0
 11
0.9607689228305204
 21
-0.2773500981126224
 31
0.0
 73
     1
 44
1.0
  0
ENDBLK
  5
271C6
330
271B8
100
AcDbEntity
  8
0
100
AcDbBlockEnd
  0
ENDSEC
  0
SECTION
  2
ENTITIES
  0
LWPOLYLINE
  5
3272
330
2
100
AcDbEntity
  8
Defpoints
100
AcDbPolyline
 90
        4
 70
     1
 43
0.0
 10
-85.43603997129389
 20
1114.320257417989
 10
-1136.616177578487
 20
1114.320257417989
 10
-1136.616177578487
 20
-371.1098345298037
 10
-86.42786003341848
 20
-371.1879923339424
  0
MTEXT
  5
4AE9
330
2
100
AcDbEntity
  8
OBJ
 62
     7
100
AcDbMText
 10
-606.329643999451
 20
-148.6907701375665
 30
0.0
 40
54.28571428571427
 41
0.0
 46
0.0
 71
     8
 72
     1
  1
{\fArial|b0|i0|c0|p34;MITEK MPH55118}
  7
SLDTEXTSTYLE0
 73
     1
 44
1.0
  0
LINE
  5
29493
330
2
100
AcDbEntity
  8
0
  6
Continuous
 62
     7
370
    25
100
AcDbLine
 10
-692.8098115499827
 20
751.4241437835233
 30
0.0
 11
-692.8098115499827
 21
750.7709588805957
 31
0.0
  0
LINE
  5
29494
330
2
100
AcDbEntity
  8
0
  6
Continuous
 62
     7
370
    25
100
AcDbLine
 10
-679.823794750028
 20
771.3854062261691
 30
0.0
 11
-679.823794750028
 21
769.9623759970595
 31
0.0
  0
LINE
  5
29495
330
2
100
AcDbEntity
  8
0
  6
Continuous
 62
     7
370
    25
100
AcDbLine
 10
-601.2507564318768
 20
830.7166114623086
 30
0.0
 11
-601.2507564318768
 21
830.0634265593812
 31
0.0
  0
LINE
  5
29496
330
2
100
AcDbEntity
  8
0
  6
Continuous
 62
     7
370
    25
100
AcDbLine
 10
-250.1071253504459
 20
663.349971050691
 30
0.0
 11
-250.1071253504459
 21
663.7667203481964
 31
0.0
  0
LINE
  5
29497
330
2
100
AcDbEntity
  8
0
  6
Continuous
 62
     7
370
    25
100
AcDbLine
 10
-896.8433117997335
 20
875.7835243879362
 30
0.0
 11
-964.1661464454029
 21
817.4802393300044
 31
0.0
  0
LINE
  5
29498
330
2
100
AcDbEntity
  8
0
  6
Continuous
 62
     7
370
    25
100
AcDbLine
 10
-964.1661464454029
 20
817.4802393300044
 30
0.0
 11
-988.4023669178395
 21
796.4910567091507
 31
0.0
  0
LINE
  5
29499
330
2
100
AcDbEntity
  8
0
  6
Continuous
 62
     7
370
    25
100
AcDbLine
 10
-872.6070913272751
 20
896.7727070087899
 30
0.0
 11
-896.8433117997335
 21
875.7835243879362
 31
0.0
  0
LINE
  5
2949A
330
2
100
AcDbEntity
  8
0
  6
Continuous
 62
     7
370
    25
100
AcDbLine
 10
-339.2754223110882
 20
109.8345610057712
 30
0.0
 11
-271.9525876654188
 21
168.137846063703
 31
0.0
  0
LINE
  5
2949B
330
2
100
AcDbEntity
  8
0
  6
Continuous
 62
     7
370
    25
100
AcDbLine
 10
-250.1071253504459
 20
206.0973269428624
 30
0.0
 11
-250.1071253504459
 21
207.0254462186089
 31
0.0
  0
LINE
  5
2949C
330
2
100
AcDbEntity
  8
0
  6
Continuous
 62
     7
370
    25
100
AcDbLine
 10
-271.9525876654188
 20
168.137846063703
 30
0.0
 11
-247.7163671929822
 21
189.127028684554
 31
0.0
  0
LINE
  5
2949D
330
2
100
AcDbEntity
  8
0
  6
Continuous
 62
     7
370
    25
100
AcDbLine
 10
-363.5116427835247
 20
88.8453783849175
 30
0.0
 11
-339.2754223110882
 21
109.8345610057712
 31
0.0
  0
LINE
  5
2949E
330
2
100
AcDbEntity
  8
0
  6
Continuous
 62
     7
370
    25
100
AcDbLine
 10
-654.2856906937307
 20
165.3307708442714
 30
0.0
 11
-616.8841158905811
 21
197.721484765343
 31
0.0
  0
LINE
  5
2949F
330
2
100
AcDbEntity
  8
0
  6
Continuous
 62
     7
370
    25
100
AcDbLine
 10
-758.57556630924
 20
546.3274980514247
 30
0.0
 11
-962.3627287567838
 21
369.8426384067079
 31
0.0
  0
LINE
  5
294A0
330
2
100
AcDbEntity
  8
0
  6
Continuous
 62
     7
370
    25
100
AcDbLine
 10
-821.4661922907048
 20
30.31456681832152
 30
0.0
 11
-655.7099864105961
 21
173.863651945422
 31
0.0
  0
SPLINE
  5
294A1
330
2
100
AcDbEntity
  8
0
  6
Continuous
 62
     7
370
    25
100
AcDbSpline
210
0.0
220
0.0
230
1.0
 70
     8
 71
     3
 72
    13
 73
     9
 74
     0
 42
0.00000001
 43
0.0000000001
 40
0.0
 40
0.0
 40
0.0
 40
0.0
 40
0.1622316979444123
 40
0.3521134295144195
 40
0.5439923930241878
 40
0.7399236001813227
 40
0.9065466629316196
 40
1.0
 40
1.0
 40
1.0
 40
1.0
 10
-643.6761477561055
 20
199.1925767958663
 30
0.0
 10
-643.5883479104351
 20
199.5746656184845
 30
0.0
 10
-643.3977840122527
 20
200.4039647469296
 30
0.0
 10
-643.3275020486752
 20
201.6288302582419
 30
0.0
 10
-643.4355589794122
 20
202.7761992795769
 30
0.0
 10
-643.7508849653887
 20
203.643471312057
 30
0.0
 10
-644.1707218476499
 20
204.2117130475913
 30
0.0
 10
-644.5259003534121
 20
204.3331054141644
 30
0.0
 10
-644.6535267610634
 20
204.376725372602
 30
0.0
  0
SPLINE
  5
294A2
330
2
100
AcDbEntity
  8
0
  6
Continuous
 62
     7
370
    25
100
AcDbSpline
210
0.0
220
0.0
230
1.0
 70
     8
 71
     3
 72
    15
 73
    11
 74
     0
 42
0.00000001
 43
0.0000000001
 40
0.0
 40
0.0
 40
0.0
 40
0.0
 40
0.0383809540936276
 40
0.1812328086589671
 40
0.3236162603512636
 40
0.4817967419208984
 40
0.6483115646155571
 40
0.8131488253935733
 40
0.9767269049623934
 40
1.0
 40
1.0
 40
1.0
 40
1.0
 10
-647.6804376222465
 20
194.6229339882754
 30
0.0
 10
-647.6246235140314
 20
194.5914057044281
 30
0.0
 10
-647.3610722857454
 20
194.4425308374861
 30
0.0
 10
-646.7836243078513
 20
194.5254929768464
 30
0.0
 10
-646.0839994388437
 20
194.8640763926935
 30
0.0
 10
-645.3837320208448
 20
195.5262611761406
 30
0.0
 10
-644.708826951857
 20
196.4880145598968
 30
0.0
 10
-644.1403670934561
 20
197.6813282985613
 30
0.0
 10
-643.7883585461865
 20
198.6231223247642
 30
0.0
 10
-643.6885760795083
 20
199.1295047478456
 30
0.0
 10
-643.6761477561055
 20
199.1925767958663
 30
0.0
  0
LINE
  5
294A3
330
2
100
AcDbEntity
  8
0
  6
Continuous
 62
     7
370
    25
100
AcDbLine
 10
-648.4014165654389
 20
194.7916242216201
 30
0.0
 11
-647.591648717425
 21
194.5578643791004
 31
0.0
  0
LINE
  5
294A4
330
2
100
AcDbEntity
  8
0
  6
Continuous
 62
     7
370
    25
100
AcDbLine
 10
-644.7369081800022
 20
204.4469756855878
 30
0.0
 11
-645.5466760280378
 21
204.6807355281075
 31
0.0
  0
SPLINE
  5
294A5
330
2
100
AcDbEntity
  8
0
  6
Continuous
 62
     7
370
    25
100
AcDbSpline
210
0.0
220
0.0
230
1.0
 70
     8
 71
     3
 72
    14
 73
    10
 74
     0
 42
0.00000001
 43
0.0000000001
 40
0.0
 40
0.0
 40
0.0
 40
0.0
 40
0.0437713022281254
 40
0.2099298529441599
 40
0.3780518054213075
 40
0.5653008984080888
 40
0.7600194543646865
 40
0.9419594395807884
 40
0.9999999999999998
 40
0.9999999999999998
 40
0.9999999999999998
 40
0.9999999999999998
 10
-645.5442598425669
 20
204.6450403704106
 30
0.0
 10
-645.6004096969999
 20
204.6721299832719
 30
0.0
 10
-645.8697078464115
 20
204.8020534297987
 30
0.0
 10
-646.4409526410734
 20
204.6844525557795
 30
0.0
 10
-647.1385132616094
 20
204.3121950988355
 30
0.0
 10
-647.8386785773865
 20
203.6121924639625
 30
0.0
 10
-648.4890409721571
 20
202.6357921413548
 30
0.0
 10
-648.920370898756
 20
201.7297863410575
 30
0.0
 10
-649.1167441685892
 20
201.1963588530373
 30
0.0
 10
-649.1642380794147
 20
201.0673466022068
 30
0.0
  0
SPLINE
  5
294A6
330
2
100
AcDbEntity
  8
0
  6
Continuous
 62
     7
370
    25
100
AcDbSpline
210
0.0
220
0.0
230
1.0
 70
     8
 71
     3
 72
    14
 73
    10
 74
     0
 42
0.00000001
 43
0.0000000001
 40
0.0
 40
0.0
 40
0.0
 40
0.0
 40
0.0861251549597914
 40
0.2507549329053302
 40
0.4162782575462116
 40
0.5833773996782413
 40
0.7537808246492314
 40
0.9013653991210331
 40
1.0
 40
1.0
 40
1.0
 40
1.0
 10
-649.1642380794147
 20
201.0673466022068
 30
0.0
 10
-649.2395560329233
 20
200.841378159503
 30
0.0
 10
-649.4588456050482
 20
200.1834669869073
 30
0.0
 10
-649.7026563045883
 20
199.0479023251674
 30
0.0
 10
-649.8139612507808
 20
197.7538454397781
 30
0.0
 10
-649.725590500992
 20
196.5863907851554
 30
0.0
 10
-649.4353964446021
 20
195.6863481476244
 30
0.0
 10
-649.0188709776492
 20
195.0718031118881
 30
0.0
 10
-648.6411481961613
 20
194.9180851763077
 30
0.0
 10
-648.4898336783377
 20
194.856506271243
 30
0.0
  0
LINE
  5
294A7
330
2
100
AcDbEntity
  8
0
  6
Continuous
 62
     7
370
    25
100
AcDbLine
 10
-692.9891490807411
 20
740.5494465733083
 30
0.0
 11
-684.4615900256273
 21
747.9345293473135
 31
0.0
  0
LINE
  5
294A8
330
2
100
AcDbEntity
  8
0
  6
Continuous
 62
     7
370
    25
100
AcDbLine
 10
-684.4615900256273
 20
747.9345293473135
 30
0.0
 11
-690.9397328098471
 21
749.8046080874737
 31
0.0
  0
LWPOLYLINE
  5
294A9
330
2
100
AcDbEntity
  8
0
  6
Continuous
 62
     7
370
    25
100
AcDbPolyline
 90
        9
 70
   128
 43
0.0
 10
-692.3087254617886
 20
752.3591831536046
 10
-692.6113218768533
 20
752.025260893836
 10
-692.7778139842655
 20
751.6682380406329
 10
-692.801803585712
 20
751.3018347820128
 10
-692.6823687742937
 20
750.9401317897307
 10
-692.4240993628179
 20
750.5970291069353
 10
-692.0369204998925
 20
750.2857119773099
 10
-691.5357112521424
 20
750.018144143554
 10
-690.9397328098471
 20
749.8046080874737
  0
LINE
  5
294AA
330
2
100
AcDbEntity
  8
0
  6
Continuous
 62
     7
370
    25
100
AcDbLine
 10
-692.3087254617886
 20
752.3591831536046
 30
0.0
 11
-688.5685679814736
 21
755.5982545457145
 31
0.0
  0
ARC
  5
294AB
330
2
100
AcDbEntity
  8
0
  6
Continuous
 62
     7
370
    25
100
AcDbCircle
 10
-685.2877612817471
 20
750.5198359994043
 30
0.0
 40
6.045992683792401
100
AcDbArc
 50
72.397839729696
 51
122.8636406951606
  0
LINE
  5
294AC
330
2
100
AcDbEntity
  8
0
  6
Continuous
 62
     7
370
    25
100
AcDbLine
 10
-683.4594178491954
 20
756.2827508716881
 30
0.0
 11
-676.9812750649974
 21
754.4126721315278
 31
0.0
  0
LINE
  5
294AD
330
2
100
AcDbEntity
  8
0
  6
Continuous
 62
     7
370
    25
100
AcDbLine
 10
-676.9812750649974
 20
754.4126721315278
 30
0.0
 11
-668.6033223090832
 21
761.6681920498475
 31
0.0
  0
LWPOLYLINE
  5
294AE
330
2
100
AcDbEntity
  8
0
  6
Continuous
 62
     7
370
    25
100
AcDbPolyline
 90
       12
 70
   128
 43
0.0
 10
-676.8172782207976
 20
776.9956424466415
 10
-678.2163034830617
 20
775.5556345672434
 10
-679.1912197084745
 20
774.0307328647627
 10
-679.7221804140689
 20
772.4519799404131
 10
-679.7983767710628
 20
770.851514650982
 10
-679.418257641371
 20
769.2619178544086
 10
-678.5895611542668
 20
767.7155491574525
 10
-677.3291571804816
 20
766.2438881674191
 10
-675.6627039102036
 20
764.8768936581459
 10
-673.6241255263974
 20
763.6423936957645
 10
-671.2549216061589
 20
762.565519139489
 10
-668.6033223090832
 20
761.6681920498475
  0
LINE
  5
294AF
330
2
100
AcDbEntity
  8
0
  6
Continuous
 62
     7
370
    25
100
AcDbLine
 10
-676.8172782207976
 20
776.9956424466415
 30
0.0
 11
-631.9353884570181
 21
815.8644991519276
 31
0.0
  0
LWPOLYLINE
  5
294B0
330
2
100
AcDbEntity
  8
0
  6
Continuous
 62
     7
370
    25
100
AcDbPolyline
 90
       12
 70
   128
 43
0.0
 10
-601.2804876634138
 20
819.9714771077792
 10
-604.1605034222158
 20
820.6709897389195
 10
-607.2103068271931
 20
821.1584478516204
 10
-610.3678126758762
 20
821.4239282044204
 10
-613.5687432547219
 20
821.4620263829202
 10
-616.7479368478958
 20
821.271966818066
 10
-619.8406742418135
 20
820.8576185745139
 10
-622.7839962218642
 20
820.2274165876213
 10
-625.517985240416
 20
819.3941899524931
 10
-627.9869851651734
 20
818.3749007605902
 10
-630.1407342777082
 20
817.1902988004681
 10
-631.9353884570181
 20
815.8644991519276
  0
LINE
  5
294B1
330
2
100
AcDbEntity
  8
0
  6
Continuous
 62
     7
370
    25
100
AcDbLine
 10
-601.2804876634138
 20
819.9714771077792
 30
0.0
 11
-592.9025349075214
 21
827.2269970260991
 31
0.0
  0
LINE
  5
294B2
330
2
100
AcDbEntity
  8
0
  6
Continuous
 62
     7
370
    25
100
AcDbLine
 10
-599.3806776917194
 20
829.0970757662538
 30
0.0
 11
-592.9025349075214
 21
827.2269970260991
 31
0.0
  0
LWPOLYLINE
  5
294B3
330
2
100
AcDbEntity
  8
0
  6
Continuous
 62
     7
370
    25
100
AcDbPolyline
 90
        9
 70
   128
 43
0.0
 10
-600.7496703436827
 20
831.6516508323902
 10
-601.0522667587473
 20
831.3177285726215
 10
-601.2187588661596
 20
830.9607057194103
 10
-601.2427484676061
 20
830.5943024607927
 10
-601.1233136561878
 20
830.2325994685162
 10
-600.8650442446901
 20
829.8894967857208
 10
-600.4778653817866
 20
829.57817965609
 10
-599.9766561340366
 20
829.3106118223397
 10
-599.3806776917194
 20
829.0970757662538
  0
LINE
  5
294B4
330
2
100
AcDbEntity
  8
0
  6
Continuous
 62
     7
370
    25
100
AcDbLine
 10
-597.009512863346
 20
834.8907222244946
 30
0.0
 11
-600.7496703436827
 21
831.6516508323902
 31
0.0
  0
ARC
  5
294B5
330
2
100
AcDbEntity
  8
0
  6
Continuous
 62
     7
370
    25
100
AcDbCircle
 10
-593.7287061636412
 20
829.8123036781898
 30
0.0
 40
6.045992683791336
100
AcDbArc
 50
72.397839729696
 51
122.8636406951683
  0
LINE
  5
294B6
330
2
100
AcDbEntity
  8
0
  6
Continuous
 62
     7
370
    25
100
AcDbLine
 10
-585.4222199468916
 20
833.7051398103106
 30
0.0
 11
-591.9003627310895
 21
835.575218550468
 31
0.0
  0
LINE
  5
294B7
330
2
100
AcDbEntity
  8
0
  6
Continuous
 62
     7
370
    25
100
AcDbLine
 10
-585.4222199468916
 20
833.7051398103106
 30
0.0
 11
-577.0442671909773
 21
840.960659728633
 31
0.0
  0
LWPOLYLINE
  5
294B8
330
2
100
AcDbEntity
  8
0
  6
Continuous
 62
     7
370
    25
100
AcDbPolyline
 90
       12
 70
   128
 43
0.0
 10
-567.3270530146585
 20
838.1555416183969
 10
-568.3141538376088
 20
837.5279412162299
 10
-569.6149010734469
 20
837.0648122594721
 10
-571.1239159169337
 20
836.8036747018608
 10
-572.7189469599331
 20
836.765684355271
 10
-574.2707742733482
 20
836.9539189716469
 10
-575.6536780373393
 20
837.3531289018409
 10
-576.7556236133287
 20
837.9309725315078
 10
-577.4873379243282
 20
838.6406364063358
 10
-577.7895418285381
 20
839.4246277797169
 10
-577.6377525628801
 20
840.2194323331608
 10
-577.0442671909773
 20
840.960659728633
  0
LINE
  5
294B9
330
2
100
AcDbEntity
  8
0
  6
Continuous
 62
     7
370
    25
100
AcDbLine
 10
-575.705005770551
 20
830.9000217000745
 30
0.0
 11
-567.3270530146585
 21
838.1555416183969
 31
0.0
  0
LINE
  5
294BA
330
2
100
AcDbEntity
  8
0
  6
Continuous
 62
     7
370
    25
100
AcDbLine
 10
-575.705005770551
 20
830.9000217000745
 30
0.0
 11
-569.226862986353
 21
829.0299429599198
 31
0.0
  0
LWPOLYLINE
  5
294BB
330
2
100
AcDbEntity
  8
0
  6
Continuous
 62
     7
370
    25
100
AcDbPolyline
 90
        9
 70
   128
 43
0.0
 10
-567.8578703343896
 20
826.4753678937861
 10
-567.5552739193467
 20
826.8092901535545
 10
-567.3887818119127
 20
827.1663130067631
 10
-567.3647922104445
 20
827.5327162653752
 10
-567.4842270218626
 20
827.8944192576572
 10
-567.7424964333604
 20
828.2375219404553
 10
-568.1296752962639
 20
828.5488390700807
 10
-568.6308845440358
 20
828.8164069038366
 10
-569.226862986353
 20
829.0299429599198
  0
LINE
  5
294BC
330
2
100
AcDbEntity
  8
0
  6
Continuous
 62
     7
370
    25
100
AcDbLine
 10
-567.8578703343896
 20
826.4753678937861
 30
0.0
 11
-571.5980278147046
 21
823.2362965016815
 31
0.0
  0
ARC
  5
294BD
330
2
100
AcDbEntity
  8
0
  6
Continuous
 62
     7
370
    25
100
AcDbCircle
 10
-574.8788345144528
 20
828.3147150479891
 30
0.0
 40
6.045992683793824
100
AcDbArc
 50
252.3978397297117
 51
302.863640695153
  0
LINE
  5
294BE
330
2
100
AcDbEntity
  8
0
  6
Continuous
 62
     7
370
    25
100
AcDbLine
 10
-576.7071779469829
 20
822.551800175708
 30
0.0
 11
-583.1853207312026
 21
824.4218789158628
 31
0.0
  0
LINE
  5
294BF
330
2
100
AcDbEntity
  8
0
  6
Continuous
 62
     7
370
    25
100
AcDbLine
 10
-591.5632734870951
 20
817.166358997543
 30
0.0
 11
-583.1853207312026
 21
824.4218789158628
 31
0.0
  0
LWPOLYLINE
  5
294C0
330
2
100
AcDbEntity
  8
0
  6
Continuous
 62
     7
370
    25
100
AcDbPolyline
 90
       12
 70
   128
 43
0.0
 10
-583.3493175754024
 20
801.8389086007465
 10
-581.9502923130949
 20
803.2789164801528
 10
-580.9753760877036
 20
804.8038181826306
 10
-580.4444153820875
 20
806.382571106983
 10
-580.3682190251154
 20
807.9830363964058
 10
-580.7483381548289
 20
809.5726331929819
 10
-581.5770346419115
 20
811.119001889938
 10
-582.8374386156967
 20
812.5906628799715
 10
-584.5038918859529
 20
813.9576573892448
 10
-586.5424702697589
 20
815.1921573516316
 10
-588.9116741900194
 20
816.269031907899
 10
-591.5632734870951
 20
817.166358997543
  0
LINE
  5
294C1
330
2
100
AcDbEntity
  8
0
  6
Continuous
 62
     7
370
    25
100
AcDbLine
 10
-628.2312073391819
 20
762.9700518954604
 30
0.0
 11
-583.3493175754024
 21
801.8389086007465
 31
0.0
  0
LWPOLYLINE
  5
294C2
330
2
100
AcDbEntity
  8
0
  6
Continuous
 62
     7
370
    25
100
AcDbPolyline
 90
       12
 70
   128
 43
0.0
 10
-658.8861081327644
 20
758.8630739396113
 10
-656.0060923739407
 20
758.1635613084712
 10
-652.9562889690069
 20
757.6761031957675
 10
-649.7987831202802
 20
757.4106228429703
 10
-646.5978525414345
 20
757.3725246644706
 10
-643.4186589483042
 20
757.5625842293219
 10
-640.3259215543864
 20
757.9769324728768
 10
-637.3825995743141
 20
758.6071344597666
 10
-634.6486105557841
 20
759.4403610948975
 10
-632.1796106309831
 20
760.4596502868005
 10
-630.0258615184483
 20
761.6442522469226
 10
-628.2312073391819
 20
762.9700518954604
  0
LINE
  5
294C3
330
2
100
AcDbEntity
  8
0
  6
Continuous
 62
     7
370
    25
100
AcDbLine
 10
-667.2640608886569
 20
751.6075540212916
 30
0.0
 11
-658.8861081327644
 21
758.8630739396113
 31
0.0
  0
LINE
  5
294C4
330
2
100
AcDbEntity
  8
0
  6
Continuous
 62
     7
370
    25
100
AcDbLine
 10
-660.7859181044588
 20
749.7374752811341
 30
0.0
 11
-667.2640608886569
 21
751.6075540212916
 31
0.0
  0
LWPOLYLINE
  5
294C5
330
2
100
AcDbEntity
  8
0
  6
Continuous
 62
     7
370
    25
100
AcDbPolyline
 90
        9
 70
   128
 43
0.0
 10
-659.4169254525174
 20
747.1829002150059
 10
-659.1143290374526
 20
747.5168224747691
 10
-658.9478369300186
 20
747.8738453279776
 10
-658.9238473285504
 20
748.2402485865953
 10
-659.0432821399904
 20
748.6019515788772
 10
-659.3015515514663
 20
748.9450542616698
 10
-659.6887304143698
 20
749.2563713913007
 10
-660.1899396621417
 20
749.523939225051
 10
-660.7859181044588
 20
749.7374752811341
  0
LINE
  5
294C6
330
2
100
AcDbEntity
  8
0
  6
Continuous
 62
     7
370
    25
100
AcDbLine
 10
-663.1570829328105
 20
743.943828822896
 30
0.0
 11
-659.4169254525174
 21
747.1829002150059
 31
0.0
  0
ARC
  5
294C7
330
2
100
AcDbEntity
  8
0
  6
Continuous
 62
     7
370
    25
100
AcDbCircle
 10
-666.4378896325587
 20
749.0222473692063
 30
0.0
 40
6.045992683793977
100
AcDbArc
 50
252.3978397297117
 51
302.863640695153
  0
LINE
  5
294C8
330
2
100
AcDbEntity
  8
0
  6
Continuous
 62
     7
370
    25
100
AcDbLine
 10
-674.7443758493085
 20
745.1294112370772
 30
0.0
 11
-668.2662330650887
 21
743.2593324969225
 31
0.0
  0
LINE
  5
294C9
330
2
100
AcDbEntity
  8
0
  6
Continuous
 62
     7
370
    25
100
AcDbLine
 10
-683.2719349044223
 20
737.7443284630719
 30
0.0
 11
-674.7443758493085
 21
745.1294112370772
 31
0.0
  0
LWPOLYLINE
  5
294CA
330
2
100
AcDbEntity
  8
0
  6
Continuous
 62
     7
370
    25
100
AcDbPolyline
 90
       12
 70
   128
 43
0.0
 10
-683.2719349044223
 20
737.7443284630719
 10
-682.6784495324758
 20
738.4855558585444
 10
-682.5266602668396
 20
739.2803604119882
 10
-682.8288641710495
 20
740.0643517853747
 10
-683.5605784820708
 20
740.7740156601972
 10
-684.6625240580602
 20
741.3518592898642
 10
-686.0454278220514
 20
741.7510692200583
 10
-687.5972551354447
 20
741.9393038364342
 10
-689.1922861784658
 20
741.9013134898442
 10
-690.7013010219526
 20
741.6401759322329
 10
-692.002048257769
 20
741.1770469754753
 10
-692.9891490807411
 20
740.5494465733083
  0
LINE
  5
294CB
330
2
100
AcDbEntity
  8
0
  6
Continuous
 62
     7
370
    25
100
AcDbLine
 10
-683.2719349044223
 20
633.8448009550364
 30
0.0
 11
-683.2719349044223
 21
737.7443284630719
 31
0.0
  0
SPLINE
  5
294CC
330
2
100
AcDbEntity
  8
0
  6
Continuous
 62
     7
370
    25
100
AcDbSpline
210
0.0
220
0.0
230
1.0
 70
     8
 71
     3
 72
    14
 73
    10
 74
     0
 42
0.00000001
 43
0.0000000001
 40
0.0
 40
0.0
 40
0.0
 40
0.0
 40
0.1594899024349832
 40
0.3189798185529348
 40
0.4784672947184948
 40
0.6379308722171956
 40
0.7973719204078399
 40
0.9568647394634657
 40
1.0
 40
1.0
 40
1.0
 40
1.0
 10
-692.9891490807411
 20
636.3913121028302
 30
0.0
 10
-692.6200446616766
 20
636.648700001745
 30
0.0
 10
-691.8818357918933
 20
637.1634758216554
 30
0.0
 10
-690.2040525537176
 20
637.6474015570174
 30
0.0
 10
-688.335032227145
 20
637.8489544425241
 30
0.0
 10
-686.4211060375462
 20
637.7429689117421
 30
0.0
 10
-684.746455769449
 20
637.3387862500592
 30
0.0
 10
-683.6444538355406
 20
636.8809262201772
 30
0.0
 10
-683.3373177281638
 20
636.5370910264
 30
0.0
 10
-683.2719349044223
 20
636.4638957382888
 30
0.0
  0
LINE
  5
294CD
330
2
100
AcDbEntity
  8
0
  6
Continuous
 62
     7
370
    25
100
AcDbLine
 10
-692.9891490807411
 20
636.3913121028302
 30
0.0
 11
-692.9891490807411
 21
740.5494465733083
 31
0.0
  0
LINE
  5
294CE
330
2
100
AcDbEntity
  8
0
  6
Continuous
 62
     7
370
    25
100
AcDbLine
 10
-674.7443758493085
 20
744.9566607628326
 30
0.0
 11
-674.7443758493085
 21
745.1294112370772
 31
0.0
  0
LINE
  5
294CF
330
2
100
AcDbEntity
  8
0
  6
Continuous
 62
     7
370
    25
100
AcDbLine
 10
-658.8861081327644
 20
758.6907056641635
 30
0.0
 11
-658.8861081327644
 21
758.8630739396113
 31
0.0
  0
LINE
  5
294D0
330
2
100
AcDbEntity
  8
0
  6
Continuous
 62
     7
370
    25
100
AcDbLine
 10
-603.9949868667454
 20
622.5162929523288
 30
0.0
 11
-603.9949868667454
 21
583.1368082056726
 31
0.0
  0
LINE
  5
294D1
330
2
100
AcDbEntity
  8
0
  6
Continuous
 62
     7
370
    25
100
AcDbLine
 10
-583.1853207312026
 20
824.2491284416153
 30
0.0
 11
-583.1853207312026
 21
824.4218789158628
 31
0.0
  0
LINE
  5
294D2
330
2
100
AcDbEntity
  8
0
  6
Continuous
 62
     7
370
    25
100
AcDbLine
 10
-652.5810577483392
 20
597.1623987568537
 30
0.0
 11
-603.9949868667454
 21
583.1368082056726
 31
0.0
  0
LINE
  5
294D3
330
2
100
AcDbEntity
  8
0
  6
Continuous
 62
     7
370
    25
100
AcDbLine
 10
-652.5810577483392
 20
632.9995596246151
 30
0.0
 11
-652.5810577483392
 21
597.1623987568537
 31
0.0
  0
LINE
  5
294D4
330
2
100
AcDbEntity
  8
0
  6
Continuous
 62
     7
370
    25
100
AcDbLine
 10
-567.3270530146585
 20
837.9827911441495
 30
0.0
 11
-567.3270530146585
 21
838.1555416183969
 31
0.0
  0
LINE
  5
294D5
330
2
100
AcDbEntity
  8
0
  6
Continuous
 62
     7
370
    25
100
AcDbLine
 10
-577.0442671909773
 20
838.1555416183969
 30
0.0
 11
-577.0442671909773
 21
840.960659728633
 31
0.0
  0
LINE
  5
294D6
330
2
100
AcDbEntity
  8
0
  6
Continuous
 62
     7
370
    25
100
AcDbLine
 10
-797.2776357536804
 20
863.4219441702605
 30
0.0
 11
-842.1595255174599
 21
824.5530874649743
 31
0.0
  0
LWPOLYLINE
  5
294D7
330
2
100
AcDbEntity
  8
0
  6
Continuous
 62
     7
370
    25
100
AcDbPolyline
 90
       12
 70
   128
 43
0.0
 10
-766.6227349600979
 20
867.5289221261094
 10
-769.5027507188999
 20
868.2284347572496
 10
-772.5525541238555
 20
868.7158928699533
 10
-775.7100599725604
 20
868.9813732227561
 10
-778.910990551406
 20
869.0194714012502
 10
-782.0901841445581
 20
868.8294118363989
 10
-785.182921538476
 20
868.4150635928494
 10
-788.1262435185483
 20
867.7848616059597
 10
-790.8602325370782
 20
866.9516349708286
 10
-793.3292324618573
 20
865.9323457789202
 10
-795.4829815743921
 20
864.7477438187982
 10
-797.2776357536804
 20
863.4219441702605
  0
LINE
  5
294D8
330
2
100
AcDbEntity
  8
0
  6
Continuous
 62
     7
370
    25
100
AcDbLine
 10
-672.6896645889874
 20
840.4127803938287
 30
0.0
 11
-766.6227349600979
 21
867.5289221261094
 31
0.0
  0
LWPOLYLINE
  5
294D9
330
2
100
AcDbEntity
  8
0
  6
Continuous
 62
     7
370
    25
100
AcDbPolyline
 90
       12
 70
   128
 43
0.0
 10
-664.475708677273
 20
825.0853299970321
 10
-663.0766834150088
 20
826.5253378764329
 10
-662.1017671896177
 20
828.0502395789163
 10
-661.5708064840016
 20
829.6289925032633
 10
-661.4946101270077
 20
831.2294577926914
 10
-661.8747292566995
 20
832.8190545892676
 10
-662.7034257438256
 20
834.3654232862236
 10
-663.9638297175889
 20
835.8370842762571
 10
-665.6302829878452
 20
837.2040787855304
 10
-667.6688613716731
 20
838.4385787479173
 10
-670.0380652919118
 20
839.5154533041846
 10
-672.6896645889874
 20
840.4127803938287
  0
LINE
  5
294DA
330
2
100
AcDbEntity
  8
0
  6
Continuous
 62
     7
370
    25
100
AcDbLine
 10
-709.3575984410525
 20
786.216473291746
 30
0.0
 11
-664.475708677273
 21
825.0853299970321
 31
0.0
  0
LWPOLYLINE
  5
294DB
330
2
100
AcDbEntity
  8
0
  6
Continuous
 62
     7
370
    25
100
AcDbPolyline
 90
       12
 70
   128
 43
0.0
 10
-740.0124992346566
 20
782.1094953358969
 10
-737.1324834758548
 20
781.4099827047568
 10
-734.0826800708773
 20
780.9225245920531
 10
-730.9251742221943
 20
780.6570442392559
 10
-727.7242436433269
 20
780.6189460607562
 10
-724.5450500501747
 20
780.8090056256076
 10
-721.4523126562787
 20
781.2233538691624
 10
-718.5089906762064
 20
781.8535558560522
 10
-715.7750016576545
 20
782.6867824911832
 10
-713.3060017328972
 20
783.7060716830862
 10
-711.1522526203624
 20
784.8906736432082
 10
-709.3575984410525
 20
786.216473291746
  0
LINE
  5
294DC
330
2
100
AcDbEntity
  8
0
  6
Continuous
 62
     7
370
    25
100
AcDbLine
 10
-833.9455696057672
 20
809.2256370681777
 30
0.0
 11
-740.0124992346566
 21
782.1094953358969
 31
0.0
  0
LWPOLYLINE
  5
294DD
330
2
100
AcDbEntity
  8
0
  6
Continuous
 62
     7
370
    25
100
AcDbPolyline
 90
       12
 70
   128
 43
0.0
 10
-842.1595255174599
 20
824.5530874649743
 10
-843.5585507797457
 20
823.1130795855735
 10
-844.5334670051368
 20
821.5881778830956
 10
-845.064427710753
 20
820.0094249587433
 10
-845.1406240677252
 20
818.408959669315
 10
-844.7605049380333
 20
816.8193628727443
 10
-843.9318084509292
 20
815.2729941757828
 10
-842.6714044771657
 20
813.8013331857493
 10
-841.0049512068876
 20
812.4343386764815
 10
-838.9663728230816
 20
811.1998387140946
 10
-836.5971689028429
 20
810.1229641578218
 10
-833.9455696057672
 20
809.2256370681777
  0
SPLINE
  5
294DE
330
2
100
AcDbEntity
  8
0
  6
Continuous
 62
     7
370
    25
100
AcDbSpline
210
0.0
220
0.0
230
1.0
 70
     8
 71
     3
 72
    14
 73
    10
 74
     0
 42
0.00000001
 43
0.0000000001
 40
0.0
 40
0.0
 40
0.0
 40
0.0
 40
0.1557915875761675
 40
0.319093652015938
 40
0.4861043355590275
 40
0.6531659873728919
 40
0.8169045470167704
 40
0.9353832374129524
 40
1.0
 40
1.0
 40
1.0
 40
1.0
 10
-813.1625310221942
 20
602.4036642971394
 30
0.0
 10
-812.6010146803924
 20
605.8117599941614
 30
0.0
 10
-811.4509121429678
 20
612.7922505283501
 30
0.0
 10
-809.6970344293099
 20
623.425826306935
 30
0.0
 10
-807.6767466847837
 20
634.2033082832057
 30
0.0
 10
-805.2890622521124
 20
644.8180440366777
 30
0.0
 10
-802.575172177687
 20
654.0997541479035
 30
0.0
 10
-800.0946845808748
 20
661.0503315187665
 30
0.0
 10
-798.4078452463493
 20
664.4631259174481
 30
0.0
 10
-797.8125377440394
 20
665.6675453709341
 30
0.0
  0
LINE
  5
294DF
330
2
100
AcDbEntity
  8
0
  6
Continuous
 62
     7
370
    25
100
AcDbLine
 10
-684.9717716694164
 20
606.5127924576438
 30
0.0
 11
-684.9717716694164
 21
637.349004109553
 31
0.0
  0
SPLINE
  5
294E0
330
2
100
AcDbEntity
  8
0
  6
Continuous
 62
     7
370
    25
100
AcDbSpline
210
0.0
220
0.0
230
1.0
 70
     8
 71
     3
 72
    10
 73
     6
 74
     0
 42
0.00000001
 43
0.0000000001
 40
0.0
 40
0.0
 40
0.0
 40
0.0
 40
0.3183362286901235
 40
0.6671902419411982
 40
1.0
 40
1.0
 40
1.0
 40
1.0
 10
-772.2310833159597
 20
663.8407739738885
 30
0.0
 10
-772.8586749612587
 20
660.6222885197595
 30
0.0
 10
-774.1740232752054
 20
653.876772630277
 30
0.0
 10
-775.8401022184637
 20
643.6260944559241
 30
0.0
 10
-776.9932356766471
 20
636.6470255589023
 30
0.0
 10
-777.5562318096131
 20
633.2396239500002
 30
0.0
  0
LINE
  5
294E1
330
2
100
AcDbEntity
  8
0
  6
Continuous
 62
     7
370
    25
100
AcDbLine
 10
-777.5562318096131
 20
633.2396239500002
 30
0.0
 11
-813.1625310221942
 21
602.4036642971394
 31
0.0
  0
LINE
  5
294E2
330
2
100
AcDbEntity
  8
0
  6
Continuous
 62
     7
370
    25
100
AcDbLine
 10
-777.5562318096131
 20
633.2396239500002
 30
0.0
 11
-684.9717716694164
 21
606.5127924576438
 31
0.0
  0
LWPOLYLINE
  5
294E3
330
2
100
AcDbEntity
  8
0
  6
Continuous
 62
     7
370
    25
100
AcDbPolyline
 90
       12
 70
   128
 43
0.0
 10
-493.8430734345011
 20
711.04650320991
 10
-490.963057675721
 20
710.3469905787699
 10
-487.9132542707436
 20
709.8595324660688
 10
-484.7557484220605
 20
709.5940521132689
 10
-481.5548178431932
 20
709.5559539347692
 10
-478.375624250041
 20
709.7460134996286
 10
-475.2828868561232
 20
710.1603617431755
 10
-472.3395648760726
 20
710.790563730068
 10
-469.6055758575207
 20
711.6237903651962
 10
-467.1365759327415
 20
712.6430795571046
 10
-464.9828268202067
 20
713.8276815172267
 10
-463.1881726409187
 20
715.1534811657618
  0
LINE
  5
294E4
330
2
100
AcDbEntity
  8
0
  6
Continuous
 62
     7
370
    25
100
AcDbLine
 10
-551.1082099535248
 20
792.3589520442789
 30
0.0
 11
-595.9900997173043
 21
753.4900953389929
 31
0.0
  0
LWPOLYLINE
  5
294E5
330
2
100
AcDbEntity
  8
0
  6
Continuous
 62
     7
370
    25
100
AcDbPolyline
 90
       12
 70
   128
 43
0.0
 10
-520.4533091599642
 20
796.4659300001224
 10
-523.3333249187443
 20
797.1654426312681
 10
-526.3831283237217
 20
797.6529007439718
 10
-529.5406341724048
 20
797.9183810967691
 10
-532.7415647512721
 20
797.956479275266
 10
-535.9207583444025
 20
797.7664197104119
 10
-539.0134957383203
 20
797.3520714668625
 10
-541.9568177183927
 20
796.7218694799726
 10
-544.6908067369445
 20
795.8886428448417
 10
-547.1598066617237
 20
794.8693536529333
 10
-549.3135557742585
 20
793.6847516928139
 10
-551.1082099535248
 20
792.3589520442789
  0
LINE
  5
294E6
330
2
100
AcDbEntity
  8
0
  6
Continuous
 62
     7
370
    25
100
AcDbLine
 10
-426.5202387888319
 20
769.3497882678417
 30
0.0
 11
-520.4533091599642
 21
796.4659300001224
 31
0.0
  0
LWPOLYLINE
  5
294E7
330
2
100
AcDbEntity
  8
0
  6
Continuous
 62
     7
370
    25
100
AcDbPolyline
 90
       12
 70
   128
 43
0.0
 10
-418.3062828771392
 20
754.0223378710479
 10
-416.9072576148752
 20
755.4623457504515
 10
-415.9323413894404
 20
756.9872474529319
 10
-415.4013806838678
 20
758.5660003772817
 10
-415.3251843268739
 20
760.1664656667073
 10
-415.7053034565657
 20
761.7560624632806
 10
-416.53399994367
 20
763.3024311602367
 10
-417.7944039174551
 20
764.7740921502757
 10
-419.4608571877114
 20
766.1410866595434
 10
-421.4994355715175
 20
767.3755866219303
 10
-423.8686394917562
 20
768.4524611782004
 10
-426.5202387888319
 20
769.3497882678417
  0
LINE
  5
294E8
330
2
100
AcDbEntity
  8
0
  6
Continuous
 62
     7
370
    25
100
AcDbLine
 10
-463.1881726409187
 20
715.1534811657618
 30
0.0
 11
-418.3062828771392
 21
754.0223378710479
 31
0.0
  0
LINE
  5
294E9
330
2
100
AcDbEntity
  8
0
  6
Continuous
 62
     7
370
    25
100
AcDbLine
 10
-587.7761438056335
 20
738.162644942199
 30
0.0
 11
-493.8430734345011
 21
711.04650320991
 31
0.0
  0
LWPOLYLINE
  5
294EA
330
2
100
AcDbEntity
  8
0
  6
Continuous
 62
     7
370
    25
100
AcDbPolyline
 90
       12
 70
   128
 43
0.0
 10
-595.9900997173043
 20
753.4900953389929
 10
-597.3891249795902
 20
752.0500874595892
 10
-598.364041205003
 20
750.5251857571087
 10
-598.8950019105975
 20
748.9464328327563
 10
-598.9711982675913
 20
747.345967543328
 10
-598.5910791378996
 20
745.7563707467601
 10
-597.7623826507734
 20
744.2100020497957
 10
-596.5019786770101
 20
742.738341059765
 10
-594.8355254067538
 20
741.3713465504945
 10
-592.7969470229478
 20
740.1368465881077
 10
-590.427743102709
 20
739.0599720318348
 10
-587.7761438056335
 20
738.162644942199
  0
LINE
  5
294EB
330
2
100
AcDbEntity
  8
0
  6
Continuous
 62
     7
370
    25
100
AcDbLine
 10
-571.6042729456683
 20
573.7864145048852
 30
0.0
 11
-550.9532111056741
 21
567.8249664486945
 31
0.0
  0
LINE
  5
294EC
330
2
100
AcDbEntity
  8
0
  6
Continuous
 62
     7
370
    25
100
AcDbLine
 10
-571.6042729456683
 20
596.4381075621286
 30
0.0
 11
-571.6042729456683
 21
573.7864145048852
 31
0.0
  0
SPLINE
  5
294ED
330
2
100
AcDbEntity
  8
0
  6
Continuous
 62
     7
370
    25
100
AcDbSpline
210
0.0
220
0.0
230
1.0
 70
     8
 71
     3
 72
    16
 73
    12
 74
     0
 42
0.00000001
 43
0.0000000001
 40
0.0
 40
0.0
 40
0.0
 40
0.0
 40
0.1074519912908866
 40
0.2149019821837603
 40
0.3223647990533798
 40
0.4298270496343871
 40
0.5370941164307089
 40
0.6443613460124441
 40
0.7515966435576015
 40
0.8588321006605486
 40
1.0
 40
1.0
 40
1.0
 40
1.0
 10
-422.5835028147671
 20
689.4526766229764
 30
0.0
 10
-423.6428849084473
 20
689.8786516814364
 30
0.0
 10
-425.7616293736195
 20
690.7305938681172
 30
0.0
 10
-428.4569537237265
 20
692.27607076696
 30
0.0
 10
-430.6820501404961
 20
693.9749893709151
 30
0.0
 10
-432.3637471551959
 20
695.802023545744
 30
0.0
 10
-433.437391083954
 20
697.7109536758482
 30
0.0
 10
-433.9003568032128
 20
699.6558844062077
 30
0.0
 10
-433.699751273185
 20
701.5867391358288
 30
0.0
 10
-432.8405019303033
 20
703.6711946769628
 30
0.0
 10
-431.537790851656
 20
704.9863901629626
 30
0.0
 10
-430.7974587198633
 20
705.7338171971173
 30
0.0
  0
LINE
  5
294EE
330
2
100
AcDbEntity
  8
0
  6
Continuous
 62
     7
370
    25
100
AcDbLine
 10
-430.7974587198633
 20
705.7338171971173
 30
0.0
 11
-385.9155689560838
 21
744.6026739024006
 31
0.0
  0
SPLINE
  5
294EF
330
2
100
AcDbEntity
  8
0
  6
Continuous
 62
     7
370
    25
100
AcDbSpline
210
0.0
220
0.0
230
1.0
 70
     8
 71
     3
 72
    16
 73
    12
 74
     0
 42
0.00000001
 43
0.0000000001
 40
0.0
 40
0.0
 40
0.0
 40
0.0
 40
0.1072859317675771
 40
0.2145718010886413
 40
0.321858686895064
 40
0.4291453713172896
 40
0.5364103052959295
 40
0.6436752146296573
 40
0.750903016861853
 40
0.8581318367023204
 40
1.0
 40
1.0
 40
1.0
 40
1.0
 10
-385.9155689560838
 20
744.6026739024006
 30
0.0
 10
-385.2305584557115
 20
745.1320856419662
 30
0.0
 10
-383.8605378537604
 20
746.1909088129431
 30
0.0
 10
-381.1718037100735
 20
747.5206235554355
 30
0.0
 10
-378.0982260047114
 20
748.6001513887673
 30
0.0
 10
-374.6914259841123
 20
749.3879110084506
 30
0.0
 10
-371.0511849656419
 20
749.8454829329618
 30
0.0
 10
-367.28332339437
 20
749.9664409296016
 30
0.0
 10
-363.5011442992198
 20
749.7166915543557
 30
0.0
 10
-359.3794896719268
 20
749.0807219830456
 30
0.0
 10
-356.7552506024289
 20
748.2366728439851
 30
0.0
 10
-355.2606681624796
 20
747.755961678467
 30
0.0
  0
SPLINE
  5
294F0
330
2
100
AcDbEntity
  8
0
  6
Continuous
 62
     7
370
    25
100
AcDbSpline
210
0.0
220
0.0
230
1.0
 70
     8
 71
     3
 72
    16
 73
    12
 74
     0
 42
0.00000001
 43
0.0000000001
 40
0.0
 40
0.0
 40
0.0
 40
0.0
 40
0.1362499272729692
 40
0.2650227081308013
 40
0.3868853188472108
 40
0.5024224784332132
 40
0.6122346542973341
 40
0.7151068949453467
 40
0.8136349955566931
 40
0.9084062235647266
 40
0.9999999999999998
 40
0.9999999999999998
 40
0.9999999999999998
 40
0.9999999999999998
 10
-355.2606681624796
 20
747.755961678467
 30
0.0
 10
-350.7189400425787
 20
746.0185272199677
 30
0.0
 10
-341.8847255220898
 20
742.6390055232852
 30
0.0
 10
-329.0863554244408
 20
736.9096583070179
 30
0.0
 10
-317.0930428719519
 20
730.8916221811175
 30
0.0
 10
-305.8850459035032
 20
724.5512670800122
 30
0.0
 10
-295.4968196951499
 20
717.9533226900112
 30
0.0
 10
-285.8925175031706
 20
711.123601921088
 30
0.0
 10
-277.0496905334965
 20
704.0754680371074
 30
0.0
 10
-268.8428343489677
 20
696.8236355420797
 30
0.0
 10
-263.8040401327563
 20
691.6863907224701
 30
0.0
 10
-261.3275977753677
 20
689.1615623357965
 30
0.0
  0
SPLINE
  5
294F1
330
2
100
AcDbEntity
  8
0
  6
Continuous
 62
     7
370
    25
100
AcDbSpline
210
0.0
220
0.0
230
1.0
 70
     8
 71
     3
 72
    16
 73
    12
 74
     0
 42
0.00000001
 43
0.0000000001
 40
0.0
 40
0.0
 40
0.0
 40
0.0
 40
0.1353616430026991
 40
0.2707787416772194
 40
0.41790503043062
 40
0.5648900179091797
 40
0.6574511456174354
 40
0.7498874880714759
 40
0.8196613380615824
 40
0.8893414433371841
 40
1.0
 40
1.0
 40
1.0
 40
1.0
 10
-261.3275977753677
 20
689.1615623357965
 30
0.0
 10
-260.0769441062289
 20
687.7331079014819
 30
0.0
 10
-257.5751243934977
 20
684.8756138161006
 30
0.0
 10
-254.5236422198331
 20
679.934221697568
 30
0.0
 10
-252.093155315482
 20
674.6040824688594
 30
0.0
 10
-250.6812376171496
 20
669.6656964700961
 30
0.0
 10
-250.0973960321398
 20
665.4772659514345
 30
0.0
 10
-250.0745714544039
 20
662.363870251795
 30
0.0
 10
-250.4706748297135
 20
659.7367185739175
 30
0.0
 10
-251.276171564468
 20
657.130620707484
 30
0.0
 10
-252.4149004485142
 20
655.8307855581997
 30
0.0
 10
-253.1136418796764
 20
655.0331868626466
 30
0.0
  0
LINE
  5
294F2
330
2
100
AcDbEntity
  8
0
  6
Continuous
 62
     7
370
    25
100
AcDbLine
 10
-253.1136418796764
 20
655.0331868626466
 30
0.0
 11
-297.9955316434559
 21
616.1643301573579
 31
0.0
  0
SPLINE
  5
294F3
330
2
100
AcDbEntity
  8
0
  6
Continuous
 62
     7
370
    25
100
AcDbSpline
210
0.0
220
0.0
230
1.0
 70
     8
 71
     3
 72
    17
 73
    13
 74
     0
 42
0.00000001
 43
0.0000000001
 40
0.0
 40
0.0
 40
0.0
 40
0.0
 40
0.0685520146178964
 40
0.1371724758095968
 40
0.2050714705276992
 40
0.2730485209151527
 40
0.3800197144268043
 40
0.4871669945365344
 40
0.6329571002034128
 40
0.77882789619798
 40
0.8894284847818035
 40
1.0
 40
1.0
 40
1.0
 40
1.0
 10
-297.9955316434559
 20
616.1643301573579
 30
0.0
 10
-298.5096392373561
 20
615.7966338080066
 30
0.0
 10
-299.5383677419928
 20
615.0608739785119
 30
0.0
 10
-301.4053472411256
 20
614.5880931646368
 30
0.0
 10
-303.4130785812572
 20
614.5525724850338
 30
0.0
 10
-305.921804312502
 20
614.9727457406827
 30
0.0
 10
-308.9451377145952
 20
616.0184220143715
 30
0.0
 10
-312.857106209651
 20
617.9886821305776
 30
0.0
 10
-317.2157805555756
 20
620.7878950353231
 30
0.0
 10
-321.5382605409112
 20
624.1516314693805
 30
0.0
 10
-325.3828629413056
 20
627.5330234553372
 30
0.0
 10
-327.5613380596078
 20
629.7499564878673
 30
0.0
 10
-328.6504324370601
 20
630.8582772947452
 30
0.0
  0
SPLINE
  5
294F4
330
2
100
AcDbEntity
  8
0
  6
Continuous
 62
     7
370
    25
100
AcDbSpline
210
0.0
220
0.0
230
1.0
 70
     8
 71
     3
 72
    16
 73
    12
 74
     0
 42
0.00000001
 43
0.0000000001
 40
0.0
 40
0.0
 40
0.0
 40
0.0
 40
0.0932860725245085
 40
0.1898770505570551
 40
0.2903848566524392
 40
0.3954295150614034
 40
0.5056305041717852
 40
0.6194754990486178
 40
0.7394526800550297
 40
0.8661152865856919
 40
1.0
 40
1.0
 40
1.0
 40
1.0
 10
-328.6504324370601
 20
630.8582772947452
 30
0.0
 10
-331.173427730938
 20
633.4289765964405
 30
0.0
 10
-336.3088020907743
 20
638.661449012372
 30
0.0
 10
-344.6847369362039
 20
646.0388156303674
 30
0.0
 10
-353.7207732390049
 20
653.2043371429111
 30
0.0
 10
-363.4832670401835
 20
660.0966590136513
 30
0.0
 10
-373.9155873072044
 20
666.6683365877556
 30
0.0
 10
-385.0318874417339
 20
672.9115025274798
 30
0.0
 10
-396.8449437144323
 20
678.8081474139625
 30
0.0
 10
-409.4354126550518
 20
684.4259387806751
 30
0.0
 10
-418.1205582917533
 20
687.7464172461873
 30
0.0
 10
-422.5835028147671
 20
689.4526766229764
 30
0.0
  0
SPLINE
  5
294F5
330
2
100
AcDbEntity
  8
0
  6
Continuous
 62
     7
370
    25
100
AcDbSpline
210
0.0
220
0.0
230
1.0
 70
     8
 71
     3
 72
    11
 73
     7
 74
     0
 42
0.00000001
 43
0.0000000001
 40
0.0
 40
0.0
 40
0.0
 40
0.0
 40
0.2415252906320871
 40
0.4900361322271513
 40
0.7410576578486015
 40
1.0
 40
1.0
 40
1.0
 40
1.0
 10
-890.4281643312359
 20
828.4350521876245
 30
0.0
 10
-891.657220685634
 20
828.3619863654108
 30
0.0
 10
-894.1508809587402
 20
828.2137414639308
 30
0.0
 10
-897.9381035899839
 20
828.3176134872276
 30
0.0
 10
-901.7119905658081
 20
828.6330040504591
 30
0.0
 10
-904.0287622269159
 20
829.0321348540555
 30
0.0
 10
-905.2051402373445
 20
829.2347999282666
 30
0.0
  0
ARC
  5
294F6
330
2
100
AcDbEntity
  8
0
  6
Continuous
 62
     7
370
    25
100
AcDbCircle
 10
-891.3475210257583
 20
856.8899492633729
 30
0.0
 40
28.46974506951421
100
AcDbArc
 50
271.8505405507202
 51
306.1573372124055
  0
SPLINE
  5
294F7
330
2
100
AcDbEntity
  8
0
  6
Continuous
 62
     7
370
    25
100
AcDbSpline
210
0.0
220
0.0
230
1.0
 70
     8
 71
     3
 72
    11
 73
     7
 74
     0
 42
0.00000001
 43
0.0000000001
 40
0.0
 40
0.0
 40
0.0
 40
0.0
 40
0.2413476724871434
 40
0.4896933279874116
 40
0.7408911612513711
 40
1.0
 40
1.0
 40
1.0
 40
1.0
 10
-837.882305591675
 20
887.5380849861956
 30
0.0
 10
-836.8461960864824
 20
887.2978260966798
 30
0.0
 10
-834.7439346205298
 20
886.8103419043865
 30
0.0
 10
-832.0513376945323
 20
885.636975611556
 30
0.0
 10
-829.7254404753338
 20
884.1711022593809
 30
0.0
 10
-828.671072119525
 20
882.984429876528
 30
0.0
 10
-828.1357152933805
 20
882.3818955183513
 30
0.0
  0
SPLINE
  5
294F9
330
2
100
AcDbEntity
  8
0
  6
Continuous
 62
     7
370
    25
100
AcDbSpline
210
0.0
220
0.0
230
1.0
 70
     8
 71
     3
 72
    15
 73
    11
 74
     0
 42
0.00000001
 43
0.0000000001
 40
0.0
 40
0.0
 40
0.0
 40
0.0
 40
0.1428063898315334
 40
0.2774746373370708
 40
0.4053409211125663
 40
0.5277175309998223
 40
0.6458581399499089
 40
0.7879473699553509
 40
0.9272322894219755
 40
1.0
 40
1.0
 40
1.0
 40
1.0
 10
-905.2051402373445
 20
829.2347999282666
 30
0.0
 10
-908.388090009844
 20
829.7783140806405
 30
0.0
 10
-914.5726020252434
 20
830.8343690127397
 30
0.0
 10
-923.4468081216048
 20
831.340172631387
 30
0.0
 10
-931.6636514108136
 20
831.0274414907151
 30
0.0
 10
-939.2373630102666
 20
829.8783021630079
 30
0.0
 10
-946.7312182325358
 20
827.82720193329
 30
0.0
 10
-953.9927853556276
 20
824.6499170085098
 30
0.0
 10
-959.951192785949
 20
821.0681166012287
 30
0.0
 10
-963.0193554446575
 20
818.3157463228466
 30
0.0
 10
-964.072222236761
 20
817.3712464419507
 30
0.0
  0
SPLINE
  5
294FA
330
2
100
AcDbEntity
  8
0
  6
Continuous
 62
     7
370
    25
100
AcDbSpline
210
0.0
220
0.0
230
1.0
 70
     8
 71
     3
 72
    15
 73
    11
 74
     0
 42
0.00000001
 43
0.0000000001
 40
0.0
 40
0.0
 40
0.0
 40
0.0
 40
0.0727677105780196
 40
0.212052630044645
 40
0.3541418600500943
 40
0.4722824690001793
 40
0.5946590788874362
 40
0.7225253626629322
 40
0.8571936101684695
 40
1.0
 40
1.0
 40
1.0
 40
1.0
 10
-896.7493875910918
 20
875.6745314998797
 30
0.0
 10
-895.6965207989883
 20
876.6190313807785
 30
0.0
 10
-892.6283581402795
 20
879.3714016591577
 30
0.0
 10
-886.669950709958
 20
882.9532020664359
 30
0.0
 10
-879.4083835868663
 20
886.1304869912164
 30
0.0
 10
-871.9145283645971
 20
888.1815872209369
 30
0.0
 10
-864.3408167651443
 20
889.3307265486468
 30
0.0
 10
-856.1239734759356
 20
889.643457689316
 30
0.0
 10
-847.2497673795741
 20
889.1376540706685
 30
0.0
 10
-841.0652553641748
 20
888.0815991385723
 30
0.0
 10
-837.882305591675
 20
887.5380849861956
 30
0.0
  0
LINE
  5
294FB
330
2
100
AcDbEntity
  8
0
  6
Continuous
 62
     7
370
    25
100
AcDbLine
 10
-829.6683496747357
 20
872.7723378710479
 30
0.0
 11
-874.5502394385153
 21
833.9034811657619
 31
0.0
  0
ARC
  5
294FC
330
2
100
AcDbEntity
  8
0
  6
Continuous
 62
     7
370
    25
100
AcDbCircle
 10
-833.3803176198717
 20
878.2913612021564
 30
0.0
 40
6.651189709740072
100
AcDbArc
 50
303.9238680564708
 51
37.95249541532184
  0
LINE
  5
294FD
330
2
100
AcDbEntity
  8
0
  6
Continuous
 62
     7
370
    25
100
AcDbLine
 10
-837.3987514946307
 20
581.4144816762882
 30
0.0
 11
-1013.128186662326
 21
632.1432000255892
 31
0.0
  0
SPLINE
  5
294FE
330
2
100
AcDbEntity
  8
0
  6
Continuous
 62
     7
370
    25
100
AcDbSpline
210
0.0
220
0.0
230
1.0
 70
     8
 71
     3
 72
    29
 73
    25
 74
     0
 42
0.00000001
 43
0.0000000001
 40
0.0
 40
0.0
 40
0.0
 40
0.0
 40
0.063716972581488
 40
0.1277089004974087
 40
0.1923525842007105
 40
0.2581071367815953
 40
0.3255268045594341
 40
0.370870129023359
 40
0.4170327102402566
 40
0.4635744533004777
 40
0.5101165424970395
 40
0.5563785601494912
 40
0.6022091982280625
 40
0.638370899969774
 40
0.6743663031907552
 40
0.7103905125262546
 40
0.7467424583954134
 40
0.783826300763476
 40
0.815653627974615
 40
0.848668593914963
 40
0.8832315150138143
 40
0.9197193635884081
 40
0.958515286906311
 40
1.0
 40
1.0
 40
1.0
 40
1.0
 10
-1013.128186662326
 20
632.1432000255892
 30
0.0
 10
-1013.927259273487
 20
637.7911987982068
 30
0.0
 10
-1015.528852702302
 20
649.1115689294074
 30
0.0
 10
-1017.367145248018
 20
666.0741572258691
 30
0.0
 10
-1018.56894053936
 20
683.0885882549347
 30
0.0
 10
-1018.929391439363
 20
700.1972596830593
 30
0.0
 10
-1018.35306912536
 20
715.3717434351762
 30
0.0
 10
-1017.11899431656
 20
728.6212448779401
 30
0.0
 10
-1015.498494248394
 20
739.9108558119927
 30
0.0
 10
-1013.209149579839
 20
751.0026765740433
 30
0.0
 10
-1010.157240376081
 20
761.7115605601821
 30
0.0
 10
-1006.245597421891
 20
771.8499555397768
 30
0.0
 10
-1001.701768641524
 20
780.5999984052747
 30
0.0
 10
-996.6698858879306
 20
787.9650926501185
 30
0.0
 10
-991.3190157661379
 20
794.0414497220919
 30
0.0
 10
-985.1969961410272
 20
799.3164442592698
 30
0.0
 10
-978.2534556038127
 20
803.6891269242254
 30
0.0
 10
-970.8926261399334
 20
806.8615368141321
 30
0.0
 10
-963.2425519230988
 20
808.9498205093137
 30
0.0
 10
-955.3927949117888
 20
810.0905847091798
 30
0.0
 10
-946.8603217326702
 20
810.3565888031505
 30
0.0
 10
-937.6202587272954
 20
809.6775681472104
 30
0.0
 10
-927.6472536392347
 20
808.0637343454847
 30
0.0
 10
-920.7458510892797
 20
806.2202580549097
 30
0.0
 10
-917.1795776076011
 20
805.2676487031696
 30
0.0
  0
LINE
  5
294FF
330
2
100
AcDbEntity
  8
0
  6
Continuous
 62
     7
370
    25
100
AcDbLine
 10
-692.9891490807411
 20
740.5494465733083
 30
0.0
 11
-917.1795776076011
 21
805.2676487031696
 31
0.0
  0
SPLINE
  5
29500
330
2
100
AcDbEntity
  8
0
  6
Continuous
 62
     7
370
    25
100
AcDbSpline
210
0.0
220
0.0
230
1.0
 70
     8
 71
     3
 72
    29
 73
    25
 74
     0
 42
0.00000001
 43
0.0000000001
 40
0.0
 40
0.0
 40
0.0
 40
0.0
 40
0.0664073578288631
 40
0.134412465506928
 40
0.2026618989515283
 40
0.2697152196081003
 40
0.3106350858171619
 40
0.3502526217098354
 40
0.388348173582807
 40
0.4248072054254684
 40
0.4596683812437511
 40
0.492166249696255
 40
0.5238771920779161
 40
0.5555587791613347
 40
0.5880956535202674
 40
0.6220446973335285
 40
0.6576326957100411
 40
0.6948453350147583
 40
0.7334972197499732
 40
0.7869144537935151
 40
0.8414157965074792
 40
0.8959005115922845
 40
0.9491753456627998
 40
1.0
 40
1.0
 40
1.0
 40
1.0
 10
-692.9891490807411
 20
636.3913121028302
 30
0.0
 10
-697.7108196050936
 20
637.880745482795
 30
0.0
 10
-707.2677632516978
 20
640.8954477590829
 30
0.0
 10
-721.6257322309302
 20
646.3477130673546
 30
0.0
 10
-736.0091667582844
 20
651.937270313017
 30
0.0
 10
-748.4935436634748
 20
656.6468923633124
 30
0.0
 10
-758.9759632822484
 20
660.226213815468
 30
0.0
 10
-767.4145132503838
 20
662.7618390401797
 30
0.0
 10
-775.5307341411385
 20
664.736965036569
 30
0.0
 10
-783.2633385959718
 20
666.0243998493878
 30
0.0
 10
-790.4818839413185
 20
666.4890065018587
 30
0.0
 10
-797.1328430966701
 20
666.0241867853242
 30
0.0
 10
-803.1714376129635
 20
664.5379253576183
 30
0.0
 10
-808.576224624913
 20
661.877311787524
 30
0.0
 10
-813.2714337017846
 20
658.0273351707508
 30
0.0
 10
-817.3468925209141
 20
653.175444878645
 30
0.0
 10
-820.8714111709985
 20
647.4555242093865
 30
0.0
 10
-823.9119459407286
 20
641.0057061116959
 30
0.0
 10
-826.8368372190895
 20
633.12866267458
 30
0.0
 10
-829.5173900749139
 20
623.8232497236362
 30
0.0
 10
-831.9151002971521
 20
613.2156423297904
 30
0.0
 10
-833.9326993378985
 20
602.4362486788727
 30
0.0
 10
-835.687262840951
 20
591.8031604981646
 30
0.0
 10
-836.8372778748094
 20
584.8226077487445
 30
0.0
 10
-837.3987514946307
 20
581.4144816762882
 30
0.0
  0
LWPOLYLINE
  5
29501
330
2
100
AcDbEntity
  8
0
  6
Continuous
 62
     7
370
    25
100
AcDbPolyline
 90
       12
 70
   128
 43
0.0
 10
-833.9455696057672
 20
809.2256370681777
 10
-836.5971689028429
 20
810.1229641578218
 10
-838.9663728230816
 20
811.1998387140946
 10
-841.0049512068876
 20
812.4343386764815
 10
-842.6714044771657
 20
813.8013331857493
 10
-843.9318084509292
 20
815.2729941757828
 10
-844.7605049380333
 20
816.8193628727443
 10
-845.1406240677252
 20
818.408959669315
 10
-845.064427710753
 20
820.0094249587433
 10
-844.5334670051368
 20
821.5881778830956
 10
-843.5585507797457
 20
823.1130795855735
 10
-842.1595255174599
 20
824.5530874649743
  0
LWPOLYLINE
  5
29502
330
2
100
AcDbEntity
  8
0
  6
Continuous
 62
     7
370
    25
100
AcDbPolyline
 90
       12
 70
   128
 43
0.0
 10
-709.3575984410525
 20
786.216473291746
 10
-711.1522526203624
 20
784.8906736432082
 10
-713.3060017328972
 20
783.7060716830862
 10
-715.7750016576545
 20
782.6867824911832
 10
-718.5089906762064
 20
781.8535558560522
 10
-721.4523126562787
 20
781.2233538691624
 10
-724.5450500501747
 20
780.8090056256076
 10
-727.7242436433269
 20
780.6189460607562
 10
-730.9251742221943
 20
780.6570442392559
 10
-734.0826800708773
 20
780.9225245920531
 10
-737.1324834758548
 20
781.4099827047568
 10
-740.0124992346566
 20
782.1094953358969
  0
LWPOLYLINE
  5
29503
330
2
100
AcDbEntity
  8
0
  6
Continuous
 62
     7
370
    25
100
AcDbPolyline
 90
       12
 70
   128
 43
0.0
 10
-664.475708677273
 20
825.0853299970321
 10
-663.0766834150088
 20
826.5253378764329
 10
-662.1017671896177
 20
828.0502395789163
 10
-661.5708064840016
 20
829.6289925032633
 10
-661.4946101270077
 20
831.2294577926914
 10
-661.8747292566995
 20
832.8190545892676
 10
-662.7034257438256
 20
834.3654232862236
 10
-663.9638297175889
 20
835.8370842762571
 10
-665.6302829878452
 20
837.2040787855304
 10
-667.6688613716731
 20
838.4385787479118
 10
-670.0380652919118
 20
839.5154533041846
 10
-672.6896645889874
 20
840.4127803938287
  0
LWPOLYLINE
  5
29504
330
2
100
AcDbEntity
  8
0
  6
Continuous
 62
     7
370
    25
100
AcDbPolyline
 90
       12
 70
   128
 43
0.0
 10
-766.6227349600979
 20
867.5289221261094
 10
-769.5027507188999
 20
868.2284347572496
 10
-772.5525541238555
 20
868.7158928699533
 10
-775.7100599725604
 20
868.9813732227561
 10
-778.910990551406
 20
869.0194714012502
 10
-782.0901841445581
 20
868.8294118363989
 10
-785.182921538476
 20
868.4150635928494
 10
-788.1262435185483
 20
867.7848616059597
 10
-790.8602325370782
 20
866.9516349708233
 10
-793.3292324618573
 20
865.9323457789202
 10
-795.4829815743921
 20
864.7477438187982
 10
-797.2776357536804
 20
863.4219441702605
  0
LINE
  5
29505
330
2
100
AcDbEntity
  8
0
  6
Continuous
 62
     7
370
    25
100
AcDbLine
 10
-577.1938734901985
 20
840.8310968729475
 30
0.0
 11
-585.571826246091
 21
833.5755769546278
 31
0.0
  0
LINE
  5
29506
330
2
100
AcDbEntity
  8
0
  6
Continuous
 62
     7
370
    25
100
AcDbLine
 10
-585.571826246091
 20
833.5755769546278
 30
0.0
 11
-592.0499690303109
 21
835.4456556947825
 31
0.0
  0
ARC
  5
29507
330
2
100
AcDbEntity
  8
0
  6
Continuous
 62
     7
370
    25
100
AcDbCircle
 10
-593.8783124628408
 20
829.6827408225041
 30
0.0
 40
6.04599268379238
100
AcDbArc
 50
72.39783972970293
 51
122.8636406951606
  0
LINE
  5
29508
330
2
100
AcDbEntity
  8
0
  6
Continuous
 62
     7
370
    25
100
AcDbLine
 10
-597.159119162589
 20
834.7611593688091
 30
0.0
 11
-600.8992766428822
 21
831.5220879767046
 31
0.0
  0
LWPOLYLINE
  5
29509
330
2
100
AcDbEntity
  8
0
  6
Continuous
 62
     7
370
    25
100
AcDbPolyline
 90
        9
 70
   128
 43
0.0
 10
-600.8992766428822
 20
831.5220879767046
 10
-601.201873057947
 20
831.188165716936
 10
-601.3683651653809
 20
830.8311428637329
 10
-601.3923547668274
 20
830.4647396051127
 10
-601.2729199553874
 20
830.1030366128333
 10
-601.0146505439114
 20
829.7599339300353
 10
-600.6274716809862
 20
829.4486168004098
 10
-600.1262624332361
 20
829.181048966654
 10
-599.5302839909408
 20
828.967512910571
  0
LINE
  5
2950A
330
2
100
AcDbEntity
  8
0
  6
Continuous
 62
     7
370
    25
100
AcDbLine
 10
-599.5302839909408
 20
828.967512910571
 30
0.0
 11
-593.052141206721
 21
827.0974341704134
 31
0.0
  0
LINE
  5
2950B
330
2
100
AcDbEntity
  8
0
  6
Continuous
 62
     7
370
    25
100
AcDbLine
 10
-593.052141206721
 20
827.0974341704134
 30
0.0
 11
-601.4300939626352
 21
819.8419142520936
 31
0.0
  0
LWPOLYLINE
  5
2950C
330
2
100
AcDbEntity
  8
0
  6
Continuous
 62
     7
370
    25
100
AcDbPolyline
 90
       12
 70
   128
 43
0.0
 10
-601.4300939626352
 20
819.8419142520936
 10
-604.3101097214153
 20
820.5414268832338
 10
-607.3599131263927
 20
821.0288849959377
 10
-610.5174189750758
 20
821.2943653487402
 10
-613.7183495539431
 20
821.3324635272345
 10
-616.8975431470953
 20
821.1424039623832
 10
-619.9902805410131
 20
820.7280557188337
 10
-622.9336025210638
 20
820.0978537319439
 10
-625.6675915396154
 20
819.2646270968076
 10
-628.1365914643729
 20
818.2453379049045
 10
-630.2903405769294
 20
817.0607359447824
 10
-632.0849947562176
 20
815.7349362962445
  0
LINE
  5
2950D
330
2
100
AcDbEntity
  8
0
  6
Continuous
 62
     7
370
    25
100
AcDbLine
 10
-632.0849947562176
 20
815.7349362962445
 30
0.0
 11
-676.9668845199971
 21
776.8660795909586
 31
0.0
  0
LWPOLYLINE
  5
2950E
330
2
100
AcDbEntity
  8
0
  6
Continuous
 62
     7
370
    25
100
AcDbPolyline
 90
       12
 70
   128
 43
0.0
 10
-668.7529286083044
 20
761.538629194162
 10
-671.40452790538
 20
762.435956283806
 10
-673.7737318256188
 20
763.5128308400789
 10
-675.8123102094249
 20
764.7473308024602
 10
-677.4787634796812
 20
766.1143253117335
 10
-678.7391674534663
 20
767.5859863017669
 10
-679.5678639405706
 20
769.1323549987286
 10
-679.9479830702842
 20
770.7219517952992
 10
-679.8717867132685
 20
772.3224170847275
 10
-679.3408260076958
 20
773.9011700090799
 10
-678.3659097822829
 20
775.4260717115577
 10
-676.9668845199971
 20
776.8660795909586
  0
LINE
  5
2950F
330
2
100
AcDbEntity
  8
0
  6
Continuous
 62
     7
370
    25
100
AcDbLine
 10
-677.130881364197
 20
754.2831092758477
 30
0.0
 11
-668.7529286083044
 21
761.538629194162
 31
0.0
  0
LINE
  5
29510
330
2
100
AcDbEntity
  8
0
  6
Continuous
 62
     7
370
    25
100
AcDbLine
 10
-683.6090241484166
 20
756.1531880160024
 30
0.0
 11
-677.130881364197
 21
754.2831092758477
 31
0.0
  0
ARC
  5
29511
330
2
100
AcDbEntity
  8
0
  6
Continuous
 62
     7
370
    25
100
AcDbCircle
 10
-685.4373675809467
 20
750.3902731437214
 30
0.0
 40
6.045992683792063
100
AcDbArc
 50
72.39783972970293
 51
122.8636406951606
  0
LINE
  5
29512
330
2
100
AcDbEntity
  8
0
  6
Continuous
 62
     7
370
    25
100
AcDbLine
 10
-692.4583317609881
 20
752.2296202979191
 30
0.0
 11
-688.7181742806949
 21
755.468691690029
 31
0.0
  0
LWPOLYLINE
  5
29513
330
2
100
AcDbEntity
  8
0
  6
Continuous
 62
     7
370
    25
100
AcDbPolyline
 90
        9
 70
   128
 43
0.0
 10
-691.0893391090466
 20
749.6750452317908
 10
-691.6853175513637
 20
749.8885812878685
 10
-692.1865267991138
 20
750.1561491216243
 10
-692.573705662039
 20
750.4674662512497
 10
-692.831975073515
 20
750.8105689340478
 10
-692.9514098849333
 20
751.1722719263298
 10
-692.9274202834868
 20
751.5386751849473
 10
-692.7609281760529
 20
751.8956980381505
 10
-692.4583317609881
 20
752.2296202979191
  0
LINE
  5
29514
330
2
100
AcDbEntity
  8
0
  6
Continuous
 62
     7
370
    25
100
AcDbLine
 10
-684.6111963248269
 20
747.8049664916307
 30
0.0
 11
-691.0893391090466
 21
749.6750452317908
 31
0.0
  0
LINE
  5
29515
330
2
100
AcDbEntity
  8
0
  6
Continuous
 62
     7
370
    25
100
AcDbLine
 10
-692.9891490807411
 20
740.5494465733083
 30
0.0
 11
-684.6111963248269
 21
747.8049664916307
 31
0.0
  0
LINE
  5
29518
330
2
100
AcDbEntity
  8
0
  6
Continuous
 62
     7
370
    25
100
AcDbLine
 10
-577.1938734901985
 20
840.8310968729475
 30
0.0
 11
-801.3843020170368
 21
905.5492990028035
 31
0.0
  0
SPLINE
  5
29519
330
2
100
AcDbEntity
  8
0
  6
Continuous
 62
     7
370
    25
100
AcDbSpline
210
0.0
220
0.0
230
1.0
 70
     8
 71
     3
 72
    14
 73
    10
 74
     0
 42
0.00000001
 43
0.0000000001
 40
0.0
 40
0.0
 40
0.0
 40
0.0
 40
0.1557915875761673
 40
0.3190936520159377
 40
0.4861043355590268
 40
0.6531659873728925
 40
0.8169045470167709
 40
0.9353832374129513
 40
0.9999999999999998
 40
0.9999999999999998
 40
0.9999999999999998
 40
0.9999999999999998
 10
-813.1625310221942
 20
602.4036642971394
 30
0.0
 10
-812.6010146803924
 20
605.8117599941614
 30
0.0
 10
-811.4509121429678
 20
612.7922505283501
 30
0.0
 10
-809.6970344293099
 20
623.425826306935
 30
0.0
 10
-807.6767466847837
 20
634.2033082832057
 30
0.0
 10
-805.2890622521124
 20
644.8180440366723
 30
0.0
 10
-802.575172177687
 20
654.0997541479035
 30
0.0
 10
-800.0946845808748
 20
661.0503315187665
 30
0.0
 10
-798.4078452463493
 20
664.4631259174426
 30
0.0
 10
-797.8125377440394
 20
665.6675453709341
 30
0.0
  0
LINE
  5
2951A
330
2
100
AcDbEntity
  8
0
  6
Continuous
 62
     7
370
    25
100
AcDbLine
 10
-837.3987514946307
 20
581.4144816762882
 30
0.0
 11
-813.1625310221942
 21
602.4036642971394
 31
0.0
  0
SPLINE
  5
2951B
330
2
100
AcDbEntity
  8
0
  6
Continuous
 62
     7
370
    25
100
AcDbSpline
210
0.0
220
0.0
230
1.0
 70
     8
 71
     3
 72
    15
 73
    11
 74
     0
 42
0.00000001
 43
0.0000000001
 40
0.0
 40
0.0
 40
0.0
 40
0.0
 40
0.1428063898315345
 40
0.2774746373370719
 40
0.4053409211125679
 40
0.527717530999825
 40
0.6458581399499096
 40
0.7879473699553529
 40
0.9272322894219787
 40
0.9999999999999998
 40
0.9999999999999998
 40
0.9999999999999998
 40
0.9999999999999998
 10
-905.2051402373445
 20
829.2347999282666
 30
0.0
 10
-908.388090009844
 20
829.7783140806405
 30
0.0
 10
-914.5726020252434
 20
830.8343690127397
 30
0.0
 10
-923.4468081216048
 20
831.340172631387
 30
0.0
 10
-931.6636514108136
 20
831.0274414907151
 30
0.0
 10
-939.2373630102666
 20
829.8783021630079
 30
0.0
 10
-946.7312182325358
 20
827.82720193329
 30
0.0
 10
-953.9927853556276
 20
824.6499170085098
 30
0.0
 10
-959.951192785949
 20
821.0681166012287
 30
0.0
 10
-963.0193554446575
 20
818.3157463228466
 30
0.0
 10
-964.072222236761
 20
817.3712464419507
 30
0.0
  0
SPLINE
  5
2951C
330
2
100
AcDbEntity
  8
0
  6
Continuous
 62
     7
370
    25
100
AcDbSpline
210
0.0
220
0.0
230
1.0
 70
     8
 71
     3
 72
    11
 73
     7
 74
     0
 42
0.00000001
 43
0.0000000001
 40
0.0
 40
0.0
 40
0.0
 40
0.0
 40
0.2415252906320781
 40
0.4900361322271448
 40
0.741057657848587
 40
0.9999999999999998
 40
0.9999999999999998
 40
0.9999999999999998
 40
0.9999999999999998
 10
-890.4281643312359
 20
828.4350521876245
 30
0.0
 10
-891.657220685634
 20
828.3619863654108
 30
0.0
 10
-894.1508809587402
 20
828.2137414639308
 30
0.0
 10
-897.9381035899839
 20
828.3176134872276
 30
0.0
 10
-901.7119905658081
 20
828.6330040504591
 30
0.0
 10
-904.0287622269159
 20
829.0321348540555
 30
0.0
 10
-905.2051402373445
 20
829.2347999282666
 30
0.0
  0
LINE
  5
2951D
330
2
100
AcDbEntity
  8
0
  6
Continuous
 62
     7
370
    25
100
AcDbLine
 10
-652.5810577483392
 20
597.1623987568537
 30
0.0
 11
-684.9717716694164
 21
606.5127924576438
 31
0.0
  0
SPLINE
  5
2951E
330
2
100
AcDbEntity
  8
0
  6
Continuous
 62
     7
370
    25
100
AcDbSpline
210
0.0
220
0.0
230
1.0
 70
     8
 71
     3
 72
    11
 73
     7
 74
     0
 42
0.00000001
 43
0.0000000001
 40
0.0
 40
0.0
 40
0.0
 40
0.0
 40
0.241525290632074
 40
0.4900361322271276
 40
0.7410576578485682
 40
1.0
 40
1.0
 40
1.0
 40
1.0
 10
-828.1357152933805
 20
882.3818955183513
 30
0.0
 10
-828.6308295716233
 20
882.9444421790061
 30
0.0
 10
-829.635378144065
 20
884.0858058393703
 30
0.0
 10
-831.8658438268716
 20
885.5378689275141
 30
0.0
 10
-834.5869452630845
 20
886.7649985128178
 30
0.0
 10
-836.7725365317985
 20
887.2777348686927
 30
0.0
 10
-837.882305591675
 20
887.5380849861956
 30
0.0
  0
SPLINE
  5
2951F
330
2
100
AcDbEntity
  8
0
  6
Continuous
 62
     7
370
    25
100
AcDbSpline
210
0.0
220
0.0
230
1.0
 70
     8
 71
     3
 72
    15
 73
    11
 74
     0
 42
0.00000001
 43
0.0000000001
 40
0.0
 40
0.0
 40
0.0
 40
0.0
 40
0.1428063898315347
 40
0.2774746373370733
 40
0.4053409211125697
 40
0.5277175309998267
 40
0.6458581399499069
 40
0.787947369955351
 40
0.9272322894219772
 40
1.0
 40
1.0
 40
1.0
 40
1.0
 10
-837.882305591675
 20
887.5380849861956
 30
0.0
 10
-841.0652553641748
 20
888.0815991385723
 30
0.0
 10
-847.2497673795741
 20
889.1376540706685
 30
0.0
 10
-856.1239734759356
 20
889.643457689316
 30
0.0
 10
-864.3408167651443
 20
889.3307265486468
 30
0.0
 10
-871.9145283645971
 20
888.1815872209369
 30
0.0
 10
-879.4083835868663
 20
886.1304869912217
 30
0.0
 10
-886.669950709958
 20
882.9532020664359
 30
0.0
 10
-892.6283581402795
 20
879.3714016591577
 30
0.0
 10
-895.6965207989883
 20
876.6190313807785
 30
0.0
 10
-896.7493875910918
 20
875.6745314998797
 30
0.0
  0
SPLINE
  5
29520
330
2
100
AcDbEntity
  8
0
  6
Continuous
 62
     7
370
    25
100
AcDbSpline
210
0.0
220
0.0
230
1.0
 70
     8
 71
     3
 72
    16
 73
    12
 74
     0
 42
0.00000001
 43
0.0000000001
 40
0.0
 40
0.0
 40
0.0
 40
0.0
 40
0.0615410327855808
 40
0.1793369305449664
 40
0.2995044869073236
 40
0.402638679382522
 40
0.5096213307772104
 40
0.6216200208797988
 40
0.7398563017001703
 40
0.8655717347360079
 40
1.0
 40
1.0
 40
1.0
 40
1.0
 10
-872.5131671186552
 20
896.6637141207362
 30
0.0
 10
-871.4603000140131
 20
897.6082112719169
 30
0.0
 10
-868.3921364445975
 20
900.3605735956359
 30
0.0
 10
-862.4337407900709
 20
903.9424768580769
 30
0.0
 10
-855.1029130741021
 20
907.1496284594269
 30
0.0
 10
-847.4458271055473
 20
909.2297926192081
 30
0.0
 10
-839.5979334388375
 20
910.3727145526882
 30
0.0
 10
-831.0649263131876
 20
910.6381003421411
 30
0.0
 10
-821.8250180558301
 20
909.9592588827555
 30
0.0
 10
-811.8519683713854
 20
908.3453734389239
 30
0.0
 10
-804.950572201735
 20
906.5019045366639
 30
0.0
 10
-801.3843020170368
 20
905.5492990028035
 30
0.0
  0
SPLINE
  5
29521
330
2
100
AcDbEntity
  8
0
  6
Continuous
 62
     7
370
    25
100
AcDbSpline
210
0.0
220
0.0
230
1.0
 70
     8
 71
     3
 72
    31
 73
    27
 74
     0
 42
0.00000001
 43
0.0000000001
 40
0.0
 40
0.0
 40
0.0
 40
0.0
 40
0.0489426306448141
 40
0.0951423546819226
 40
0.1387728599232394
 40
0.1800138852911462
 40
0.2190511893795715
 40
0.2560762117770399
 40
0.291285324372341
 40
0.3248785742741556
 40
0.365123325117809
 40
0.4035321552516125
 40
0.440493062071164
 40
0.4763723161249794
 40
0.5115038776854261
 40
0.5498808522301388
 40
0.5880280377642157
 40
0.6261981309435003
 40
0.6645684062111389
 40
0.7032457195585814
 40
0.7422739924545186
 40
0.7816426689267408
 40
0.836214802691806
 40
0.8910573488891635
 40
0.9458019988208034
 40
1.0
 40
1.0
 40
1.0
 40
1.0
 10
-357.585515788597
 20
777.4356246553
 30
0.0
 10
-352.5202410473657
 20
775.9144474870479
 30
0.0
 10
-342.6735662846479
 20
772.9573449413001
 30
0.0
 10
-328.3380950277127
 20
767.8485846274705
 30
0.0
 10
-314.8567168416989
 20
762.4198391629849
 30
0.0
 10
-302.2054633331466
 20
756.6377694969751
 30
0.0
 10
-290.3605663899805
 20
750.5312575050224
 30
0.0
 10
-279.2984578151333
 20
744.1139698085674
 30
0.0
 10
-268.9954862119066
 20
737.4031769278785
 30
0.0
 10
-258.6650215436736
 20
729.8581968736352
 30
0.0
 10
-248.434033857162
 20
721.3689912739518
 30
0.0
 10
-238.4763873178779
 20
711.8295186704202
 30
0.0
 10
-229.5565996841219
 20
701.94751547965
 30
0.0
 10
-221.6294057920781
 20
691.75993787112
 30
0.0
 10
-214.4039778384074
 20
680.9384457800562
 30
0.0
 10
-207.9359075814493
 20
669.4726944577112
 30
0.0
 10
-202.2854978202898
 20
657.383934977214
 30
0.0
 10
-197.6048452266886
 20
645.1101582652897
 30
0.0
 10
-193.8260970002442
 20
632.6977603958392
 30
0.0
 10
-190.881687362774
 20
620.1919071949914
 30
0.0
 10
-188.7045089548396
 20
607.6370153872597
 30
0.0
 10
-187.0426320864941
 20
593.4909120563579
 30
0.0
 10
-186.1405886116329
 20
577.8476250889182
 30
0.0
 10
-186.1905539548519
 20
560.8667351890438
 30
0.0
 10
-187.0595228004027
 20
544.1824706454272
 30
0.0
 10
-188.2137344754761
 20
533.2996455528673
 30
0.0
 10
-188.787944530822
 20
527.8855367425408
 30
0.0
  0
LINE
  5
29522
330
2
100
AcDbEntity
  8
0
  6
Continuous
 62
     7
370
    25
100
AcDbLine
 10
-304.5832201223007
 20
427.603886435075
 30
0.0
 11
-188.787944530822
 21
527.8855367425408
 31
0.0
  0
SPLINE
  5
29523
330
2
100
AcDbEntity
  8
0
  6
Continuous
 62
     7
370
    25
100
AcDbSpline
210
0.0
220
0.0
230
1.0
 70
     8
 71
     3
 72
    31
 73
    27
 74
     0
 42
0.00000001
 43
0.0000000001
 40
0.0
 40
0.0
 40
0.0
 40
0.0
 40
0.0489426306435322
 40
0.0951423546794289
 40
0.1387728599196014
 40
0.1800138852864268
 40
0.219051189373829
 40
0.2560762117703261
 40
0.2912853243647038
 40
0.3248785742656377
 40
0.3651233251082357
 40
0.4035321552410324
 40
0.4404930620596145
 40
0.4763723161124893
 40
0.5115038776720144
 40
0.5498808522177697
 40
0.5880280377528862
 40
0.6261981309332347
 40
0.6645684062019754
 40
0.7032457195505608
 40
0.7422739924476728
 40
0.7816426689210866
 40
0.8362148026877738
 40
0.8910573488866704
 40
0.9458019988196838
 40
1.0
 40
1.0
 40
1.0
 40
1.0
 10
-473.3807913791612
 20
677.1539743556607
 30
0.0
 10
-468.3155166379299
 20
675.632797187414
 30
0.0
 10
-458.4688418752339
 20
672.6756946416608
 30
0.0
 10
-444.1333706182551
 20
667.5669343278313
 30
0.0
 10
-430.6519924322632
 20
662.1381888633456
 30
0.0
 10
-418.0007389237107
 20
656.3561191973358
 30
0.0
 10
-406.1558419805447
 20
650.2496072053884
 30
0.0
 10
-395.0937334056757
 20
643.8323195089335
 30
0.0
 10
-384.7907618024708
 20
637.1215266282419
 30
0.0
 10
-374.4602971342378
 20
629.5765465739959
 30
0.0
 10
-364.2293094477045
 20
621.0873409743125
 30
0.0
 10
-354.2716629084204
 20
611.5478683707835
 30
0.0
 10
-345.3518752746861
 20
601.6658651800107
 30
0.0
 10
-337.4246813826423
 20
591.4782875714833
 30
0.0
 10
-330.199253428841
 20
580.6567954802183
 30
0.0
 10
-323.7311831716653
 20
569.191044157435
 30
0.0
 10
-318.0807734102881
 20
557.1022846762657
 30
0.0
 10
-313.4001208165344
 20
544.8285079636664
 30
0.0
 10
-309.6213725900683
 20
532.4161100935193
 30
0.0
 10
-306.6769629526199
 20
519.9102568919857
 30
0.0
 10
-304.4997845447944
 20
507.3553650835683
 30
0.0
 10
-302.837907676623
 20
493.2092617519154
 30
0.0
 10
-301.935864202023
 20
477.5659747836811
 30
0.0
 10
-301.9858295455685
 20
460.5850848829902
 30
0.0
 10
-302.8547983914677
 20
443.900820338639
 30
0.0
 10
-304.0090100668241
 20
433.0179952456137
 30
0.0
 10
-304.5832201223007
 20
427.603886435075
 30
0.0
  0
SPLINE
  5
29525
330
2
100
AcDbEntity
  8
0
  6
Continuous
 62
     7
370
    25
100
AcDbSpline
210
0.0
220
0.0
230
1.0
 70
     8
 71
     3
 72
    17
 73
    13
 74
     0
 42
0.00000001
 43
0.0000000001
 40
0.0
 40
0.0
 40
0.0
 40
0.0
 40
0.0685520146557225
 40
0.1371724758852876
 40
0.2050714706408566
 40
0.2730485210658223
 40
0.3800197146364976
 40
0.4871669948053514
 40
0.6329571005526767
 40
0.7788278966277314
 40
0.8894284852725839
 40
1.0
 40
1.0
 40
1.0
 40
1.0
 10
-253.1136418796764
 20
655.0331868626466
 30
0.0
 10
-252.6645066339926
 20
655.4996832823926
 30
0.0
 10
-251.76578769816
 20
656.4331419007808
 30
0.0
 10
-250.864164996701
 20
658.358040925611
 30
0.0
 10
-250.3060232244233
 20
660.5446315442452
 30
0.0
 10
-250.0289534936284
 20
663.377374439778
 30
0.0
 10
-250.2167731546077
 20
666.87867764605
 30
0.0
 10
-251.1168364398919
 20
671.4573241876868
 30
0.0
 10
-252.8605987115946
 20
676.5211173773492
 30
0.0
 10
-255.3915849605401
 20
681.4363328978966
 30
0.0
 10
-258.2366621863628
 20
685.6833390666038
 30
0.0
 10
-260.2973762086118
 20
688.0022561895694
 30
0.0
 10
-261.3275977753677
 20
689.1615623357965
 30
0.0
  0
SPLINE
  5
29526
330
2
100
AcDbEntity
  8
0
  6
Continuous
 62
     7
370
    25
100
AcDbSpline
210
0.0
220
0.0
230
1.0
 70
     8
 71
     3
 72
    16
 73
    12
 74
     0
 42
0.00000001
 43
0.0000000001
 40
0.0
 40
0.0
 40
0.0
 40
0.0
 40
0.0932860725235873
 40
0.1898770505548326
 40
0.2903848566487816
 40
0.3954295150564419
 40
0.5056305041659323
 40
0.619475499042564
 40
0.7394526800497138
 40
0.8661152865823112
 40
1.0
 40
1.0
 40
1.0
 40
1.0
 10
-261.3275977753677
 20
689.1615623357965
 30
0.0
 10
-263.8505930692673
 20
691.7322616381396
 30
0.0
 10
-268.9859674291471
 20
696.9647340553746
 30
0.0
 10
-277.3619022749034
 20
704.3421006752395
 30
0.0
 10
-286.3979385782486
 20
711.507622189601
 30
0.0
 10
-296.1604323802109
 20
718.3999440620802
 30
0.0
 10
-306.5927526482551
 20
724.9716216378281
 30
0.0
 10
-317.7090527840473
 20
731.2147875790871
 30
0.0
 10
-329.5221090583132
 20
737.111432467004
 30
0.0
 10
-342.1125780007179
 20
742.7292238350501
 30
0.0
 10
-350.7977236387692
 20
746.0497023012942
 30
0.0
 10
-355.2606681624796
 20
747.755961678467
 30
0.0
  0
SPLINE
  5
29527
330
2
100
AcDbEntity
  8
0
  6
Continuous
 62
     7
370
    25
100
AcDbSpline
210
0.0
220
0.0
230
1.0
 70
     8
 71
     3
 72
    16
 73
    12
 74
     0
 42
0.00000001
 43
0.0000000001
 40
0.0
 40
0.0
 40
0.0
 40
0.0
 40
0.1074519914842844
 40
0.2149019823538786
 40
0.3223647992002094
 40
0.4298270497579341
 40
0.5370941165310105
 40
0.6443613460895028
 40
0.7515966436114259
 40
0.8588321006911369
 40
1.0
 40
1.0
 40
1.0
 40
1.0
 10
-355.2606681624796
 20
747.755961678467
 30
0.0
 10
-356.3826770764605
 20
748.1277003223407
 30
0.0
 10
-358.6266740140684
 20
748.8711706888063
 30
0.0
 10
-362.3013436203349
 20
749.5685097193666
 30
0.0
 10
-366.076403203347
 20
749.925120846417
 30
0.0
 10
-369.8690037584616
 20
749.9240589302967
 30
0.0
 10
-373.5598675045095
 20
749.5664102113534
 30
0.0
 10
-377.0558117223859
 20
748.8847045127677
 30
0.0
 10
-380.2343112819071
 20
747.8891683927959
 30
0.0
 10
-383.3727634375985
 20
746.5115128794187
 30
0.0
 10
-384.994139286548
 20
745.2943748032343
 30
0.0
 10
-385.9155689560838
 20
744.6026739024006
 30
0.0
  0
SPLINE
  5
29528
330
2
100
AcDbEntity
  8
0
  6
Continuous
 62
     7
370
    25
100
AcDbSpline
210
0.0
220
0.0
230
1.0
 70
     8
 71
     3
 72
    16
 73
    12
 74
     0
 42
0.00000001
 43
0.0000000001
 40
0.0
 40
0.0
 40
0.0
 40
0.0
 40
0.1074519912908833
 40
0.2149019821837601
 40
0.3223647990533762
 40
0.4298270496343862
 40
0.5370941164307082
 40
0.6443613460124435
 40
0.7515966435576007
 40
0.8588321006605479
 40
1.0
 40
1.0
 40
1.0
 40
1.0
 10
-422.5835028147671
 20
689.4526766229818
 30
0.0
 10
-423.6428849084473
 20
689.8786516814364
 30
0.0
 10
-425.7616293736195
 20
690.7305938681172
 30
0.0
 10
-428.4569537237265
 20
692.27607076696
 30
0.0
 10
-430.6820501404961
 20
693.9749893709151
 30
0.0
 10
-432.3637471551959
 20
695.802023545744
 30
0.0
 10
-433.437391083954
 20
697.7109536758482
 30
0.0
 10
-433.9003568032128
 20
699.6558844062132
 30
0.0
 10
-433.699751273185
 20
701.5867391358288
 30
0.0
 10
-432.8405019303033
 20
703.6711946769628
 30
0.0
 10
-431.537790851656
 20
704.9863901629626
 30
0.0
 10
-430.7974587198633
 20
705.7338171971173
 30
0.0
  0
SPLINE
  5
29529
330
2
100
AcDbEntity
  8
0
  6
Continuous
 62
     7
370
    25
100
AcDbSpline
210
0.0
220
0.0
230
1.0
 70
     8
 71
     3
 72
    16
 73
    12
 74
     0
 42
0.00000001
 43
0.0000000001
 40
0.0
 40
0.0
 40
0.0
 40
0.0
 40
0.0932860725245088
 40
0.1898770505570555
 40
0.2903848566524406
 40
0.3954295150614037
 40
0.505630504171784
 40
0.6194754990486168
 40
0.7394526800550287
 40
0.8661152865856911
 40
1.0
 40
1.0
 40
1.0
 40
1.0
 10
-328.6504324370601
 20
630.8582772947452
 30
0.0
 10
-331.173427730938
 20
633.4289765964405
 30
0.0
 10
-336.3088020907743
 20
638.661449012372
 30
0.0
 10
-344.6847369362039
 20
646.0388156303674
 30
0.0
 10
-353.7207732390049
 20
653.2043371429111
 30
0.0
 10
-363.4832670401835
 20
660.0966590136513
 30
0.0
 10
-373.9155873072044
 20
666.6683365877556
 30
0.0
 10
-385.0318874417339
 20
672.9115025274798
 30
0.0
 10
-396.8449437144323
 20
678.8081474139625
 30
0.0
 10
-409.4354126550518
 20
684.4259387806751
 30
0.0
 10
-418.1205582917533
 20
687.7464172461927
 30
0.0
 10
-422.5835028147671
 20
689.4526766229818
 30
0.0
  0
SPLINE
  5
2952A
330
2
100
AcDbEntity
  8
0
  6
Continuous
 62
     7
370
    25
100
AcDbSpline
210
0.0
220
0.0
230
1.0
 70
     8
 71
     3
 72
    17
 73
    13
 74
     0
 42
0.00000001
 43
0.0000000001
 40
0.0
 40
0.0
 40
0.0
 40
0.0
 40
0.0685520146178959
 40
0.1371724758095971
 40
0.2050714705276997
 40
0.2730485209151522
 40
0.3800197144268025
 40
0.4871669945365328
 40
0.6329571002034135
 40
0.7788278961979771
 40
0.8894284847818017
 40
1.0
 40
1.0
 40
1.0
 40
1.0
 10
-297.9955316434559
 20
616.1643301573633
 30
0.0
 10
-298.5096392373561
 20
615.7966338080066
 30
0.0
 10
-299.5383677419928
 20
615.0608739785119
 30
0.0
 10
-301.4053472411256
 20
614.5880931646368
 30
0.0
 10
-303.4130785812572
 20
614.5525724850394
 30
0.0
 10
-305.921804312502
 20
614.9727457406882
 30
0.0
 10
-308.9451377145952
 20
616.0184220143715
 30
0.0
 10
-312.857106209651
 20
617.9886821305802
 30
0.0
 10
-317.2157805555756
 20
620.7878950353231
 30
0.0
 10
-321.5382605409112
 20
624.1516314693805
 30
0.0
 10
-325.3828629413056
 20
627.5330234553372
 30
0.0
 10
-327.5613380596078
 20
629.7499564878673
 30
0.0
 10
-328.6504324370601
 20
630.8582772947452
 30
0.0
  0
LINE
  5
2952B
330
2
100
AcDbEntity
  8
0
  6
Continuous
 62
     7
370
    25
100
AcDbLine
 10
-473.3807913791612
 20
677.1539743556607
 30
0.0
 11
-683.2719349044223
 21
737.7443284630719
 31
0.0
  0
LINE
  5
2952C
330
2
100
AcDbEntity
  8
0
  6
Continuous
 62
     7
370
    25
100
AcDbLine
 10
-304.5832201223007
 20
427.603886435075
 30
0.0
 11
-537.7298205041838
 21
494.9075126887329
 31
0.0
  0
SPLINE
  5
2952D
330
2
100
AcDbEntity
  8
0
  6
Continuous
 62
     7
370
    25
100
AcDbSpline
210
0.0
220
0.0
230
1.0
 70
     8
 71
     3
 72
    28
 73
    24
 74
     0
 42
0.00000001
 43
0.0000000001
 40
0.0
 40
0.0
 40
0.0
 40
0.0
 40
0.0447698774536403
 40
0.088742538901522
 40
0.1322017820683637
 40
0.1753647927188406
 40
0.2183854791801137
 40
0.2710065671331163
 40
0.3236368419150057
 40
0.3762701573028166
 40
0.4288401511109297
 40
0.481245368034294
 40
0.5333740547669697
 40
0.5851291623837243
 40
0.6364542855595293
 40
0.6873610626195048
 40
0.7379578566453226
 40
0.7800587214349079
 40
0.8223186163106069
 40
0.8650307106069931
 40
0.9085694733935822
 40
0.9533865155700402
 40
0.9999999999999998
 40
0.9999999999999998
 40
0.9999999999999998
 40
0.9999999999999998
 10
-537.7298205041838
 20
494.9075126887329
 30
0.0
 10
-537.1015224329818
 20
497.6083087926395
 30
0.0
 10
-535.8561143775034
 20
502.9618079967414
 30
0.0
 10
-535.2061539215123
 20
511.4779900765199
 30
0.0
 10
-535.4215207551439
 20
520.1453769453443
 30
0.0
 10
-536.5334607081674
 20
528.9430699179267
 30
0.0
 10
-538.6113148299975
 20
538.453462059207
 30
0.0
 10
-541.8267924884851
 20
548.6194222286599
 30
0.0
 10
-546.3168828427567
 20
559.3099485533104
 30
0.0
 10
-551.7785508264528
 20
569.746308936933
 30
0.0
 10
-558.1186829009551
 20
579.8106946424554
 30
0.0
 10
-565.2453950720022
 20
589.3857169911239
 30
0.0
 10
-573.0675441605913
 20
598.3534931092983
 30
0.0
 10
-581.4946996343487
 20
606.5956675455557
 30
0.0
 10
-590.4372323389355
 20
613.9931195152527
 30
0.0
 10
-599.8054824631587
 20
620.4253617209007
 30
0.0
 10
-608.9741262305515
 20
625.4744204302184
 30
0.0
 10
-617.7919811367022
 20
629.2338289053962
 30
0.0
 10
-626.1724206405054
 20
631.842924100796
 30
0.0
 10
-634.614475292246
 20
633.4694232848049
 30
0.0
 10
-643.0501692292595
 20
634.0163620601631
 30
0.0
 10
-651.4682249134793
 20
633.5039717808512
 30
0.0
 10
-656.7818059049666
 20
632.1963408100914
 30
0.0
 10
-659.49079746398
 20
631.5296790488827
 30
0.0
  0
SPLINE
  5
2952E
330
2
100
AcDbEntity
  8
0
  6
Continuous
 62
     7
370
    25
100
AcDbSpline
210
0.0
220
0.0
230
1.0
 70
     8
 71
     3
 72
    10
 73
     6
 74
     0
 42
0.00000001
 43
0.0000000001
 40
0.0
 40
0.0
 40
0.0
 40
0.0
 40
0.3228106860517135
 40
0.6557354306580835
 40
1.0
 40
1.0
 40
1.0
 40
1.0
 10
-659.49079746398
 20
631.5296790488827
 30
0.0
 10
-661.9786664870935
 20
631.4392060024978
 30
0.0
 10
-667.032352550763
 20
631.2554252771394
 30
0.0
 10
-675.0286444195392
 20
632.1392915596828
 30
0.0
 10
-680.4936666975331
 20
633.2699864997712
 30
0.0
 10
-683.2719349044223
 20
633.8448009550364
 30
0.0
  0
LINE
  5
2952F
330
2
100
AcDbEntity
  8
0
  6
Continuous
 62
     7
370
    25
100
AcDbLine
 10
-683.2719349044223
 20
737.7443284630719
 30
0.0
 11
-674.893982148508
 21
744.9998483813945
 31
0.0
  0
LINE
  5
29530
330
2
100
AcDbEntity
  8
0
  6
Continuous
 62
     7
370
    25
100
AcDbLine
 10
-674.893982148508
 20
744.9998483813945
 30
0.0
 11
-668.4158393642883
 21
743.129769641237
 31
0.0
  0
ARC
  5
29531
330
2
100
AcDbEntity
  8
0
  6
Continuous
 62
     7
370
    25
100
AcDbCircle
 10
-666.5874959317583
 20
748.8926845135207
 30
0.0
 40
6.045992683794432
100
AcDbArc
 50
252.3978397297117
 51
302.863640695153
  0
LINE
  5
29532
330
2
100
AcDbEntity
  8
0
  6
Continuous
 62
     7
370
    25
100
AcDbLine
 10
-663.3066892320317
 20
743.8142659672104
 30
0.0
 11
-659.5665317517168
 21
747.0533373593204
 31
0.0
  0
LWPOLYLINE
  5
29533
330
2
100
AcDbEntity
  8
0
  6
Continuous
 62
     7
370
    25
100
AcDbPolyline
 90
        9
 70
   128
 43
0.0
 10
-659.5665317517168
 20
747.0533373593204
 10
-659.2639353366521
 20
747.3872596190834
 10
-659.0974432292398
 20
747.7442824722948
 10
-659.0734536277716
 20
748.1106857309123
 10
-659.1928884392117
 20
748.4723887231943
 10
-659.4511578506876
 20
748.8154914059897
 10
-659.8383367136129
 20
749.1268085356152
 10
-660.3395459613629
 20
749.3943763693655
 10
-660.9355244036584
 20
749.6079124254513
  0
LINE
  5
29534
330
2
100
AcDbEntity
  8
0
  6
Continuous
 62
     7
370
    25
100
AcDbLine
 10
-660.9355244036584
 20
749.6079124254513
 30
0.0
 11
-667.413667187878
 21
751.4779911656114
 31
0.0
  0
LINE
  5
29535
330
2
100
AcDbEntity
  8
0
  6
Continuous
 62
     7
370
    25
100
AcDbLine
 10
-667.413667187878
 20
751.4779911656114
 30
0.0
 11
-659.0357144319857
 21
758.7335110839258
 31
0.0
  0
LWPOLYLINE
  5
29536
330
2
100
AcDbEntity
  8
0
  6
Continuous
 62
     7
370
    25
100
AcDbPolyline
 90
       12
 70
   128
 43
0.0
 10
-659.0357144319857
 20
758.7335110839258
 10
-656.1556986731837
 20
758.0339984527856
 10
-653.1058952682065
 20
757.5465403400845
 10
-649.9483894195016
 20
757.2810599872846
 10
-646.7474588406341
 20
757.242961808785
 10
-643.5682652475037
 20
757.4330213736445
 10
-640.4755278535859
 20
757.8473696171912
 10
-637.5322058735354
 20
758.4775716040837
 10
-634.7982168549836
 20
759.3107982392119
 10
-632.3292169302044
 20
760.3300874311204
 10
-630.1754678176696
 20
761.5146893912424
 10
-628.3808136383814
 20
762.8404890397775
  0
LINE
  5
29537
330
2
100
AcDbEntity
  8
0
  6
Continuous
 62
     7
370
    25
100
AcDbLine
 10
-583.4989238746019
 20
801.7093457450636
 30
0.0
 11
-628.3808136383814
 21
762.8404890397775
 31
0.0
  0
LWPOLYLINE
  5
29538
330
2
100
AcDbEntity
  8
0
  6
Continuous
 62
     7
370
    25
100
AcDbPolyline
 90
       12
 70
   128
 43
0.0
 10
-591.7128797863163
 20
817.0367961418575
 10
-589.0612804892407
 20
816.1394690522161
 10
-586.6920765690021
 20
815.0625944959461
 10
-584.6534981851743
 20
813.8280945335592
 10
-582.9870449149179
 20
812.4611000242914
 10
-581.7266409411327
 20
810.9894390342525
 10
-580.8979444540284
 20
809.4430703372964
 10
-580.5178253243148
 20
807.8534735407229
 10
-580.5940216813305
 20
806.2530082512974
 10
-581.124982386925
 20
804.6742553269478
 10
-582.0998986123162
 20
803.1493536244672
 10
-583.4989238746019
 20
801.7093457450636
  0
LINE
  5
29539
330
2
100
AcDbEntity
  8
0
  6
Continuous
 62
     7
370
    25
100
AcDbLine
 10
-583.3349270304022
 20
824.2923160601772
 30
0.0
 11
-591.7128797863163
 21
817.0367961418575
 31
0.0
  0
LINE
  5
2953A
330
2
100
AcDbEntity
  8
0
  6
Continuous
 62
     7
370
    25
100
AcDbLine
 10
-576.8567842461824
 20
822.4222373200225
 30
0.0
 11
-583.3349270304022
 21
824.2923160601772
 31
0.0
  0
ARC
  5
2953B
330
2
100
AcDbEntity
  8
0
  6
Continuous
 62
     7
370
    25
100
AcDbCircle
 10
-575.0284408136524
 20
828.1851521923062
 30
0.0
 40
6.045992683794245
100
AcDbArc
 50
252.3978397297117
 51
302.863640695153
  0
LINE
  5
2953C
330
2
100
AcDbEntity
  8
0
  6
Continuous
 62
     7
370
    25
100
AcDbLine
 10
-568.0074766336109
 20
826.3458050381004
 30
0.0
 11
-571.7476341139259
 21
823.1067336459959
 31
0.0
  0
LWPOLYLINE
  5
2953D
330
2
100
AcDbEntity
  8
0
  6
Continuous
 62
     7
370
    25
100
AcDbPolyline
 90
        9
 70
   128
 43
0.0
 10
-569.3764692855524
 20
828.9003801042341
 10
-568.780490843257
 20
828.6868440481509
 10
-568.2792815954853
 20
828.4192762144005
 10
-567.8921027325817
 20
828.1079590847697
 10
-567.633833321084
 20
827.7648564019743
 10
-567.5143985096658
 20
827.4031534096979
 10
-567.5383881111122
 20
827.0367501510774
 10
-567.7048802185463
 20
826.679727297869
 10
-568.0074766336109
 20
826.3458050381004
  0
LINE
  5
2953E
330
2
100
AcDbEntity
  8
0
  6
Continuous
 62
     7
370
    25
100
AcDbLine
 10
-575.8546120697722
 20
830.7704588443915
 30
0.0
 11
-569.3764692855524
 21
828.9003801042341
 31
0.0
  0
LINE
  5
2953F
330
2
100
AcDbEntity
  8
0
  6
Continuous
 62
     7
370
    25
100
AcDbLine
 10
-567.476659313858
 20
838.0259787627112
 30
0.0
 11
-575.8546120697722
 21
830.7704588443915
 31
0.0
  0
LINE
  5
29540
330
2
100
AcDbEntity
  8
0
  6
Continuous
 62
     7
370
    25
100
AcDbLine
 10
-357.585515788597
 20
777.4356246553
 30
0.0
 11
-567.476659313858
 21
838.0259787627112
 31
0.0
  0
LWPOLYLINE
  5
29541
330
2
100
AcDbEntity
  8
0
  6
Continuous
 62
     7
370
    25
100
AcDbPolyline
 90
       12
 70
   128
 43
0.0
 10
-426.5202387888319
 20
769.3497882678417
 10
-423.8686394917562
 20
768.4524611782004
 10
-421.4994355715175
 20
767.3755866219303
 10
-419.4608571877114
 20
766.1410866595434
 10
-417.7944039174551
 20
764.7740921502757
 10
-416.53399994367
 20
763.3024311602367
 10
-415.7053034565657
 20
761.7560624632806
 10
-415.3251843268739
 20
760.1664656667073
 10
-415.4013806838678
 20
758.5660003772817
 10
-415.9323413894404
 20
756.9872474529319
 10
-416.9072576148752
 20
755.4623457504515
 10
-418.3062828771392
 20
754.0223378710479
  0
LWPOLYLINE
  5
29542
330
2
100
AcDbEntity
  8
0
  6
Continuous
 62
     7
370
    25
100
AcDbPolyline
 90
       12
 70
   128
 43
0.0
 10
-551.1082099535248
 20
792.3589520442789
 10
-549.3135557742585
 20
793.6847516928139
 10
-547.1598066617237
 20
794.8693536529333
 10
-544.6908067369445
 20
795.8886428448417
 10
-541.9568177183927
 20
796.7218694799726
 10
-539.0134957383203
 20
797.3520714668625
 10
-535.9207583444025
 20
797.7664197104119
 10
-532.7415647512721
 20
797.956479275266
 10
-529.5406341724048
 20
797.9183810967691
 10
-526.3831283237217
 20
797.6529007439718
 10
-523.3333249187443
 20
797.1654426312681
 10
-520.4533091599642
 20
796.4659300001224
  0
LWPOLYLINE
  5
29543
330
2
100
AcDbEntity
  8
0
  6
Continuous
 62
     7
370
    25
100
AcDbPolyline
 90
       12
 70
   128
 43
0.0
 10
-595.9900997173043
 20
753.4900953389929
 10
-597.3891249795902
 20
752.0500874595892
 10
-598.364041205003
 20
750.5251857571087
 10
-598.8950019105975
 20
748.9464328327563
 10
-598.9711982675913
 20
747.345967543328
 10
-598.5910791378996
 20
745.7563707467601
 10
-597.7623826507734
 20
744.2100020497957
 10
-596.5019786770101
 20
742.738341059765
 10
-594.8355254067538
 20
741.3713465504945
 10
-592.7969470229478
 20
740.1368465881077
 10
-590.427743102709
 20
739.0599720318348
 10
-587.7761438056335
 20
738.162644942199
  0
LWPOLYLINE
  5
29544
330
2
100
AcDbEntity
  8
0
  6
Continuous
 62
     7
370
    25
100
AcDbPolyline
 90
       12
 70
   128
 43
0.0
 10
-493.8430734345011
 20
711.04650320991
 10
-490.963057675721
 20
710.3469905787699
 10
-487.9132542707436
 20
709.8595324660688
 10
-484.7557484220605
 20
709.5940521132689
 10
-481.5548178431932
 20
709.5559539347692
 10
-478.375624250041
 20
709.7460134996286
 10
-475.2828868561232
 20
710.1603617431755
 10
-472.3395648760726
 20
710.790563730068
 10
-469.6055758575207
 20
711.6237903651962
 10
-467.1365759327415
 20
712.6430795571046
 10
-464.9828268202067
 20
713.8276815172267
 10
-463.1881726409187
 20
715.1534811657618
  0
LINE
  5
29545
330
2
100
AcDbEntity
  8
0
  6
Continuous
 62
     7
370
    25
100
AcDbLine
 10
-571.6042729456683
 20
573.7864145048852
 30
0.0
 11
-603.9949868667454
 21
583.1368082056726
 31
0.0
  0
LINE
  5
29546
330
2
100
AcDbEntity
  8
0
  6
Continuous
 62
     7
370
    25
100
AcDbLine
 10
-283.3034329475434
 20
427.3555083468463
 30
0.0
 11
-281.4934625190226
 21
439.260271491022
 31
0.0
  0
LINE
  5
29547
330
2
100
AcDbEntity
  8
0
  6
Continuous
 62
     7
370
    25
100
AcDbLine
 10
-214.2632255269898
 20
497.4833646285573
 30
0.0
 11
-281.4934625190226
 21
439.260271491022
 31
0.0
  0
LINE
  5
29548
330
2
100
AcDbEntity
  8
0
  6
Continuous
 62
     7
370
    25
100
AcDbLine
 10
-214.2632255269898
 20
497.4833646285573
 30
0.0
 11
-215.9805983018742
 21
485.6587934047698
 31
0.0
  0
SPLINE
  5
29549
330
2
100
AcDbEntity
  8
0
  6
Continuous
 62
     7
370
    25
100
AcDbSpline
210
0.0
220
0.0
230
1.0
 70
     8
 71
     3
 72
    17
 73
    13
 74
     0
 42
0.00000001
 43
0.0000000001
 40
0.0
 40
0.0
 40
0.0
 40
0.0
 40
0.1138110246438982
 40
0.2257036159600278
 40
0.3361241613737222
 40
0.4455543276900127
 40
0.5546285815792241
 40
0.6621862908160202
 40
0.7705444564177702
 40
0.8796848123308087
 40
0.9894523909651463
 40
0.9999999999999998
 40
0.9999999999999998
 40
0.9999999999999998
 40
0.9999999999999998
 10
-215.9805983018742
 20
485.6587934047698
 30
0.0
 10
-217.1249179195147
 20
478.8830601019194
 30
0.0
 10
-219.3942681544047
 20
465.4458073224207
 30
0.0
 10
-223.2130083198765
 20
445.6369065218739
 30
0.0
 10
-226.8262598489521
 20
426.0134740912171
 30
0.0
 10
-229.916314020487
 20
406.3318424964171
 30
0.0
 10
-232.0878831942521
 20
386.441706433184
 30
0.0
 10
-232.9612183026747
 20
366.1491398379272
 30
0.0
 10
-232.9777962269434
 20
345.5949669171274
 30
0.0
 10
-232.605649694189
 20
324.7947137137451
 30
0.0
 10
-232.3776330619556
 20
310.219324006093
 30
0.0
 10
-232.363136934815
 20
302.6064233134934
 30
0.0
 10
-232.3618661103874
 20
301.9390271045675
 30
0.0
  0
LINE
  5
2954A
330
2
100
AcDbEntity
  8
0
  6
Continuous
 62
     7
370
    25
100
AcDbLine
 10
-232.3618661103874
 20
301.9390271045675
 30
0.0
 11
-299.6847007560567
 21
243.6357420466384
 31
0.0
  0
SPLINE
  5
2954B
330
2
100
AcDbEntity
  8
0
  6
Continuous
 62
     7
370
    25
100
AcDbSpline
210
0.0
220
0.0
230
1.0
 70
     8
 71
     3
 72
    17
 73
    13
 74
     0
 42
0.00000001
 43
0.0000000001
 40
0.0
 40
0.0
 40
0.0
 40
0.0
 40
0.0105476141126326
 40
0.1223057243332433
 40
0.2334103300269596
 40
0.3437001823359188
 40
0.4531674362691801
 40
0.5622410445966599
 40
0.6697611151793206
 40
0.7782643996207997
 40
0.8882029839161226
 40
1.0
 40
1.0
 40
1.0
 40
1.0
 10
-299.6847007560567
 20
243.6357420466384
 30
0.0
 10
-299.6859716015146
 20
244.3031382843287
 30
0.0
 10
-299.7007077945811
 20
252.0419860840698
 30
0.0
 10
-299.9360106067984
 20
266.8695153514301
 30
0.0
 10
-300.3115040000243
 20
288.0429505230318
 30
0.0
 10
-300.2700723866798
 20
308.9575336005065
 30
0.0
 10
-299.3097675392554
 20
329.4651544903754
 30
0.0
 10
-297.0567699496573
 20
349.3224305498158
 30
0.0
 10
-293.9630767891855
 20
368.7571008776592
 30
0.0
 10
-290.4009853500664
 20
388.0329951608432
 30
0.0
 10
-286.6537515849977
 20
407.4972371166129
 30
0.0
 10
-284.4264284451643
 20
420.6992014115062
 30
0.0
 10
-283.3034329475434
 20
427.3555083468463
 30
0.0
  0
SPLINE
  5
2954C
330
2
100
AcDbEntity
  8
0
  6
Continuous
 62
     7
370
    25
100
AcDbSpline
210
0.0
220
0.0
230
1.0
 70
     8
 71
     3
 72
    17
 73
    13
 74
     0
 42
0.00000001
 43
0.0000000001
 40
0.0
 40
0.0
 40
0.0
 40
0.0
 40
0.1062981463923401
 40
0.2125813997537688
 40
0.3192908216498225
 40
0.426861707689771
 40
0.5351654366600526
 40
0.6437414245005405
 40
0.7520465164501059
 40
0.8597118655070767
 40
0.9666685391216795
 40
1.0
 40
1.0
 40
1.0
 40
1.0
 10
-305.7759818182774
 20
418.2309929099726
 30
0.0
 10
-305.4555085419031
 20
418.5535022623874
 30
0.0
 10
-304.8146068894991
 20
419.1984757816639
 30
0.0
 10
-303.8709755757503
 20
420.7170369862572
 30
0.0
 10
-303.07467215003
 20
422.444100970553
 30
0.0
 10
-302.5097368569569
 20
424.2416695410164
 30
0.0
 10
-302.2467900535855
 20
425.8967209779225
 30
0.0
 10
-302.3203086578376
 20
427.2186212694035
 30
0.0
 10
-302.7223280302719
 20
428.0503022768447
 30
0.0
 10
-303.4017913776402
 20
428.2904411640397
 30
0.0
 10
-304.0769075270488
 20
428.017545027126
 30
0.0
 10
-304.4860183149654
 20
427.6833005423825
 30
0.0
 10
-304.5832201223007
 20
427.603886435075
 30
0.0
  0
LINE
  5
2954D
330
2
100
AcDbEntity
  8
0
  6
Continuous
 62
     7
370
    25
100
AcDbLine
 10
-305.7759818182774
 20
418.2309929099726
 30
0.0
 11
-472.7322944174646
 21
466.4271289209962
 31
0.0
  0
SPLINE
  5
2954E
330
2
100
AcDbEntity
  8
0
  6
Continuous
 62
     7
370
    25
100
AcDbSpline
210
0.0
220
0.0
230
1.0
 70
     8
 71
     3
 72
    14
 73
    10
 74
     0
 42
0.00000001
 43
0.0000000001
 40
0.0
 40
0.0
 40
0.0
 40
0.0
 40
0.0795742118288755
 40
0.2529355364641894
 40
0.4324363557302981
 40
0.6142131784300148
 40
0.7910339946478699
 40
0.9569915521360346
 40
1.0
 40
1.0
 40
1.0
 40
1.0
 10
-535.9975540955432
 20
494.4074504500049
 30
0.0
 10
-535.9967653787347
 20
494.2558109886131
 30
0.0
 10
-535.9942583540523
 20
493.7738079924915
 30
0.0
 10
-536.4107318706714
 20
492.5171496656288
 30
0.0
 10
-537.2033204985225
 20
490.8270737248016
 30
0.0
 10
-538.2994974116069
 20
489.0448847876894
 30
0.0
 10
-539.4939152505188
 20
487.4590026760911
 30
0.0
 10
-540.3543301583058
 20
486.5260595759943
 30
0.0
 10
-540.7605751738317
 20
486.1638806415929
 30
0.0
 10
-540.8441867045332
 20
486.0893385944729
 30
0.0
  0
LINE
  5
2954F
330
2
100
AcDbEntity
  8
0
  6
Continuous
 62
     7
370
    25
100
AcDbLine
 10
-192.3784957119375
 20
524.7760282061165
 30
0.0
 11
-304.5832201223007
 21
427.603886435075
 31
0.0
  0
SPLINE
  5
29550
330
2
100
AcDbEntity
  8
0
  6
Continuous
 62
     7
370
    25
100
AcDbSpline
210
0.0
220
0.0
230
1.0
 70
     8
 71
     3
 72
    17
 73
    13
 74
     0
 42
0.00000001
 43
0.0000000001
 40
0.0
 40
0.0
 40
0.0
 40
0.0
 40
0.1062981463893342
 40
0.2125813997477849
 40
0.3192908216408432
 40
0.4268617076777612
 40
0.5351654366450042
 40
0.6437414244824428
 40
0.7520465164289632
 40
0.8597118654828916
 40
0.9666685390944902
 40
1.0
 40
1.0
 40
1.0
 40
1.0
 10
-193.5712574088286
 20
515.4031346731876
 30
0.0
 10
-193.8776850418428
 20
515.1827319124302
 30
0.0
 10
-194.4904973754784
 20
514.7419572707113
 30
0.0
 10
-195.2169843942642
 20
514.8141535720005
 30
0.0
 10
-195.6978208342877
 20
515.4351819883718
 30
0.0
 10
-195.8745158342754
 20
516.5904798848363
 30
0.0
 10
-195.7264401564559
 20
518.1460500087935
 30
0.0
 10
-195.2665452146664
 20
519.9298999820841
 30
0.0
 10
-194.5454522258891
 20
521.7342248247725
 30
0.0
 10
-193.6473886470079
 20
523.3405421085442
 30
0.0
 10
-192.8912639732206
 20
524.307136874097
 30
0.0
 10
-192.4769368770238
 20
524.6860105265776
 30
0.0
 10
-192.3784957119375
 20
524.7760282061165
 30
0.0
  0
LINE
  5
29551
330
2
100
AcDbEntity
  8
0
  6
Continuous
 62
     7
370
    25
100
AcDbLine
 10
-193.5712574088286
 20
515.4031346731876
 30
0.0
 11
-305.7759818182774
 21
418.2309929099726
 31
0.0
  0
LINE
  5
29552
330
2
100
AcDbEntity
  8
0
  6
Continuous
 62
     7
370
    25
100
AcDbLine
 10
-777.5562318096131
 20
633.2396239500002
 30
0.0
 11
-550.9532111056741
 21
567.8249664486945
 31
0.0
  0
LINE
  5
29553
330
2
100
AcDbEntity
  8
0
  6
Continuous
 62
     7
370
    25
100
AcDbLine
 10
-777.5562318096131
 20
633.2396239500002
 30
0.0
 11
-837.3987514946307
 21
581.4144816762855
 31
0.0
  0
LINE
  5
29554
330
2
100
AcDbEntity
  8
0
  6
Continuous
 62
     7
370
    25
100
AcDbLine
 10
-193.5712574088286
 20
515.4031346731876
 30
0.0
 11
-195.7234893955453
 21
516.0244305316296
 31
0.0
  0
LINE
  5
29555
330
2
100
AcDbEntity
  8
0
  6
Continuous
 62
     7
370
    25
100
AcDbLine
 10
-777.5562318096131
 20
633.2396239500002
 30
0.0
 11
-779.2215264959406
 21
624.0031389413998
 31
0.0
  0
LINE
  5
29556
330
2
100
AcDbEntity
  8
0
  6
Continuous
 62
     7
370
    25
100
AcDbLine
 10
-779.2215264959406
 20
624.0031389413998
 30
0.0
 11
-545.3093644926488
 21
556.4785140917372
 31
0.0
  0
SPLINE
  5
29557
330
2
100
AcDbEntity
  8
0
  6
Continuous
 62
     7
370
    25
100
AcDbSpline
210
0.0
220
0.0
230
1.0
 70
     8
 71
     3
 72
    17
 73
    13
 74
     0
 42
0.00000001
 43
0.0000000001
 40
0.0
 40
0.0
 40
0.0
 40
0.0
 40
0.1053019008133275
 40
0.210574567451158
 40
0.3166767446859549
 40
0.424431752174167
 40
0.5335712967423824
 40
0.6432427546104381
 40
0.7524447892502082
 40
0.8604488779323929
 40
0.9670544277290382
 40
1.0
 40
1.0
 40
1.0
 40
1.0
 10
-839.0640461810018
 20
572.1779966676824
 30
0.0
 10
-838.7426706587193
 20
572.4975221123817
 30
0.0
 10
-838.1000088352891
 20
573.1364842943333
 30
0.0
 10
-837.1188469687409
 20
574.629302665982
 30
0.0
 10
-836.2624810888288
 20
576.3267488426777
 30
0.0
 10
-835.6182306741185
 20
578.1008823254359
 30
0.0
 10
-835.2688665759997
 20
579.7427831782142
 30
0.0
 10
-835.2619638009763
 20
581.056554546613
 30
0.0
 10
-835.5996299328424
 20
581.8785889321388
 30
0.0
 10
-836.2360853765745
 20
582.1069147688245
 30
0.0
 10
-836.8952850535363
 20
581.8275161666691
 30
0.0
 10
-837.3025931880317
 20
581.4933681599137
 30
0.0
 10
-837.3987514946307
 20
581.4144816762855
 30
0.0
  0
LINE
  5
29558
330
2
100
AcDbEntity
  8
0
  6
Continuous
 62
     7
370
    25
100
AcDbLine
 10
-779.2215264959406
 20
624.0031389413998
 30
0.0
 11
-839.0640461810018
 21
572.1779966676824
 31
0.0
  0
SPLINE
  5
29559
330
2
100
AcDbEntity
  8
0
  6
Continuous
 62
     7
370
    25
100
AcDbSpline
210
0.0
220
0.0
230
1.0
 70
     8
 71
     3
 72
    14
 73
    10
 74
     0
 42
0.00000001
 43
0.0000000001
 40
0.0
 40
0.0
 40
0.0
 40
0.0
 40
0.092554847483981
 40
0.264116845020977
 40
0.43673105380479
 40
0.6090529043602819
 40
0.7797955237798062
 40
0.9483862467399861
 40
0.9999999999999998
 40
0.9999999999999998
 40
0.9999999999999998
 40
0.9999999999999998
 10
-1010.146563054654
 20
631.2824794293313
 30
0.0
 10
-1010.029768000543
 20
631.0675912786428
 30
0.0
 10
-1009.696478691065
 20
630.4543810369749
 30
0.0
 10
-1009.452663156017
 20
628.9603040844426
 30
0.0
 10
-1009.450018772809
 20
627.0601361481221
 30
0.0
 10
-1009.79528842311
 20
625.1318228665414
 30
0.0
 10
-1010.431745204797
 20
623.4445697217927
 30
0.0
 10
-1011.090422153826
 20
622.4503898861314
 30
0.0
 10
-1011.497003470872
 20
622.0714369857367
 30
0.0
 10
-1011.592302113929
 20
621.9826141705346
 30
0.0
  0
LINE
  5
2955A
330
2
100
AcDbEntity
  8
0
  6
Continuous
 62
     7
370
    25
100
AcDbLine
 10
-839.0640461810018
 20
572.1779966676824
 30
0.0
 11
-884.094361215061
 21
585.1771289209879
 31
0.0
  0
SPLINE
  5
2955B
330
2
100
AcDbEntity
  8
0
  6
Continuous
 62
     7
370
    25
100
AcDbSpline
210
0.0
220
0.0
230
1.0
 70
     8
 71
     3
 72
    17
 73
    13
 74
     0
 42
0.00000001
 43
0.0000000001
 40
0.0
 40
0.0
 40
0.0
 40
0.0
 40
0.1536771788888393
 40
0.3079625197312999
 40
0.4619315298254343
 40
0.6308958315639789
 40
0.7508148044943509
 40
0.8142804268888243
 40
0.8775917612556094
 40
0.9284426580873997
 40
0.9714451281847335
 40
1.0
 40
1.0
 40
1.0
 40
1.0
 10
-328.6504324370601
 20
121.1558975192236
 30
0.0
 10
-327.1211627399043
 20
123.2107244274661
 30
0.0
 10
-324.0565714148926
 20
127.3285100144349
 30
0.0
 10
-319.4185319744895
 20
134.4638843920422
 30
0.0
 10
-314.6802043091868
 20
142.3241625651088
 30
0.0
 10
-310.3428996581227
 20
150.0669101822103
 30
0.0
 10
-306.8368812230215
 20
156.4776833271614
 30
0.0
 10
-304.3036399215418
 20
161.0376907527106
 30
0.0
 10
-302.3866316182706
 20
164.3321080948325
 30
0.0
 10
-300.5991912278196
 20
167.1441714916624
 30
0.0
 10
-299.1143066473592
 20
169.162758413238
 30
0.0
 10
-298.3146383302271
 20
169.9352804105041
 30
0.0
 10
-297.9955316434559
 20
170.2435543907395
 30
0.0
  0
SPLINE
  5
2955C
330
2
100
AcDbEntity
  8
0
  6
Continuous
 62
     7
370
    25
100
AcDbSpline
210
0.0
220
0.0
230
1.0
 70
     8
 71
     3
 72
     9
 73
     5
 74
     0
 42
0.00000001
 43
0.0000000001
 40
0.0
 40
0.0
 40
0.0
 40
0.0
 40
0.446573659677766
 40
1.0
 40
1.0
 40
1.0
 40
1.0
 10
-339.3254513895361
 20
109.8899396155584
 30
0.0
 10
-337.5985874974033
 20
111.4236998288035
 30
0.0
 10
-333.731669118468
 20
114.8582064997745
 30
0.0
 10
-330.4606825582981
 20
118.9122712828784
 30
0.0
 10
-328.6504324370601
 20
121.1558975192236
 30
0.0
  0
LINE
  5
2955D
330
2
100
AcDbEntity
  8
0
  6
Continuous
 62
     7
370
    25
100
AcDbLine
 10
-297.9955316434559
 20
170.2435543907395
 30
0.0
 11
-253.1136418796764
 21
209.1124110960255
 31
0.0
  0
SPLINE
  5
2955E
330
2
100
AcDbEntity
  8
0
  6
Continuous
 62
     7
370
    25
100
AcDbSpline
210
0.0
220
0.0
230
1.0
 70
     8
 71
     3
 72
    17
 73
    13
 74
     0
 42
0.00000001
 43
0.0000000001
 40
0.0
 40
0.0
 40
0.0
 40
0.0
 40
0.0391065691037912
 40
0.0887141783873953
 40
0.1362427021626276
 40
0.1839135196783058
 40
0.2892002076282439
 40
0.3950082878895978
 40
0.5007364387062823
 40
0.6671430081890336
 40
0.8339467791662528
 40
1.0
 40
1.0
 40
1.0
 40
1.0
 10
-253.1136418796764
 20
209.1124110960255
 30
0.0
 10
-252.7196993548094
 20
209.3927278614266
 30
0.0
 10
-251.8260314052685
 20
210.0286330840184
 30
0.0
 10
-251.0100871962499
 20
209.7670983454007
 30
0.0
 10
-250.4780796548185
 20
209.0181619005112
 30
0.0
 10
-250.0973869705489
 20
207.485569898734
 30
0.0
 10
-250.0354865409505
 20
205.0613230094231
 30
0.0
 10
-250.5349346738979
 20
201.6245413478774
 30
0.0
 10
-251.6488373108823
 20
197.2467245435174
 30
0.0
 10
-253.5995103172329
 20
192.0085962465432
 30
0.0
 10
-256.7445056648802
 20
185.8215391970096
 30
0.0
 10
-259.8021986519308
 20
181.5767776515849
 30
0.0
 10
-261.3275977912384
 20
179.4591825773295
 30
0.0
  0
SPLINE
  5
2955F
330
2
100
AcDbEntity
  8
0
  6
Continuous
 62
     7
370
    25
100
AcDbSpline
210
0.0
220
0.0
230
1.0
 70
     8
 71
     3
 72
     9
 73
     5
 74
     0
 42
0.00000001
 43
0.0000000001
 40
0.0
 40
0.0
 40
0.0
 40
0.0
 40
0.5867259772410013
 40
1.0
 40
1.0
 40
1.0
 40
1.0
 10
-261.3275977912384
 20
179.4591825773295
 30
0.0
 10
-263.2455119535943
 20
177.0783657646196
 30
0.0
 10
-266.5143533492867
 20
173.0205655221535
 30
0.0
 10
-270.4167382823024
 20
169.6266367773302
 30
0.0
 10
-272.0294926019274
 20
168.2240141919969
 30
0.0
  0
LINE
  5
29560
330
2
100
AcDbEntity
  8
0
  6
Continuous
 62
     7
370
    25
100
AcDbLine
 10
-893.81157539138
 20
587.9822470312269
 30
0.0
 11
-1011.592302113929
 21
621.9826141705346
 31
0.0
  0
LINE
  5
29561
330
2
100
AcDbEntity
  8
0
  6
Continuous
 62
     7
370
    25
100
AcDbLine
 10
-893.81157539138
 20
587.9822470312269
 30
0.0
 11
-893.81157539138
 21
429.2096786798608
 31
0.0
  0
LINE
  5
29562
330
2
100
AcDbEntity
  8
0
  6
Continuous
 62
     7
370
    25
100
AcDbLine
 10
-930.2278206096373
 20
397.6722852104076
 30
0.0
 11
-1006.051683353978
 21
419.5607489936298
 31
0.0
  0
SPLINE
  5
29563
330
2
100
AcDbEntity
  8
0
  6
Continuous
 62
     7
370
    25
100
AcDbSpline
210
0.0
220
0.0
230
1.0
 70
     8
 71
     3
 72
    18
 73
    14
 74
     0
 42
0.00000001
 43
0.0000000001
 40
0.0
 40
0.0
 40
0.0
 40
0.0
 40
0.1011441541223933
 40
0.201301671958698
 40
0.299386940445796
 40
0.3944212177338918
 40
0.4859965641830886
 40
0.5758946704831604
 40
0.6634693983598205
 40
0.7492519659614631
 40
0.8336860641540724
 40
0.91715265426631
 40
1.0
 40
1.0
 40
1.0
 40
1.0
 10
-1006.051683353978
 20
419.5607489936298
 30
0.0
 10
-1005.0998914573
 20
426.035579846486
 30
0.0
 10
-1003.205592159192
 20
438.9220811736121
 30
0.0
 10
-1000.795840276827
 20
458.2602783357729
 30
0.0
 10
-999.0022060219324
 20
477.4292628104107
 30
0.0
 10
-998.090861597466
 20
496.3393164119323
 30
0.0
 10
-998.2519513725497
 20
515.0286113797199
 30
0.0
 10
-999.3006221430942
 20
533.4387953421976
 30
0.0
 10
-1001.07223036354
 20
551.6070147702533
 30
0.0
 10
-1003.375730042106
 20
569.4937532742735
 30
0.0
 10
-1006.021495136876
 20
587.1485123810601
 30
0.0
 10
-1008.843351618348
 20
604.6242150310021
 30
0.0
 10
-1010.67826261844
 20
616.210861489783
 30
0.0
 10
-1011.592302113929
 20
621.9826141705346
 30
0.0
  0
LINE
  5
29564
330
2
100
AcDbEntity
  8
0
  6
Continuous
 62
     7
370
    25
100
AcDbLine
 10
-305.7759818182774
 20
418.2309929099726
 30
0.0
 11
-281.4934625190226
 21
439.260271491022
 31
0.0
  0
LINE
  5
29565
330
2
100
AcDbEntity
  8
0
  6
Continuous
 62
     7
370
    25
100
AcDbLine
 10
-283.3034329475434
 20
427.3555083468408
 30
0.0
 11
-281.4934625190226
 21
439.260271491022
 31
0.0
  0
SPLINE
  5
29566
330
2
100
AcDbEntity
  8
0
  6
Continuous
 62
     7
370
    25
100
AcDbSpline
210
0.0
220
0.0
230
1.0
 70
     8
 71
     3
 72
    17
 73
    13
 74
     0
 42
0.00000001
 43
0.0000000001
 40
0.0
 40
0.0
 40
0.0
 40
0.0
 40
0.0105476141809529
 40
0.1223057243938468
 40
0.2334103300798914
 40
0.3437001823812356
 40
0.4531674363069384
 40
0.5622410446268866
 40
0.6697611152021227
 40
0.7782643996361103
 40
0.8882029839238414
 40
1.0
 40
1.0
 40
1.0
 40
1.0
 10
-299.6847007560349
 20
243.6357420335353
 30
0.0
 10
-299.6859716015146
 20
244.3031382755906
 30
0.0
 10
-299.7007077944941
 20
252.0419860796776
 30
0.0
 10
-299.9360106068202
 20
266.8695153514328
 30
0.0
 10
-300.3115040000243
 20
288.042950523029
 30
0.0
 10
-300.2700723866798
 20
308.9575336005038
 30
0.0
 10
-299.3097675392554
 20
329.4651544903754
 30
0.0
 10
-297.0567699496573
 20
349.3224305498158
 30
0.0
 10
-293.9630767891855
 20
368.7571008776592
 30
0.0
 10
-290.4009853500664
 20
388.0329951608432
 30
0.0
 10
-286.6537515849977
 20
407.4972371166129
 30
0.0
 10
-284.4264284451643
 20
420.6992014115062
 30
0.0
 10
-283.3034329475434
 20
427.3555083468408
 30
0.0
  0
LINE
  5
29567
330
2
100
AcDbEntity
  8
0
  6
Continuous
 62
     7
370
    25
100
AcDbLine
 10
-323.9209212284714
 20
222.6465594126814
 30
0.0
 11
-299.6847007560349
 21
243.6357420335353
 31
0.0
  0
SPLINE
  5
29568
330
2
100
AcDbEntity
  8
0
  6
Continuous
 62
     7
370
    25
100
AcDbSpline
210
0.0
220
0.0
230
1.0
 70
     8
 71
     3
 72
    18
 73
    14
 74
     0
 42
0.00000001
 43
0.0000000001
 40
0.0
 40
0.0
 40
0.0
 40
0.0
 40
0.1148271340197922
 40
0.2273528191017164
 40
0.3381086394836179
 40
0.4476080919090839
 40
0.5564946384163463
 40
0.6421983711714818
 40
0.7284004421923342
 40
0.8151615707842598
 40
0.9024286433743304
 40
0.9901043323173384
 40
1.0
 40
1.0
 40
1.0
 40
1.0
 10
-305.7759818182774
 20
418.2309929099726
 30
0.0
 10
-306.8811180248197
 20
410.8886500561476
 30
0.0
 10
-309.069240494273
 20
396.3511249243251
 30
0.0
 10
-313.0972582139373
 20
375.0795653427587
 30
0.0
 10
-317.0635313536334
 20
354.1469116172356
 30
0.0
 10
-320.5992727949539
 20
333.2626290656585
 30
0.0
 10
-323.0621622298906
 20
313.6140197775961
 30
0.0
 10
-324.2555982153658
 20
295.0608196880722
 30
0.0
 10
-324.5733513336059
 20
277.7160263579367
 30
0.0
 10
-324.435515607596
 20
260.1348645854948
 30
0.0
 10
-324.1080262924603
 20
242.4030467327833
 30
0.0
 10
-323.9347046594549
 20
229.8944791359165
 30
0.0
 10
-323.9221904201489
 20
223.3139548805777
 30
0.0
 10
-323.9209212284714
 20
222.6465594126814
 30
0.0
  0
LINE
  5
29569
330
2
100
AcDbEntity
  8
0
  6
Continuous
 62
     7
370
    25
100
AcDbLine
 10
-323.9209212284714
 20
222.6465594126814
 30
0.0
 11
-472.7322944174646
 21
265.6047026103491
 31
0.0
  0
LINE
  5
2956A
330
2
100
AcDbEntity
  8
0
  6
Continuous
 62
     7
370
    25
100
AcDbLine
 10
-472.7322944174646
 20
466.4271289209906
 30
0.0
 11
-472.7322944174646
 21
265.6047026103491
 31
0.0
  0
LINE
  5
2956B
330
2
100
AcDbEntity
  8
0
  6
Continuous
 62
     7
370
    25
100
AcDbLine
 10
-305.7759818182774
 20
418.2309929099726
 30
0.0
 11
-472.7322944174646
 21
466.4271289209906
 31
0.0
  0
LINE
  5
2956C
330
2
100
AcDbEntity
  8
0
  6
Continuous
 62
     7
370
    25
100
AcDbLine
 10
-189.980706227735
 20
518.5126432096065
 30
0.0
 11
-195.1898511768161
 21
520.0163938289108
 31
0.0
  0
LINE
  5
2956D
330
2
100
AcDbEntity
  8
0
  6
Continuous
 62
     7
370
    25
100
AcDbLine
 10
-214.2632255269898
 20
497.4833646285573
 30
0.0
 11
-189.980706227735
 21
518.5126432096065
 31
0.0
  0
LINE
  5
2956E
330
2
100
AcDbEntity
  8
0
  6
Continuous
 62
     7
370
    25
100
AcDbLine
 10
-215.9805983018742
 20
485.6587934047698
 30
0.0
 11
-214.2632255269898
 21
497.4833646285573
 31
0.0
  0
SPLINE
  5
2956F
330
2
100
AcDbEntity
  8
0
  6
Continuous
 62
     7
370
    25
100
AcDbSpline
210
0.0
220
0.0
230
1.0
 70
     8
 71
     3
 72
    18
 73
    14
 74
     0
 42
0.00000001
 43
0.0000000001
 40
0.0
 40
0.0
 40
0.0
 40
0.0
 40
0.1148271340272307
 40
0.2273528191164446
 40
0.3381086395055213
 40
0.4476080919380804
 40
0.5564946384523962
 40
0.6421983712130846
 40
0.7284004422395208
 40
0.8151615708370671
 40
0.9024286434327905
 40
0.9901043323814786
 40
1.0
 40
1.0
 40
1.0
 40
1.0
 10
-189.980706227735
 20
518.5126432096065
 30
0.0
 10
-191.0858424342772
 20
511.1703003557869
 30
0.0
 10
-193.2739649037087
 20
496.6327752239616
 30
0.0
 10
-197.3019826233947
 20
475.3612156423979
 30
0.0
 10
-201.2682557630691
 20
454.4285619168694
 30
0.0
 10
-204.8039972044114
 20
433.5442793652978
 30
0.0
 10
-207.2668866393482
 20
413.89567007723
 30
0.0
 10
-208.4603226248016
 20
395.3424699877115
 30
0.0
 10
-208.7780757430635
 20
377.9976766575706
 30
0.0
 10
-208.6402400170535
 20
360.4165148851314
 30
0.0
 10
-208.3127507019178
 20
342.6846970324199
 30
0.0
 10
-208.1394290689777
 20
330.1761294399426
 30
0.0
 10
-208.1269148296065
 20
323.5956051889496
 30
0.0
 10
-208.1256456379508
 20
322.9282097254212
 30
0.0
  0
SPLINE
  5
29570
330
2
100
AcDbEntity
  8
0
  6
Continuous
 62
     7
370
    25
100
AcDbSpline
210
0.0
220
0.0
230
1.0
 70
     8
 71
     3
 72
    17
 73
    13
 74
     0
 42
0.00000001
 43
0.0000000001
 40
0.0
 40
0.0
 40
0.0
 40
0.0
 40
0.0105476141126315
 40
0.1223057243332422
 40
0.2334103300269591
 40
0.3437001823359189
 40
0.4531674362691807
 40
0.5622410445966592
 40
0.6697611151793207
 40
0.7782643996207998
 40
0.8882029839161226
 40
1.0
 40
1.0
 40
1.0
 40
1.0
 10
-232.3618661103874
 20
301.9390271045675
 30
0.0
 10
-232.3631369558453
 20
302.6064233422605
 30
0.0
 10
-232.3778731489118
 20
310.3452711419988
 30
0.0
 10
-232.613175961129
 20
325.1728004093619
 30
0.0
 10
-232.9886693543551
 20
346.346235580958
 30
0.0
 10
-232.9472377410104
 20
367.2608186584301
 30
0.0
 10
-231.9869328935861
 20
387.7684395483016
 30
0.0
 10
-229.7339353039881
 20
407.6257156077447
 30
0.0
 10
-226.6402421435162
 20
427.0603859355855
 30
0.0
 10
-223.0781507043971
 20
446.3362802187721
 30
0.0
 10
-219.3309169393284
 20
465.8005221745419
 30
0.0
 10
-217.103593799495
 20
479.0024864694379
 30
0.0
 10
-215.9805983018742
 20
485.6587934047698
 30
0.0
  0
LINE
  5
29571
330
2
100
AcDbEntity
  8
0
  6
Continuous
 62
     7
370
    25
100
AcDbLine
 10
-232.3618661103874
 20
301.9390271045675
 30
0.0
 11
-208.1256456379508
 21
322.9282097254212
 31
0.0
  0
LINE
  5
29572
330
2
100
AcDbEntity
  8
0
  6
Continuous
 62
     7
370
    25
100
AcDbLine
 10
-683.2719349044005
 20
142.2971404924353
 30
0.0
 11
-683.2719349044005
 21
149.9943043719799
 31
0.0
  0
SPLINE
  5
29573
330
2
100
AcDbEntity
  8
0
  6
Continuous
 62
     7
370
    25
100
AcDbSpline
210
0.0
220
0.0
230
1.0
 70
     8
 71
     3
 72
    11
 73
     7
 74
     0
 42
0.00000001
 43
0.0000000001
 40
0.0
 40
0.0
 40
0.0
 40
0.0
 40
0.0863615867470688
 40
0.4882020484245598
 40
0.8905721641784891
 40
1.0
 40
1.0
 40
1.0
 40
1.0
 10
-686.8760691908765
 20
146.8730325212658
 30
0.0
 10
-686.7410428120674
 20
146.8581689982135
 30
0.0
 10
-685.9777386951483
 20
146.7741455026368
 30
0.0
 10
-684.7611751491168
 20
146.2950297752547
 30
0.0
 10
-683.6463535665988
 20
145.7189436367941
 30
0.0
 10
-683.3378880968346
 20
145.3051532440841
 30
0.0
 10
-683.2719349044005
 20
145.2166804648988
 30
0.0
  0
LINE
  5
29574
330
2
100
AcDbEntity
  8
0
  6
Continuous
 62
     7
370
    25
100
AcDbLine
 10
-938.643174940346
 20
390.3843745781631
 30
0.0
 11
-1007.459096705931
 21
410.2498200561095
 31
0.0
  0
SPLINE
  5
29575
330
2
100
AcDbEntity
  8
0
  6
Continuous
 62
     7
370
    25
100
AcDbSpline
210
0.0
220
0.0
230
1.0
 70
     8
 71
     3
 72
    26
 73
    22
 74
     0
 42
0.00000001
 43
0.0000000001
 40
0.0
 40
0.0
 40
0.0
 40
0.0
 40
0.0033248839490109
 40
0.0467882327469632
 40
0.0879026780932351
 40
0.1268203589821729
 40
0.1638724419042481
 40
0.1996134461607357
 40
0.2360163835363326
 40
0.2728471942672582
 40
0.3108843443684096
 40
0.3506869148081209
 40
0.3926119224109246
 40
0.4368495060774712
 40
0.4834605266028064
 40
0.5513416400157278
 40
0.6233327196945969
 40
0.6989631167135398
 40
0.7776540961665665
 40
0.8874836557745206
 40
1.0
 40
1.0
 40
1.0
 40
1.0
 10
-959.6141580048529
 20
219.418637598571
 30
0.0
 10
-959.8434809473008
 20
219.5133247762263
 30
0.0
 10
-963.0705455215659
 20
220.8457760058534
 30
0.0
 10
-969.0425576006971
 20
223.9352768380176
 30
0.0
 10
-977.3057817684144
 20
228.6554645610393
 30
0.0
 10
-984.8634247471375
 20
233.9078619816727
 30
0.0
 10
-991.6686523096123
 20
239.6550792154196
 30
0.0
 10
-997.7125219563822
 20
246.0423868975362
 30
0.0
 10
-1002.892805145834
 20
253.1106528784701
 30
0.0
 10
-1007.216142366879
 20
260.8049682526834
 30
0.0
 10
-1010.691662067564
 20
269.0050724445827
 30
0.0
 10
-1013.389956586751
 20
277.6756059201289
 30
0.0
 10
-1015.37907224106
 20
286.7875829618563
 30
0.0
 10
-1016.723732769505
 20
296.3134460040217
 30
0.0
 10
-1017.588286470631
 20
307.5671692289071
 30
0.0
 10
-1017.752779779169
 20
320.5838936853955
 30
0.0
 10
-1017.103118524426
 20
335.3646185445261
 30
0.0
 10
-1015.774303582652
 20
350.6562937212581
 30
0.0
 10
-1013.691058717061
 20
368.2960395571583
 30
0.0
 10
-1010.843222838796
 20
388.2018991799898
 30
0.0
 10
-1008.596189654083
 20
402.8415455517919
 30
0.0
 10
-1007.459096705931
 20
410.2498200561095
 30
0.0
  0
SPLINE
  5
29576
330
2
100
AcDbEntity
  8
0
  6
Continuous
 62
     7
370
    25
100
AcDbSpline
210
0.0
220
0.0
230
1.0
 70
     8
 71
     3
 72
    14
 73
    10
 74
     0
 42
0.00000001
 43
0.0000000001
 40
0.0
 40
0.0
 40
0.0
 40
0.0
 40
0.0933341994193295
 40
0.2646886942803833
 40
0.4368710204389611
 40
0.6087383835411142
 40
0.7792632590259345
 40
0.9480279814361232
 40
1.0
 40
1.0
 40
1.0
 40
1.0
 10
-1003.94241724157
 20
418.9518563147279
 30
0.0
 10
-1003.90594608817
 20
418.7582280955367
 30
0.0
 10
-1003.802516669639
 20
418.2091131855437
 30
0.0
 10
-1003.996760123385
 20
416.8389300643404
 30
0.0
 10
-1004.484238455389
 20
415.08195239816
 30
0.0
 10
-1005.249562536063
 20
413.2788165917527
 30
0.0
 10
-1006.179104767392
 20
411.6788634475037
 30
0.0
 10
-1006.947548837827
 20
410.71620891564
 30
0.0
 10
-1007.36160744545
 20
410.338703048011
 30
0.0
 10
-1007.459096705931
 20
410.2498200561095
 30
0.0
  0
SPLINE
  5
29578
330
2
100
AcDbEntity
  8
0
  6
Continuous
 62
     7
370
    25
100
AcDbSpline
210
0.0
220
0.0
230
1.0
 70
     8
 71
     3
 72
    17
 73
    13
 74
     0
 42
0.00000001
 43
0.0000000001
 40
0.0
 40
0.0
 40
0.0
 40
0.0
 40
0.1073653661506922
 40
0.2147305301477822
 40
0.3221011661692379
 40
0.429478376514476
 40
0.5368553329705437
 40
0.6442279141736666
 40
0.751597683688819
 40
0.8589676682601721
 40
0.9663386522397557
 40
1.0
 40
1.0
 40
1.0
 40
1.0
 10
-323.9762676629415
 20
212.9453223740298
 30
0.0
 10
-323.6601302649564
 20
213.271982305087
 30
0.0
 10
-323.027856064259
 20
213.9253015521578
 30
0.0
 10
-322.1777715020234
 20
215.486790779322
 30
0.0
 10
-321.5262711415891
 20
217.2690141178315
 30
0.0
 10
-321.1482756406756
 20
219.1213605313326
 30
0.0
 10
-321.0879771340517
 20
220.8221346704374
 30
0.0
 10
-321.3520605664386
 20
222.1826819293127
 30
0.0
 10
-321.9097563496247
 20
223.0498280621099
 30
0.0
 10
-322.6954119175266
 20
223.319893849748
 30
0.0
 10
-323.4101141781518
 20
223.0601087003993
 30
0.0
 10
-323.8224949213066
 20
222.7262453316547
 30
0.0
 10
-323.9209212284714
 20
222.6465594126814
 30
0.0
  0
LINE
  5
29579
330
2
100
AcDbEntity
  8
0
  6
Continuous
 62
     7
370
    25
100
AcDbLine
 10
-323.9762676629415
 20
212.9453223740298
 30
0.0
 11
-615.587591638079
 21
297.1262605782587
 31
0.0
  0
LINE
  5
2957A
330
2
100
AcDbEntity
  8
0
  6
Continuous
 62
     7
370
    25
100
AcDbLine
 10
-211.7161968190444
 20
319.8187011889996
 30
0.0
 11
-323.9209212284714
 21
222.6465594126814
 31
0.0
  0
SPLINE
  5
2957B
330
2
100
AcDbEntity
  8
0
  6
Continuous
 62
     7
370
    25
100
AcDbSpline
210
0.0
220
0.0
230
1.0
 70
     8
 71
     3
 72
    17
 73
    13
 74
     0
 42
0.00000001
 43
0.0000000001
 40
0.0
 40
0.0
 40
0.0
 40
0.0
 40
0.1073653659993263
 40
0.214730530009163
 40
0.3221011660433716
 40
0.429478376401351
 40
0.5368553328701591
 40
0.6442279140860297
 40
0.7515976836139352
 40
0.8589676681980355
 40
0.9663386521903644
 40
1.0
 40
1.0
 40
1.0
 40
1.0
 10
-211.7715432532967
 20
310.117464152038
 30
0.0
 10
-212.0862319627029
 20
309.8978126426866
 30
0.0
 10
-212.7156087894425
 20
309.4585100372249
 30
0.0
 10
-213.5446589967313
 20
309.5658259021158
 30
0.0
 10
-214.1696962428635
 20
310.2425352431105
 30
0.0
 10
-214.5217117213639
 20
311.462673603789
 30
0.0
 10
-214.5624831639984
 20
313.0759185990686
 30
0.0
 10
-214.2874250671206
 20
314.9033761189797
 30
0.0
 10
-213.7261008844045
 20
316.7396219679613
 30
0.0
 10
-212.9408454848329
 20
318.3701365665484
 30
0.0
 10
-212.2269430685919
 20
319.3475593420694
 30
0.0
 10
-211.8146114107409
 20
319.7279178841178
 30
0.0
 10
-211.7161968190444
 20
319.8187011889996
 30
0.0
  0
LINE
  5
2957C
330
2
100
AcDbEntity
  8
0
  6
Continuous
 62
     7
370
    25
100
AcDbLine
 10
-211.7715432532967
 20
310.117464152038
 30
0.0
 11
-323.9762676629415
 21
212.9453223740298
 31
0.0
  0
LINE
  5
2957D
330
2
100
AcDbEntity
  8
0
  6
Continuous
 62
     7
370
    25
100
AcDbLine
 10
-211.7715432532967
 20
310.117464152038
 30
0.0
 11
-214.2704573789658
 21
310.8388385236097
 31
0.0
  0
LINE
  5
2957E
330
2
100
AcDbEntity
  8
0
  6
Continuous
 62
     7
370
    25
100
AcDbLine
 10
-323.9762676629415
 20
212.9453223888801
 30
0.0
 11
-208.180992072399
 21
313.2269726736664
 31
0.0
  0
SPLINE
  5
2957F
330
2
100
AcDbEntity
  8
0
  6
Continuous
 62
     7
370
    25
100
AcDbSpline
210
0.0
220
0.0
230
1.0
 70
     8
 71
     3
 72
    18
 73
    14
 74
     0
 42
0.00000001
 43
0.0000000001
 40
0.0
 40
0.0
 40
0.0
 40
0.0
 40
0.0949769663223602
 40
0.1902637098389678
 40
0.2859894275821182
 40
0.3823873649508827
 40
0.4798115329640337
 40
0.576526052183752
 40
0.6734237233578206
 40
0.7696785633989994
 40
0.8646587464839967
 40
0.9392237536765298
 40
1.0
 40
1.0
 40
1.0
 40
1.0
 10
-208.180992072399
 20
313.2269726736664
 30
0.0
 10
-208.2721726804965
 20
308.6949336584325
 30
0.0
 10
-208.4548312917
 20
299.616073914206
 30
0.0
 10
-209.2586215028443
 20
286.1400057502633
 30
0.0
 10
-210.6092614562637
 20
272.7959541869829
 30
0.0
 10
-212.6614371807567
 20
259.6352097056644
 30
0.0
 10
-215.5141055013704
 20
246.7987596619184
 30
0.0
 10
-219.2383257167
 20
234.3987295258759
 30
0.0
 10
-223.8604262549919
 20
222.5974264159049
 30
0.0
 10
-229.4320325909666
 20
211.5279230119454
 30
0.0
 10
-235.5995190353937
 20
202.1245424572038
 30
0.0
 10
-241.7032853731858
 20
194.6409895087791
 30
0.0
 10
-245.8917928834122
 20
190.8786063559104
 30
0.0
 10
-247.7726810646493
 20
189.1890732732659
 30
0.0
  0
SPLINE
  5
29580
330
2
100
AcDbEntity
  8
0
  6
Continuous
 62
     7
370
    25
100
AcDbSpline
210
0.0
220
0.0
230
1.0
 70
     8
 71
     3
 72
    36
 73
    32
 74
     0
 42
0.00000001
 43
0.0000000001
 40
0.0
 40
0.0
 40
0.0
 40
0.0
 40
0.0287901562851555
 40
0.0576742146413139
 40
0.0866913382771288
 40
0.1159122303509683
 40
0.1454442014345662
 40
0.1747610582599272
 40
0.2041334335294344
 40
0.2333109488292609
 40
0.2621020802046256
 40
0.284704804774032
 40
0.3069806548464839
 40
0.3289735008556966
 40
0.3507909145227378
 40
0.3726223974016461
 40
0.3946540804762081
 40
0.4169895677563483
 40
0.4419418311897764
 40
0.4672524619064013
 40
0.4928106166414798
 40
0.5184565584651386
 40
0.5440032896124077
 40
0.5974457620666183
 40
0.6500961504763009
 40
0.7019997363147446
 40
0.7531830654113906
 40
0.8036613753312121
 40
0.8690099289250696
 40
0.9342101804820801
 40
0.9999999999999998
 40
0.9999999999999998
 40
0.9999999999999998
 40
0.9999999999999998
 10
-323.9762676629415
 20
212.9453223888801
 30
0.0
 10
-324.0674481039933
 20
208.4132831830229
 30
0.0
 10
-324.2501063804959
 20
199.3344230569323
 30
0.0
 10
-325.0538991085807
 20
185.8583577577587
 30
0.0
 10
-326.404529424686
 20
172.5142952185455
 30
0.0
 10
-328.4567415681185
 20
159.3535922081663
 30
0.0
 10
-331.3092726982105
 20
146.5169859359057
 30
0.0
 10
-335.0340027253784
 20
134.1175363508122
 30
0.0
 10
-339.654204451396
 20
122.3140709497927
 30
0.0
 10
-345.2328239834384
 20
111.2525538822636
 30
0.0
 10
-351.3763486378802
 20
101.8218866277442
 30
0.0
 10
-357.8877046645743
 20
94.00591643899884
 30
0.0
 10
-364.5621778289264
 20
87.69164235137717
 30
0.0
 10
-371.9378538742387
 20
82.36948300619795
 30
0.0
 10
-380.0507136374977
 20
78.17530321393874
 30
0.0
 10
-388.8675659311344
 20
75.16473738106004
 30
0.0
 10
-398.2609837436474
 20
73.19049118276042
 30
0.0
 10
-408.4769462199695
 20
72.09346227912324
 30
0.0
 10
-419.4618789479527
 20
71.84184950241243
 30
0.0
 10
-431.132780651667
 20
72.36682886341398
 30
0.0
 10
-443.0341056817649
 20
73.51125174230398
 30
0.0
 10
-455.0461113980506
 20
75.11743446875482
 30
0.0
 10
-471.4756247545428
 20
77.70718736015409
 30
0.0
 10
-492.2202044741874
 20
81.5894981915007
 30
0.0
 10
-517.1955191170742
 20
87.23009573063956
 30
0.0
 10
-541.8521768854787
 20
93.67106001780156
 30
0.0
 10
-566.1731312950198
 20
100.8101829811502
 30
0.0
 10
-592.6069815736117
 20
109.3548915176459
 30
0.0
 10
-621.2201149867174
 20
119.4075900660096
 30
0.0
 10
-652.2097052856488
 20
130.8587907306225
 30
0.0
 10
-672.8868367407492
 20
138.4729338413127
 30
0.0
 10
-683.2719349044005
 20
142.2971404924353
 30
0.0
  0
SPLINE
  5
29581
330
2
100
AcDbEntity
  8
0
  6
Continuous
 62
     7
370
    25
100
AcDbSpline
210
0.0
220
0.0
230
1.0
 70
     8
 71
     3
 72
    17
 73
    13
 74
     0
 42
0.00000001
 43
0.0000000001
 40
0.0
 40
0.0
 40
0.0
 40
0.0
 40
0.15367717888884
 40
0.3079625197313004
 40
0.4619315298254362
 40
0.6308958315639816
 40
0.7508148044943553
 40
0.8142804268888257
 40
0.8775917612556096
 40
0.9284426580873955
 40
0.9714451281847294
 40
1.0
 40
1.0
 40
1.0
 40
1.0
 10
-328.6504324370601
 20
121.1558975192236
 30
0.0
 10
-327.1211627399043
 20
123.2107244274661
 30
0.0
 10
-324.0565714148926
 20
127.3285100144349
 30
0.0
 10
-319.4185319744895
 20
134.4638843920422
 30
0.0
 10
-314.6802043091868
 20
142.3241625651088
 30
0.0
 10
-310.3428996581227
 20
150.0669101822076
 30
0.0
 10
-306.8368812230215
 20
156.4776833271614
 30
0.0
 10
-304.3036399215418
 20
161.0376907527106
 30
0.0
 10
-302.3866316182706
 20
164.3321080948325
 30
0.0
 10
-300.5991912278196
 20
167.1441714916624
 30
0.0
 10
-299.1143066473592
 20
169.1627584132353
 30
0.0
 10
-298.3146383302271
 20
169.9352804105041
 30
0.0
 10
-297.9955316434559
 20
170.2435543907395
 30
0.0
  0
SPLINE
  5
29582
330
2
100
AcDbEntity
  8
0
  6
Continuous
 62
     7
370
    25
100
AcDbSpline
210
0.0
220
0.0
230
1.0
 70
     8
 71
     3
 72
     9
 73
     5
 74
     0
 42
0.00000001
 43
0.0000000001
 40
0.0
 40
0.0
 40
0.0
 40
0.0
 40
0.4465736596777635
 40
1.0
 40
1.0
 40
1.0
 40
1.0
 10
-339.3254513895361
 20
109.8899396155584
 30
0.0
 10
-337.5985874974033
 20
111.4236998288035
 30
0.0
 10
-333.731669118468
 20
114.8582064997745
 30
0.0
 10
-330.4606825582981
 20
118.9122712828784
 30
0.0
 10
-328.6504324370601
 20
121.1558975192236
 30
0.0
  0
SPLINE
  5
29583
330
2
100
AcDbEntity
  8
0
  6
Continuous
 62
     7
370
    25
100
AcDbSpline
210
0.0
220
0.0
230
1.0
 70
     8
 71
     3
 72
     9
 73
     5
 74
     0
 42
0.00000001
 43
0.0000000001
 40
0.0
 40
0.0
 40
0.0
 40
0.0
 40
0.4465736596843218
 40
1.0
 40
1.0
 40
1.0
 40
1.0
 10
-272.0026167438667
 20
168.1932246734819
 30
0.0
 10
-270.2757528516687
 20
169.7269848867733
 30
0.0
 10
-266.4088344726897
 20
173.1614915578042
 30
0.0
 10
-263.1378479124764
 20
177.2155563409788
 30
0.0
 10
-261.3275977912384
 20
179.4591825773295
 30
0.0
  0
SPLINE
  5
29584
330
2
100
AcDbEntity
  8
0
  6
Continuous
 62
     7
370
    25
100
AcDbSpline
210
0.0
220
0.0
230
1.0
 70
     8
 71
     3
 72
    17
 73
    13
 74
     0
 42
0.00000001
 43
0.0000000001
 40
0.0
 40
0.0
 40
0.0
 40
0.0
 40
0.1536771788849061
 40
0.3079625197280834
 40
0.4619315298229349
 40
0.630895831562269
 40
0.7508148044932029
 40
0.8142804268879709
 40
0.8775917612550514
 40
0.9284426580870727
 40
0.9714451281846056
 40
1.0
 40
1.0
 40
1.0
 40
1.0
 10
-261.3275977912384
 20
179.4591825773295
 30
0.0
 10
-259.9084388448994
 20
181.4186507781497
 30
0.0
 10
-257.0645047736062
 20
185.3453415778464
 30
0.0
 10
-254.0438228250654
 20
191.0800432804565
 30
0.0
 10
-251.7391213070806
 20
196.8327393866512
 30
0.0
 10
-250.4243940654245
 20
201.9578581822943
 30
0.0
 10
-250.043417587535
 20
205.6622656043952
 30
0.0
 10
-250.1692806989278
 20
207.9194210570697
 30
0.0
 10
-250.5479268847605
 20
209.2257432933407
 30
0.0
 10
-251.2213472985136
 20
209.9066387185354
 30
0.0
 10
-252.0879467302503
 20
209.8887807489666
 30
0.0
 10
-252.8210842343657
 20
209.3338539659347
 30
0.0
 10
-253.1136418796764
 20
209.1124110960228
 30
0.0
  0
LINE
  5
29585
330
2
100
AcDbEntity
  8
0
  6
Continuous
 62
     7
370
    25
100
AcDbLine
 10
-208.180992072399
 20
313.2269726736664
 30
0.0
 11
-214.2197160902364
 21
314.9702021571527
 31
0.0
  0
LINE
  5
29586
330
2
100
AcDbEntity
  8
0
  6
Continuous
 62
     7
370
    25
100
AcDbLine
 10
-652.9891664412287
 20
467.0764496449621
 30
0.0
 11
-615.587591638079
 21
499.4671635660338
 31
0.0
  0
LINE
  5
29587
330
2
100
AcDbEntity
  8
0
  6
Continuous
 62
     7
370
    25
100
AcDbLine
 10
-655.7099864105961
 20
467.8618827158304
 30
0.0
 11
-652.9891664412287
 21
467.0764496449621
 31
0.0
  0
LINE
  5
29588
330
2
100
AcDbEntity
  8
0
  6
Continuous
 62
     7
370
    25
100
AcDbLine
 10
-655.7099864105961
 20
467.8618827158304
 30
0.0
 11
-618.3084116074466
 21
500.2525966369021
 31
0.0
  0
LINE
  5
29589
330
2
100
AcDbEntity
  8
0
  6
Continuous
 62
     7
370
    25
100
AcDbLine
 10
-618.3084116074466
 20
500.2525966369021
 30
0.0
 11
-615.587591638079
 21
499.4671635660338
 31
0.0
  0
LINE
  5
2958A
330
2
100
AcDbEntity
  8
0
  6
Continuous
 62
     7
370
    25
100
AcDbLine
 10
-652.9891664412287
 20
168.4340672926857
 30
0.0
 11
-652.9891664412287
 21
467.0764496449621
 31
0.0
  0
LINE
  5
2958B
330
2
100
AcDbEntity
  8
0
  6
Continuous
 62
     7
370
    25
100
AcDbLine
 10
-655.7099864105961
 20
169.2195003635513
 30
0.0
 11
-652.9891664412287
 21
168.4340672926857
 31
0.0
  0
LINE
  5
2958C
330
2
100
AcDbEntity
  8
0
  6
Continuous
 62
     7
370
    25
100
AcDbLine
 10
-655.7099864105961
 20
169.2195003635513
 30
0.0
 11
-655.7099864105961
 21
467.8618827158304
 31
0.0
  0
LINE
  5
2958D
330
2
100
AcDbEntity
  8
0
  6
Continuous
 62
     7
370
    25
100
AcDbLine
 10
-652.9891664412287
 20
168.4340672926857
 30
0.0
 11
-615.587591638079
 21
200.8247812137574
 31
0.0
  0
LINE
  5
2958E
330
2
100
AcDbEntity
  8
0
  6
Continuous
 62
     7
370
    25
100
AcDbLine
 10
-615.587591638079
 20
200.8247812137574
 30
0.0
 11
-615.587591638079
 21
499.4671635660338
 31
0.0
  0
LINE
  5
2958F
330
2
100
AcDbEntity
  8
0
  6
Continuous
 62
     7
370
    25
100
AcDbLine
 10
-801.4681990553995
 20
509.9386543693738
 30
0.0
 11
-764.0666242522718
 21
542.3293682904454
 31
0.0
  0
LINE
  5
29590
330
2
100
AcDbEntity
  8
0
  6
Continuous
 62
     7
370
    25
100
AcDbLine
 10
-804.1890190247888
 20
510.7240874402366
 30
0.0
 11
-801.4681990553995
 21
509.9386543693738
 31
0.0
  0
LINE
  5
29591
330
2
100
AcDbEntity
  8
0
  6
Continuous
 62
     7
370
    25
100
AcDbLine
 10
-804.1890190247888
 20
510.7240874402366
 30
0.0
 11
-766.7874442216393
 21
543.1148013613083
 31
0.0
  0
LINE
  5
29592
330
2
100
AcDbEntity
  8
0
  6
Continuous
 62
     7
370
    25
100
AcDbLine
 10
-766.7874442216393
 20
543.1148013613083
 30
0.0
 11
-764.0666242522718
 21
542.3293682904454
 31
0.0
  0
LINE
  5
29593
330
2
100
AcDbEntity
  8
0
  6
Continuous
 62
     7
370
    25
100
AcDbLine
 10
-801.4681990553995
 20
509.9386543693738
 30
0.0
 11
-801.4681990553995
 21
509.1813884580274
 31
0.0
  0
LINE
  5
29594
330
2
100
AcDbEntity
  8
0
  6
Continuous
 62
     7
370
    25
100
AcDbLine
 10
-764.0666242522718
 20
542.3293682904454
 30
0.0
 11
-764.0666242522718
 21
541.572102379099
 31
0.0
  0
LINE
  5
29595
330
2
100
AcDbEntity
  8
0
  6
Continuous
 62
     7
370
    25
100
AcDbLine
 10
-804.1890190247888
 20
510.7240874402366
 30
0.0
 11
-804.1890190247888
 21
506.8250892454305
 31
0.0
  0
ARC
  5
29596
330
2
100
AcDbEntity
  8
0
  6
Continuous
 62
     7
370
    25
100
AcDbCircle
 10
-656.8810677363006
 20
168.2821707803521
 30
0.0
 40
3.894864341793353
100
AcDbArc
 50
248.6153217667162
 51
2.235055178258234
  0
LINE
  5
29597
330
2
100
AcDbEntity
  8
0
  6
Continuous
 62
     7
370
    25
100
AcDbLine
 10
-658.3012435242753
 20
164.6554547765567
 30
0.0
 11
-658.3012435242753
 21
167.376274745927
 31
0.0
  0
ARC
  5
29598
330
2
100
AcDbEntity
  8
0
  6
Continuous
 62
     7
370
    25
100
AcDbCircle
 10
-657.6084748472113
 20
169.1454045038748
 30
0.0
 40
1.899933825265025
100
AcDbArc
 50
248.6153217667162
 51
2.235055178256605
  0
ARC
  5
29599
330
2
100
AcDbEntity
  8
0
  6
Continuous
 62
     7
370
    25
100
AcDbCircle
 10
-619.5749988862247
 20
200.6681923095621
 30
0.0
 40
3.990480753921907
100
AcDbArc
 50
312.4017945712649
 51
2.248898817377897
  0
LINE
  5
2959A
330
2
100
AcDbEntity
  8
0
  6
Continuous
 62
     7
370
    25
100
AcDbLine
 10
-664.3323333603141
 20
166.3964804467258
 30
0.0
 11
-658.3012435242753
 21
164.6554547765567
 31
0.0
  0
LINE
  5
2959B
330
2
100
AcDbEntity
  8
0
  6
Continuous
 62
     7
370
    25
100
AcDbLine
 10
-661.9760341476983
 20
168.4370954237541
 30
0.0
 11
-658.3012435242753
 21
167.376274745927
 31
0.0
  0
SPLINE
  5
2959C
330
2
100
AcDbEntity
  8
0
  6
Continuous
 62
     7
370
    25
100
AcDbSpline
210
0.0
220
0.0
230
1.0
 70
     8
 71
     3
 72
    12
 73
     8
 74
     0
 42
0.00000001
 43
0.0000000001
 40
0.0
 40
0.0
 40
0.0
 40
0.0
 40
0.2263677090197501
 40
0.4528687398013809
 40
0.6750979095141596
 40
0.8882232008128879
 40
1.0
 40
1.0
 40
1.0
 40
1.0
 10
-957.1602568763317
 20
70.85275855623526
 30
0.0
 10
-957.0789343989801
 20
70.58677983757575
 30
0.0
 10
-956.9162415485182
 20
70.05466574915343
 30
0.0
 10
-956.3012922484444
 20
69.23809599630809
 30
0.0
 10
-955.5026752093713
 20
68.54092264602313
 30
0.0
 10
-954.732355927083
 20
68.10066495788657
 30
0.0
 10
-954.2795051838451
 20
67.9506963127314
 30
0.0
 10
-954.1237099209995
 20
67.89910226139909
 30
0.0
  0
SPLINE
  5
2959D
330
2
100
AcDbEntity
  8
0
  6
Continuous
 62
     7
370
    25
100
AcDbSpline
210
0.0
220
0.0
230
1.0
 70
     8
 71
     3
 72
    24
 73
    20
 74
     0
 42
0.00000001
 43
0.0000000001
 40
0.0
 40
0.0
 40
0.0
 40
0.0
 40
0.0531357746955035
 40
0.105661422492973
 40
0.1578715056987238
 40
0.2099783297501568
 40
0.2621196484723914
 40
0.314368997908386
 40
0.3967269291579247
 40
0.4792898411834927
 40
0.5618190516742501
 40
0.623535007417117
 40
0.6850011755423213
 40
0.7461894221971709
 40
0.8071538731966054
 40
0.8550034229121813
 40
0.9029525298831245
 40
0.9511980078016559
 40
1.0
 40
1.0
 40
1.0
 40
1.0
 10
-957.1602568763317
 20
70.85275855623526
 30
0.0
 10
-957.9635819558166
 20
75.37544739036036
 30
0.0
 10
-959.5610080046458
 20
84.36889367857309
 30
0.0
 10
-961.1130836404363
 20
98.85684160344252
 30
0.0
 10
-962.1177854458585
 20
113.8319392050674
 30
0.0
 10
-962.5942394182301
 20
129.3010660003845
 30
0.0
 10
-962.6396247000556
 20
145.1650518246049
 30
0.0
 10
-962.2704720617869
 20
164.4499998354315
 30
0.0
 10
-961.3548009801879
 20
187.2542085637848
 30
0.0
 10
-959.9451461581054
 20
213.4955283768675
 30
0.0
 10
-958.5953864838593
 20
237.587698434761
 30
0.0
 10
-957.5457931696917
 20
259.3173260208906
 30
0.0
 10
-956.8688200893397
 20
278.6003640594536
 30
0.0
 10
-956.5889272402754
 20
297.4963900450502
 30
0.0
 10
-956.8210423486901
 20
314.5705880007171
 30
0.0
 10
-957.5370570021433
 20
329.8361847678304
 30
0.0
 10
-958.6759946435151
 20
343.3560895715191
 30
0.0
 10
-960.3080749265828
 20
356.4170492147605
 30
0.0
 10
-961.891653088071
 20
364.5201112828849
 30
0.0
 10
-962.6879826471107
 20
368.5948756364032
 30
0.0
  0
SPLINE
  5
2959E
330
2
100
AcDbEntity
  8
0
  6
Continuous
 62
     7
370
    25
100
AcDbSpline
210
0.0
220
0.0
230
1.0
 70
     8
 71
     3
 72
    12
 73
     8
 74
     0
 42
0.00000001
 43
0.0000000001
 40
0.0
 40
0.0
 40
0.0
 40
0.0
 40
0.2018249173361178
 40
0.4034913875546987
 40
0.6095868008940669
 40
0.825372738661575
 40
1.0
 40
1.0
 40
1.0
 40
1.0
 10
-960.5756195700319
 20
370.023366852584
 30
0.0
 10
-960.8513155756975
 20
370.0820861775055
 30
0.0
 10
-961.4024911457768
 20
370.1994787284461
 30
0.0
 10
-962.0762655302502
 20
370.0702505017148
 30
0.0
 10
-962.5477560771097
 20
369.7239646690651
 30
0.0
 10
-962.7647164478402
 20
369.2086381794614
 30
0.0
 10
-962.7116974328858
 20
368.7845605873202
 30
0.0
 10
-962.6879826471107
 20
368.5948756364032
 30
0.0
  0
LINE
  5
2959F
330
2
100
AcDbEntity
  8
0
  6
Continuous
 62
     7
370
    25
100
AcDbLine
 10
-960.5756195700319
 20
370.023366852584
 30
0.0
 11
-829.7171353289272
 21
332.2477763014002
 31
0.0
  0
SPLINE
  5
295A0
330
2
100
AcDbEntity
  8
0
  6
Continuous
 62
     7
370
    25
100
AcDbSpline
210
0.0
220
0.0
230
1.0
 70
     8
 71
     3
 72
    12
 73
     8
 74
     0
 42
0.00000001
 43
0.0000000001
 40
0.0
 40
0.0
 40
0.0
 40
0.0
 40
0.228197415583982
 40
0.4565511582969098
 40
0.67986737641623
 40
0.8926283481657392
 40
1.0
 40
1.0
 40
1.0
 40
1.0
 10
-826.6469841786042
 20
329.3232220930962
 30
0.0
 10
-826.7327389427542
 20
329.5872560982125
 30
0.0
 10
-826.9043072174886
 20
330.1155049855064
 30
0.0
 10
-827.5351448900007
 20
330.9272084581476
 30
0.0
 10
-828.3474996732286
 20
331.6190923512313
 30
0.0
 10
-829.1191957661036
 20
332.0511126211163
 30
0.0
 10
-829.5669572786685
 20
332.1983823995812
 30
0.0
 10
-829.7171353289272
 20
332.2477763014002
 30
0.0
  0
SPLINE
  5
295A1
330
2
100
AcDbEntity
  8
0
  6
Continuous
 62
     7
370
    25
100
AcDbSpline
210
0.0
220
0.0
230
1.0
 70
     8
 71
     3
 72
    24
 73
    20
 74
     0
 42
0.00000001
 43
0.0000000001
 40
0.0
 40
0.0
 40
0.0
 40
0.0
 40
0.0531357746955035
 40
0.105661422492973
 40
0.1578715056987239
 40
0.2099783297501568
 40
0.2621196484723914
 40
0.314368997908386
 40
0.3967269291579251
 40
0.4792898411834927
 40
0.5618190516742501
 40
0.6235350074171175
 40
0.6850011755423213
 40
0.7461894221971709
 40
0.8071538731966054
 40
0.8550034229121813
 40
0.9029525298831245
 40
0.9511980078016559
 40
1.0
 40
1.0
 40
1.0
 40
1.0
 10
-821.1192584078252
 20
31.58110501292817
 30
0.0
 10
-821.9225834873318
 20
36.10379384705328
 30
0.0
 10
-823.520009536161
 20
45.09724013526602
 30
0.0
 10
-825.07208517193
 20
59.58518806013542
 30
0.0
 10
-826.0767869773522
 20
74.56028566176034
 30
0.0
 10
-826.5532409497454
 20
90.02941245707743
 30
0.0
 10
-826.5986262315493
 20
105.8933982812978
 30
0.0
 10
-826.2294735932803
 20
125.1783462921244
 30
0.0
 10
-825.3138025116813
 20
147.982555020475
 30
0.0
 10
-823.9041476895987
 20
174.2238748335604
 30
0.0
 10
-822.5543880153745
 20
198.3160448914539
 30
0.0
 10
-821.5047947012072
 20
220.0456724775835
 30
0.0
 10
-820.8278216208553
 20
239.3287105161466
 30
0.0
 10
-820.547928771791
 20
258.2247365017458
 30
0.0
 10
-820.7800438801834
 20
275.29893445741
 30
0.0
 10
-821.496058533637
 20
290.5645312245233
 30
0.0
 10
-822.6349961750088
 20
304.084436028212
 30
0.0
 10
-824.2670764580763
 20
317.1453956714507
 30
0.0
 10
-825.8506546195862
 20
325.2484577395778
 30
0.0
 10
-826.6469841786042
 20
329.3232220930962
 30
0.0
  0
SPLINE
  5
295A2
330
2
100
AcDbEntity
  8
0
  6
Continuous
 62
     7
370
    25
100
AcDbSpline
210
0.0
220
0.0
230
1.0
 70
     8
 71
     3
 72
    12
 73
     8
 74
     0
 42
0.00000001
 43
0.0000000001
 40
0.0
 40
0.0
 40
0.0
 40
0.0
 40
0.2034448052129859
 40
0.4067496946112941
 40
0.6139825443349817
 40
0.8297233501726591
 40
1.0
 40
1.0
 40
1.0
 40
1.0
 10
-823.2652256798733
 20
30.12351171022071
 30
0.0
 10
-822.9878914889328
 20
30.06491851157044
 30
0.0
 10
-822.433413839097
 20
29.94777241078686
 30
0.0
 10
-821.7517282407342
 20
30.0842756589142
 30
0.0
 10
-821.2729975943318
 20
30.44204864005252
 30
0.0
 10
-821.0517435143284
 20
30.96665247678561
 30
0.0
 10
-821.0985927028271
 20
31.39302658768673
 30
0.0
 10
-821.1192584078252
 20
31.58110501292817
 30
0.0
  0
LINE
  5
295A3
330
2
100
AcDbEntity
  8
0
  6
Continuous
 62
     7
370
    25
100
AcDbLine
 10
-954.1237099209995
 20
67.89910226139909
 30
0.0
 11
-823.2652256798733
 21
30.12351171022071
 31
0.0
  0
LINE
  5
295A4
330
2
100
AcDbEntity
  8
0
  6
Continuous
 62
     7
370
    25
100
AcDbLine
 10
-623.167018695595
 20
505.5420413625472
 30
0.0
 11
-826.6469841786042
 21
329.3232220930962
 31
0.0
  0
LINE
  5
295A5
330
2
100
AcDbEntity
  8
0
  6
Continuous
 62
     7
370
    25
100
AcDbLine
 10
-623.167018695595
 20
496.0449194715478
 30
0.0
 11
-623.167018695595
 21
505.5420413625472
 31
0.0
  0
LINE
  5
295A6
330
2
100
AcDbEntity
  8
0
  6
Continuous
 62
     7
370
    25
100
AcDbLine
 10
-829.7171353289272
 20
332.2477763014002
 30
0.0
 11
-625.758275809296
 21
508.8813299722976
 31
0.0
  0
ARC
  5
295A7
330
2
100
AcDbEntity
  8
0
  6
Continuous
 62
     7
370
    25
100
AcDbCircle
 10
-626.8488988691098
 20
505.3599764564701
 30
0.0
 40
3.686378879337817
100
AcDbArc
 50
2.830907115708308
 51
72.79135789004969
  0
LINE
  5
295A8
330
2
100
AcDbEntity
  8
0
  6
Continuous
 62
     7
370
    25
100
AcDbLine
 10
-756.6167600504222
 20
546.6569205234787
 30
0.0
 11
-960.5756195700319
 21
370.023366852584
 31
0.0
  0
LINE
  5
295A9
330
2
100
AcDbEntity
  8
0
  6
Continuous
 62
     7
370
    25
100
AcDbLine
 10
-625.758275809296
 20
508.8813299722976
 30
0.0
 11
-756.6167600504222
 21
546.6569205234787
 31
0.0
  0
ARC
  5
295AA
330
2
100
AcDbEntity
  8
0
  6
Continuous
 62
     7
370
    25
100
AcDbCircle
 10
-757.2964360474784
 20
544.7099769487769
 30
0.0
 40
2.062170881389207
100
AcDbArc
 50
70.75595796695306
 51
128.3368291158731
  0
LINE
  5
295AB
330
2
100
AcDbEntity
  8
0
  6
Continuous
 62
     7
370
    25
100
AcDbLine
 10
-644.7369081800022
 20
204.4469756855878
 30
0.0
 11
-644.6669317229343
 21
204.4238493862776
 31
0.0
  0
LINE
  5
295AC
330
2
100
AcDbEntity
  8
0
  6
Continuous
 62
     7
370
    25
100
AcDbLine
 10
-647.591648717425
 20
194.5578643791004
 30
0.0
 11
-647.6646385568493
 21
194.5821211541616
 31
0.0
  0
LWPOLYLINE
  5
295AD
330
2
100
AcDbEntity
  8
0
  6
Continuous
 62
     7
370
    25
100
AcDbPolyline
 90
       22
 70
   128
 43
0.0
 10
-647.5089987141873
 20
200.5603187677922
 10
-647.8890414362123
 20
199.2184567696222
 10
-648.0798556843297
 20
197.8914408595695
 10
-648.0644867752598
 20
196.6971822247643
 10
-647.8443003039947
 20
195.7417959858208
 10
-647.4388608047647
 20
195.1101724027172
 10
-646.8841933563624
 20
194.858434002641
 10
-646.2295825956297
 20
195.0089488471808
 10
-645.5331935614371
 20
195.5483430318716
 10
-644.8569034755071
 20
196.4286890163118
 10
-644.2608036797868
 20
197.5717641964495
 10
-643.7978602571089
 20
198.8760013262276
 10
-643.509207762143
 20
200.2255132131158
 10
-643.4204942358276
 20
201.5003898037264
 10
-643.5396022642813
 20
202.5873527182783
 10
-643.855948576449
 20
203.3898205317603
 10
-644.3414244142615
 20
203.8364904573701
 10
-644.9528931190516
 20
203.8876739120375
 10
-645.6360230129948
 20
203.5388230212029
 10
-646.3301150071689
 20
202.8209347174211
 10
-646.9734959819082
 20
201.797796526884
 10
-647.5089987141873
 20
200.5603187677922
  0
LINE
  5
295AE
330
2
100
AcDbEntity
  8
0
  6
Continuous
 62
     7
370
    25
100
AcDbLine
 10
-648.4733597349834
 20
194.8154870464291
 30
0.0
 11
-648.4014165654389
 21
194.7916242216201
 31
0.0
  0
ARC
  5
295AF
330
2
100
AcDbEntity
  8
0
  6
Continuous
 62
     7
370
    25
100
AcDbCircle
 10
-771.9776352067395
 20
552.220296856447
 30
0.0
 40
9.904237489181781
100
AcDbArc
 50
137.4109010284089
 51
180.485650100851
  0
LINE
  5
295B0
330
2
100
AcDbEntity
  8
0
  6
Continuous
 62
     7
370
    25
100
AcDbLine
 10
-779.269390924609
 20
558.9228500112596
 30
0.0
 11
-597.8813929665859
 21
506.5606452868449
 31
0.0
  0
ARC
  5
295B1
330
2
100
AcDbEntity
  8
0
  6
Continuous
 62
     7
370
    25
100
AcDbCircle
 10
-590.589637248738
 20
499.8580921320348
 30
0.0
 40
9.904237489181987
100
AcDbArc
 50
137.4109010284
 51
180.4856501008494
  0
LINE
  5
295B2
330
2
100
AcDbEntity
  8
0
  6
Continuous
 62
     7
370
    25
100
AcDbLine
 10
-597.8813929665859
 20
506.5606452868449
 30
0.0
 11
-597.8813929665859
 21
503.8501903459303
 31
0.0
  0
ARC
  5
295B3
330
2
100
AcDbEntity
  8
0
  6
Continuous
 62
     7
370
    25
100
AcDbCircle
 10
-594.9580086581754
 20
501.1630269963501
 30
0.0
 40
3.970771043772143
100
AcDbArc
 50
137.4109010283999
 51
180.4856501008542
  0
LINE
  5
295B4
330
2
100
AcDbEntity
  8
0
  6
Continuous
 62
     7
370
    25
100
AcDbLine
 10
-600.4935189508585
 20
499.7741429061013
 30
0.0
 11
-598.9286370610915
 21
501.12937037656
 31
0.0
  0
LINE
  5
295B5
330
2
100
AcDbEntity
  8
0
  6
Continuous
 62
     7
370
    25
100
AcDbLine
 10
-600.4935189508585
 20
431.0035834506117
 30
0.0
 11
-600.4935189508585
 21
499.7741429061013
 31
0.0
  0
LINE
  5
295B6
330
2
100
AcDbEntity
  8
0
  6
Continuous
 62
     7
370
    25
100
AcDbLine
 10
-615.587591638079
 20
435.3608669151846
 30
0.0
 11
-600.4935189508585
 21
431.0035834506117
 31
0.0
  0
LINE
  5
295B7
330
2
100
AcDbEntity
  8
0
  6
Continuous
 62
     7
370
    25
100
AcDbLine
 10
-781.8815169088598
 20
552.1363476305163
 30
0.0
 11
-781.8815169088598
 21
530.0429509676087
 31
0.0
  0
LINE
  5
295B8
330
2
100
AcDbEntity
  8
0
  6
Continuous
 62
     7
370
    25
100
AcDbLine
 10
-598.9286370610915
 20
432.3588109210703
 30
0.0
 11
-598.9286370610915
 21
501.12937037656
 31
0.0
  0
LINE
  5
295B9
330
2
100
AcDbEntity
  8
0
  6
Continuous
 62
     7
370
    25
100
AcDbLine
 10
-600.4935189508585
 20
431.0035834506117
 30
0.0
 11
-598.9286370610915
 21
432.3588109210703
 31
0.0
  0
LINE
  5
295BA
330
2
100
AcDbEntity
  8
0
  6
Continuous
 62
     7
370
    25
100
AcDbLine
 10
-544.3685833601797
 20
554.2349148327268
 30
0.0
 11
-724.6040599894122
 21
606.2644153074305
 31
0.0
  0
LINE
  5
295BB
330
2
100
AcDbEntity
  8
0
  6
Continuous
 62
     7
370
    25
100
AcDbLine
 10
-597.8813929665859
 20
506.5606452868449
 30
0.0
 11
-543.9592084446412
 21
553.2586269104275
 31
0.0
  0
LINE
  5
295BC
330
2
100
AcDbEntity
  8
0
  6
Continuous
 62
     7
370
    25
100
AcDbLine
 10
-724.6040599894122
 20
606.2644153074305
 30
0.0
 11
-779.269390924609
 21
558.9228500112596
 31
0.0
  0
LWPOLYLINE
  5
295BD
330
2
100
AcDbEntity
  8
0
  6
Continuous
 62
     7
370
    25
100
AcDbPolyline
 90
       17
 70
   128
 43
0.0
 10
-719.1506253406394
 20
599.7667558101916
 10
-720.145586303302
 20
599.9356276782817
 10
-721.1940593046127
 20
599.9012674026962
 10
-722.1364238345103
 20
599.6689060239143
 10
-722.8292134358683
 20
599.2739184554846
 10
-723.1669571720431
 20
598.776437974145
 10
-723.0982366208721
 20
598.2522014734978
 10
-722.6335138633085
 20
597.7810192085571
 10
-721.8435387264706
 20
597.4346244078727
 10
-720.8485777637642
 20
597.2657525397773
 10
-719.8001047624971
 20
597.3001128153681
 10
-718.8577402325996
 20
597.5324741941527
 10
-718.1649506312196
 20
597.9274617625744
 10
-717.827206895045
 20
598.4249422439139
 10
-717.8959274462161
 20
598.9491787445665
 10
-718.3606502037796
 20
599.4203610095072
 10
-719.1506253406394
 20
599.7667558101916
  0
LWPOLYLINE
  5
295BE
330
2
100
AcDbEntity
  8
0
  6
Continuous
 62
     7
370
    25
100
AcDbPolyline
 90
       28
 70
   128
 43
0.0
 10
-693.4847145691833
 20
584.5925117463925
 10
-695.1783698330947
 20
584.9577975302396
 10
-696.9948537983817
 20
585.1179450967962
 10
-698.8362393443456
 20
585.0643208492932
 10
-700.6032568995357
 20
584.7998156847956
 10
-702.200646090182
 20
584.3386891451802
 10
-703.5422912515336
 20
583.705800681573
 10
-704.5558639457412
 20
582.9352694748457
 10
-705.1867222064096
 20
582.0686350618034
 10
-705.4008563014615
 20
581.1526179279781
 10
-705.1867222064096
 20
580.2366007941502
 10
-704.5558639457412
 20
579.3699663811106
 10
-703.5422912515336
 20
578.5994351743834
 10
-702.200646090182
 20
577.9665467107707
 10
-700.6032568995357
 20
577.5054201711608
 10
-698.8362393443456
 20
577.2409150066634
 10
-696.9948537983817
 20
577.1872907591601
 10
-695.1783698330947
 20
577.3474383257113
 10
-693.4847145691833
 20
577.7127241095585
 10
-692.0051934003021
 20
578.2634554595365
 10
-690.8195676956617
 20
578.969942306025
 10
-689.9917548438836
 20
579.7940977602527
 10
-689.5663824500886
 20
580.6914913883684
 10
-689.5663824500886
 20
581.613744467588
 10
-689.9917548438836
 20
582.5111380956982
 10
-690.8195676956617
 20
583.3352935499288
 10
-692.0051934003021
 20
584.0417803964145
 10
-693.4847145691833
 20
584.5925117463925
  0
LWPOLYLINE
  5
295BF
330
2
100
AcDbEntity
  8
0
  6
Continuous
 62
     7
370
    25
100
AcDbPolyline
 90
       28
 70
   128
 43
0.0
 10
-596.312572805952
 20
556.5413306440302
 10
-598.0062280698851
 20
556.9066164278774
 10
-599.8227120351722
 20
557.066763994434
 10
-601.6640975811362
 20
557.0131397469308
 10
-603.4311151363262
 20
556.7486345824334
 10
-605.0285043269725
 20
556.2875080428234
 10
-606.370149488324
 20
555.6546195792053
 10
-607.3837221825099
 20
554.8840883724835
 10
-608.0145804431782
 20
554.0174539594411
 10
-608.2287145382302
 20
553.101436825616
 10
-608.0145804431782
 20
552.185419691788
 10
-607.3837221825099
 20
551.3187852787484
 10
-606.370149488324
 20
550.5482540720211
 10
-605.0285043269725
 20
549.9153656084086
 10
-603.4311151363262
 20
549.4542390687986
 10
-601.6640975811362
 20
549.1897339043012
 10
-599.8227120351722
 20
549.1361096567979
 10
-598.0062280698851
 20
549.2962572233491
 10
-596.312572805952
 20
549.6615430071963
 10
-594.8330516370925
 20
550.2122743571742
 10
-593.6474259324521
 20
550.9187612036628
 10
-592.8196130806741
 20
551.7429166578905
 10
-592.3942406868572
 20
552.6403102860061
 10
-592.3942406868572
 20
553.5625633652258
 10
-592.8196130806741
 20
554.459956993336
 10
-593.6474259324521
 20
555.2841124475665
 10
-594.8330516370925
 20
555.9905992940522
 10
-596.312572805952
 20
556.5413306440302
  0
LWPOLYLINE
  5
295C0
330
2
100
AcDbEntity
  8
0
  6
Continuous
 62
     7
370
    25
100
AcDbPolyline
 90
       17
 70
   128
 43
0.0
 10
-557.1970557352756
 20
553.0147873062519
 10
-558.1920166979601
 20
553.1836591743447
 10
-559.2404896992489
 20
553.1492988987592
 10
-560.1828542291466
 20
552.9169375199719
 10
-560.8756438305046
 20
552.5219499515501
 10
-561.213387566701
 20
552.0244694702107
 10
-561.1446670155082
 20
551.5002329695635
 10
-560.6799442579664
 20
551.0290507046175
 10
-559.8899691211066
 20
550.6826559039329
 10
-558.8950081584222
 20
550.5137840358429
 10
-557.8465351571333
 20
550.5481443114283
 10
-556.9041706272356
 20
550.7805056902102
 10
-556.2113810258777
 20
551.1754932586373
 10
-555.8736372896812
 20
551.6729737399796
 10
-555.942357840874
 20
552.197210240624
 10
-556.4070805984158
 20
552.6683925055729
 10
-557.1970557352756
 20
553.0147873062519
  0
LINE
  5
295C1
330
2
100
AcDbEntity
  8
0
  6
Continuous
 62
     7
370
    25
100
AcDbLine
 10
-543.216062031389
 20
551.4863520587018
 30
0.0
 11
-543.216062031389
 21
551.191755642101
 31
0.0
  0
LINE
  5
295C2
330
2
100
AcDbEntity
  8
0
  6
Continuous
 62
     7
370
    25
100
AcDbLine
 10
-597.8813929665859
 20
503.8501903459303
 30
0.0
 11
-543.216062031389
 21
551.191755642101
 31
0.0
  0
LWPOLYLINE
  5
295C3
330
2
100
AcDbEntity
  8
0
  6
Continuous
 62
     7
370
    25
100
AcDbPolyline
 90
       13
 70
   128
 43
0.0
 10
-607.752020618539
 20
551.7462093551573
 10
-607.7496270194373
 20
551.7495020524215
 10
-606.9218141676373
 20
552.5736575066519
 10
-605.7361884630187
 20
553.2801443531377
 10
-604.2566672941375
 20
553.8308757031156
 10
-602.5630120302042
 20
554.1961614869628
 10
-600.7465280649172
 20
554.3563090535194
 10
-598.9051425189751
 20
554.3026848060162
 10
-597.138124963785
 20
554.0381796415133
 10
-595.540735773117
 20
553.5770531019035
 10
-594.1990906117654
 20
552.9441646382909
 10
-593.1855179176014
 20
552.1736334315689
 10
-592.8172194815504
 20
551.7462093551573
  0
LWPOLYLINE
  5
295C4
330
2
100
AcDbEntity
  8
0
  6
Continuous
 62
     7
370
    25
100
AcDbPolyline
 90
       13
 70
   128
 43
0.0
 10
-704.9241623817704
 20
579.7973904575195
 10
-704.9217687826468
 20
579.8006831547837
 10
-704.0939559308687
 20
580.6248386090142
 10
-702.9083302262283
 20
581.3313254554999
 10
-701.4288090573471
 20
581.8820568054779
 10
-699.7351537934356
 20
582.2473425893251
 10
-697.9186698281268
 20
582.4074901558817
 10
-696.0772842821846
 20
582.3538659083785
 10
-694.3102667269946
 20
582.0893607438756
 10
-692.7128775363483
 20
581.6282342042657
 10
-691.3712323749749
 20
580.995345740653
 10
-690.357659680811
 20
580.2248145339311
 10
-689.9893612447599
 20
579.7973904575195
  0
LINE
  5
295C5
330
2
100
AcDbEntity
  8
0
  6
Continuous
 62
     7
370
    25
100
AcDbLine
 10
-884.094361215061
 20
437.6250330105695
 30
0.0
 11
-884.094361215061
 21
585.1771289209907
 31
0.0
  0
LINE
  5
295C7
330
2
100
AcDbEntity
  8
0
  6
Continuous
 62
     7
370
    25
100
AcDbLine
 10
-482.4495085937834
 20
268.4098207205853
 30
0.0
 11
-482.4495085937834
 21
469.2322470312269
 31
0.0
  0
LINE
  5
295C8
330
2
100
AcDbEntity
  8
0
  6
Continuous
 62
     7
370
    25
100
AcDbLine
 10
-772.426699256307
 20
622.0416412734456
 30
0.0
 11
-796.812526027965
 21
600.922895796909
 31
0.0
  0
LINE
  5
295C9
330
2
100
AcDbEntity
  8
0
  6
Continuous
 62
     7
370
    25
100
AcDbLine
 10
-641.3325908509972
 20
582.2260127459936
 30
0.0
 11
-639.6247721799214
 21
583.7050271002198
 31
0.0
  0
LINE
  5
295CA
330
2
100
AcDbEntity
  8
0
  6
Continuous
 62
     7
370
    25
100
AcDbLine
 10
-788.5985701162724
 20
585.5954454001122
 30
0.0
 11
-758.5025405309172
 21
576.9074700087904
 31
0.0
  0
LWPOLYLINE
  5
295CB
330
2
100
AcDbEntity
  8
0
  6
Continuous
 62
     7
370
    25
100
AcDbPolyline
 90
       12
 70
   128
 43
0.0
 10
-796.812526027965
 20
600.922895796909
 10
-798.2115512902508
 20
599.482887917508
 10
-799.1864675156419
 20
597.9579862150274
 10
-799.7174282212363
 20
596.3792332906778
 10
-799.793624578252
 20
594.7787680012494
 10
-799.4135054485384
 20
593.1891712046734
 10
-798.5848089614342
 20
591.6428025077173
 10
-797.3244049876491
 20
590.1711415176837
 10
-795.6579517173927
 20
588.8041470084106
 10
-793.6193733335649
 20
587.5696470460292
 10
-791.2501694133261
 20
586.4927724897536
 10
-788.5985701162724
 20
585.5954454001122
  0
LINE
  5
295CC
330
2
100
AcDbEntity
  8
0
  6
Continuous
 62
     7
370
    25
100
AcDbLine
 10
-607.2340582588443
 20
574.3546333994299
 30
0.0
 11
-608.9418769299201
 21
572.8756190452089
 31
0.0
  0
LINE
  5
295CD
330
2
100
AcDbEntity
  8
0
  6
Continuous
 62
     7
370
    25
100
AcDbLine
 10
-574.7672197382656
 20
523.8676515491542
 30
0.0
 11
-535.373252112801
 21
512.4955926426512
 31
0.0
  0
LINE
  5
295CE
330
2
100
AcDbEntity
  8
0
  6
Continuous
 62
     7
370
    25
100
AcDbLine
 10
-482.4495085937834
 20
469.2322470312269
 30
0.0
 11
-598.5896741153821
 21
502.7590249450423
 31
0.0
  0
LINE
  5
295CF
330
2
100
AcDbEntity
  8
0
  6
Continuous
 62
     7
370
    25
100
AcDbLine
 10
-781.2948189482085
 20
555.5014572208265
 30
0.0
 11
-884.094361215061
 21
585.1771289209907
 31
0.0
  0
LINE
  5
295D0
330
2
100
AcDbEntity
  8
0
  6
Continuous
 62
     7
370
    25
100
AcDbLine
 10
-482.4495085937834
 20
268.4098207205853
 30
0.0
 11
-615.587591638079
 21
306.8434747630952
 31
0.0
  0
LWPOLYLINE
  5
295D1
330
2
100
AcDbEntity
  8
0
  6
Continuous
 62
     7
370
    25
100
AcDbPolyline
 90
       12
 70
   128
 43
0.0
 10
-796.812526027965
 20
600.922895796909
 10
-798.2115512902508
 20
599.482887917508
 10
-799.1864675156419
 20
597.9579862150274
 10
-799.7174282212363
 20
596.3792332906778
 10
-799.793624578252
 20
594.7787680012494
 10
-799.4135054485384
 20
593.1891712046734
 10
-798.5848089614342
 20
591.6428025077173
 10
-797.3244049876491
 20
590.1711415176837
 10
-795.6579517173927
 20
588.8041470084106
 10
-793.6193733335649
 20
587.5696470460292
 10
-791.2501694133261
 20
586.4927724897536
 10
-788.5985701162724
 20
585.5954454001122
  0
LINE
  5
295D2
330
2
100
AcDbEntity
  8
0
  6
Continuous
 62
     7
370
    25
100
AcDbLine
 10
-668.2662330650887
 20
743.0888270509584
 30
0.0
 11
-668.2662330650887
 21
743.2593324969225
 31
0.0
  0
LINE
  5
295D3
330
2
100
AcDbEntity
  8
0
  6
Continuous
 62
     7
370
    25
100
AcDbLine
 10
-690.9397328098471
 20
749.631857613229
 30
0.0
 11
-690.9397328098471
 21
749.8046080874737
 31
0.0
  0
LINE
  5
295D4
330
2
100
AcDbEntity
  8
0
  6
Continuous
 62
     7
370
    25
100
AcDbLine
 10
-576.7071779469829
 20
822.3812947297439
 30
0.0
 11
-576.7071779469829
 21
822.551800175708
 31
0.0
  0
LINE
  5
295D5
330
2
100
AcDbEntity
  8
0
  6
Continuous
 62
     7
370
    25
100
AcDbLine
 10
-599.3806776917194
 20
828.9243252920091
 30
0.0
 11
-599.3806776917194
 21
829.0970757662538
 31
0.0
  0
LINE
  5
295D6
330
2
100
AcDbEntity
  8
0
  6
Continuous
 62
     7
370
    25
100
AcDbLine
 10
-692.4583317609881
 20
752.2296202979191
 30
0.0
 11
-692.4583317609881
 21
752.2156046925275
 31
0.0
  0
LINE
  5
295D7
330
2
100
AcDbEntity
  8
0
  6
Continuous
 62
     7
370
    25
100
AcDbLine
 10
-676.9668845199971
 20
776.8660795909586
 30
0.0
 11
-676.9668845199971
 21
776.864037303978
 31
0.0
  0
LINE
  5
295D8
330
2
100
AcDbEntity
  8
0
  6
Continuous
 62
     7
370
    25
100
AcDbLine
 10
-600.8992766428822
 20
831.5220879767046
 30
0.0
 11
-600.8992766428822
 21
831.5080723713103
 31
0.0
  0
LINE
  5
295D9
330
2
100
AcDbEntity
  8
0
  6
Continuous
 62
     7
370
    25
100
AcDbLine
 10
-658.3012435242753
 20
167.376274745927
 30
0.0
 11
-655.7099864105961
 21
169.6203692341159
 31
0.0
  0
LINE
  5
295DA
330
2
100
AcDbEntity
  8
0
  6
Continuous
 62
     7
370
    25
100
AcDbLine
 10
-821.1192584078252
 20
31.58110501292817
 30
0.0
 11
-655.7099864105961
 21
174.8297365840238
 31
0.0
  0
LWPOLYLINE
  5
295DB
330
2
100
AcDbEntity
  8
0
  6
Continuous
 62
     7
370
    25
100
AcDbPolyline
 90
        7
 70
   128
 43
0.0
 10
-648.0887032006974
 20
200.794582647555
 10
-647.5294828620032
 20
202.098102328361
 10
-646.8596617809183
 20
203.1913352666592
 10
-646.1335048778683
 20
203.985714231497
 10
-645.4098410665025
 20
204.4168833634958
 10
-644.7472972850506
 20
204.4499119038422
 10
-644.7369081800022
 20
204.4469756855878
  0
LWPOLYLINE
  5
295DC
330
2
100
AcDbEntity
  8
0
  6
Continuous
 62
     7
370
    25
100
AcDbPolyline
 90
        7
 70
   128
 43
0.0
 10
-647.6646385568493
 20
194.5821211541616
 10
-648.1290080070642
 20
194.9227159880594
 10
-648.5175856976225
 20
195.6615242003933
 10
-648.7155124305737
 20
196.7114989503451
 10
-648.7067533590454
 20
197.9875775281124
 10
-648.4920180909723
 20
199.3863796364563
 10
-648.0887032006974
 20
200.794582647555
  0
LWPOLYLINE
  5
295DD
330
2
100
AcDbEntity
  8
0
  6
Continuous
 62
     7
370
    25
100
AcDbPolyline
 90
        7
 70
   128
 43
0.0
 10
-648.898471048733
 20
201.0283424900774
 10
-649.301785939008
 20
199.620139478976
 10
-649.5165212070592
 20
198.2213373706294
 10
-649.5252802785876
 20
196.945258792862
 10
-649.3273535456581
 20
195.895284042913
 10
-648.938775855078
 20
195.1564758305791
 10
-648.4733597349834
 20
194.8154870464291
  0
LWPOLYLINE
  5
295DE
330
2
100
AcDbEntity
  8
0
  6
Continuous
 62
     7
370
    25
100
AcDbPolyline
 90
        7
 70
   128
 43
0.0
 10
-645.5466760280378
 20
204.6807355281075
 10
-645.5570651330861
 20
204.6836717463619
 10
-646.2196089145598
 20
204.6506432060128
 10
-646.9432727259039
 20
204.219474074014
 10
-647.6694296289539
 20
203.4250951091789
 10
-648.3392507100388
 20
202.331862170878
 10
-648.898471048733
 20
201.0283424900774
  0
LINE
  5
295DF
330
2
100
AcDbEntity
  8
0
  6
Continuous
 62
     7
370
    25
100
AcDbLine
 10
-781.8815169088598
 20
552.1363476305163
 30
0.0
 11
-759.3714426568844
 21
545.638248916083
 31
0.0
  0
LINE
  5
295E0
330
2
100
AcDbEntity
  8
0
  6
Continuous
 62
     7
370
    25
100
AcDbLine
 10
-623.2863740675971
 20
506.3538734247274
 30
0.0
 11
-600.4935189508585
 21
499.7741429061013
 31
0.0
  0
LINE
  5
296D9
330
2
100
AcDbEntity
  8
0
  6
Continuous
 62
     7
370
    25
100
AcDbLine
 10
-893.8115753913802
 20
587.9822470312238
 30
0.0
 11
-1011.592302113929
 21
621.9826141705346
 31
0.0
  0
LINE
  5
296DA
330
2
100
AcDbEntity
  8
0
  6
Continuous
 62
     7
370
    25
100
AcDbLine
 10
-482.4495085937834
 20
469.2322470312316
 30
0.0
 11
-540.8441867045332
 21
486.0893385944729
 31
0.0
  0
VIEWPORT
  5
235
102
{ACAD_XDICTIONARY
360
236
102
}
330
1A0
100
AcDbEntity
 67
     1
  8
0
348
1ED
100
AcDbViewport
 10
104.9324772176664
 20
146.7338366516245
 30
0.0
 40
612.1646295432632
 41
304.9065824485651
 68
     2
 69
     1
 12
104.9324772176664
 22
146.7338366516245
 13
0.0
 23
0.0
 14
0.5
 24
0.5
 15
0.5
 25
0.5
 16
0.0
 26
0.0
 36
1.0
 17
0.0
 27
0.0
 37
0.0
 42
50.0
 43
0.0
 44
0.0
 45
304.9065824485651
 50
0.0
 51
0.0
 72
     0
 90
   557088
  1

281
     0
 71
     1
 74
     0
110
0.0
120
0.0
130
0.0
111
1.0
121
0.0
131
0.0
112
0.0
122
1.0
132
0.0
 79
     0
146
0.0
170
     0
 61
     5
348
1ED
292
     1
282
     1
141
0.0
142
0.0
 63
   250
421
  3355443
  0
VIEWPORT
  5
1ABA
102
{ACAD_XDICTIONARY
360
1ABB
102
}
330
1A0
100
AcDbEntity
 67
     1
  8
0
348
1ED
100
AcDbViewport
 10
104.9324766950082
 20
146.7338359453798
 30
0.0
 40
224.4799921571632
 41
303.3297726764019
 68
     1
 69
     2
 12
-612.1123565541394
 22
361.1200653349678
 13
0.0
 23
0.0
 14
0.5
 24
0.5
 15
0.5
 25
0.5
 16
0.0
 26
0.0
 36
1.0
 17
0.0
 27
0.0
 37
0.0
 42
50.0
 43
0.0
 44
0.0
 45
1516.648863382009
 50
0.0
 51
0.0
 72
   100
 90
   573472
  1

281
     0
 71
     1
 74
     0
110
0.0
120
0.0
130
0.0
111
1.0
121
0.0
131
0.0
112
0.0
122
1.0
132
0.0
 79
     0
146
0.0
170
     0
 61
     5
348
1ED
292
     1
282
     1
141
0.0
142
0.0
 63
   250
421
  3355443
  0
ENDSEC
  0
SECTION
  2
OBJECTS
  0
DICTIONARY
  5
1B7
330
0
100
AcDbDictionary
281
     1
  3
ACAD_CIP_PREVIOUS_PRODUCT_INFO
350
221
  3
ACAD_COLOR
350
200
  3
ACAD_DETAILVIEWSTYLE
350
21A
  3
ACAD_GROUP
350
1B4
  3
ACAD_LAST_SAVED_VERSION_INFO
350
23716
  3
ACAD_LAYOUT
350
201
  3
ACAD_MATERIAL
350
1CE
  3
ACAD_MLEADERSTYLE
350
216
  3
ACAD_MLINESTYLE
350
1B5
  3
ACAD_PLOTSETTINGS
350
21C
  3
ACAD_PLOTSTYLENAME
350
1CC
  3
ACAD_SCALELIST
350
204
  3
ACAD_SECTIONVIEWSTYLE
350
218
  3
ACAD_TABLESTYLE
350
202
  3
ACAD_VISUALSTYLE
350
1E7
  3
ACDB_RECOMPOSE_DATA
350
296EA
  3
AcDbVariableDictionary
350
7D6
  3
AcDsDecomposeData
350
296F0
  0
DICTIONARY
  5
1A9
330
1A8
100
AcDbDictionary
280
     1
281
     1
  0
DICTIONARY
  5
1AB
330
1AA
100
AcDbDictionary
280
     1
281
     1
  0
DICTIONARY
  5
6
330
5
100
AcDbDictionary
280
     1
281
     1
  0
DICTIONARY
  5
22C
330
1A5
100
AcDbDictionary
280
     1
281
     1
  3
ACAD_LAYERSTATES
360
22D
  0
DICTIONARY
  5
686
330
61
100
AcDbDictionary
280
     1
281
     1
  3
ADSK_XREC_LAYER_RECONCILED
360
687
  0
DICTIONARY
  5
F69
330
F68
100
AcDbDictionary
280
     1
281
     1
  0
DICTIONARY
  5
B
330
A
100
AcDbDictionary
280
     1
281
     1
  0
DICTIONARY
  5
1BC
330
1BB
100
AcDbDictionary
280
     1
281
     1
  0
DICTIONARY
  5
19C
330
2
100
AcDbDictionary
280
     1
281
     1
  3
ACAD_LAYOUTSELFREF
360
19D
  3
ACAD_SORTENTS
360
205EF
  0
DICTIONARY
  5
1A1
330
1A0
100
AcDbDictionary
280
     1
281
     1
  3
ACAD_LAYOUTSELFREF
360
1A2
  0
DICTIONARY
  5
236
330
235
100
AcDbDictionary
280
     1
281
     1
  3
ASDK_XREC_ANNOTATION_SCALE_INFO
360
237
  0
DICTIONARY
  5
1ABB
330
1ABA
100
AcDbDictionary
280
     1
281
     1
  3
ASDK_XREC_ANNOTATION_SCALE_INFO
360
1ABC
  0
XRECORD
  5
221
102
{ACAD_REACTORS
330
1B7
102
}
330
1B7
100
AcDbXrecord
280
     1
300
ACD
300
2023
300

  0
DICTIONARY
  5
200
102
{ACAD_REACTORS
330
1B7
102
}
330
1B7
100
AcDbDictionary
281
     1
  0
DICTIONARY
  5
21A
102
{ACAD_REACTORS
330
1B7
102
}
330
1B7
100
AcDbDictionary
281
     1
  3
Imperial24
350
21B
  0
DICTIONARY
  5
1B4
102
{ACAD_REACTORS
330
1B7
102
}
330
1B7
100
AcDbDictionary
281
     1
  0
XRECORD
  5
23716
102
{ACAD_REACTORS
330
1B7
102
}
330
1B7
100
AcDbXrecord
280
     1
300
{9C2EA9C5-ECF8-7F4F-85E2-BF2920F861CE}
301
{C98F894A-C07A-8B4E-8BD9-9D9BF0A78C42}
302
{9C2EA9C5-ECF8-7F4F-85E2-BF2920F861CE}
303
D:\0. TRAINING\HARDWARE\1. Job training\11. MPH Drawings and Renders\1. OUTPUT\MPH55118\MPH55118 _ app wireframe\MPH55118 _ app wireframe.dwg
  0
DICTIONARY
  5
201
102
{ACAD_REACTORS
330
1B7
102
}
330
1B7
100
AcDbDictionary
281
     1
  3
Layout 1
350
21E
  3
Model
350
21D
  0
DICTIONARY
  5
1CE
102
{ACAD_REACTORS
330
1B7
102
}
330
1B7
100
AcDbDictionary
281
     1
  3
ByBlock
350
1D7
  3
ByLayer
350
1CF
  3
Global
350
1DF
  0
DICTIONARY
  5
216
102
{ACAD_REACTORS
330
1B7
102
}
330
1B7
100
AcDbDictionary
281
     1
  3
Standard
350
217
  0
DICTIONARY
  5
1B5
102
{ACAD_XDICTIONARY
360
1B6
102
}
102
{ACAD_REACTORS
330
1B7
102
}
330
1B7
100
AcDbDictionary
281
     1
  3
STANDARD
350
1BA
  0
DICTIONARY
  5
21C
102
{ACAD_REACTORS
330
1B7
102
}
330
1B7
100
AcDbDictionary
281
     1
  3
A4
350
19B0
  0
ACDBDICTIONARYWDFLT
  5
1CC
102
{ACAD_REACTORS
330
1B7
102
}
330
1B7
100
AcDbDictionary
281
     1
  3
Normal
350
1CD
100
AcDbDictionaryWithDefault
340
1CD
  0
DICTIONARY
  5
204
102
{ACAD_REACTORS
330
1B7
102
}
330
1B7
100
AcDbDictionary
281
     1
  3
A0
350
205
  3
A1
350
26CDE
  3
A2
350
26CDF
  3
A3
350
26CE0
  3
A4
350
26CE1
  3
A5
350
20325
  3
A6
350
26CE2
  3
A7
350
26CE3
  3
A8
350
26CE4
  3
A9
350
26CE5
  3
B0
350
26CE6
  3
B1
350
26CE7
  3
B2
350
26CE8
  3
B3
350
26CE9
  3
B4
350
26CEA
  3
B5
350
26CEB
  3
B6
350
26CEC
  3
B7
350
26CED
  3
B8
350
26CEE
  3
B9
350
26CEF
  3
C0
350
26CF0
  3
C1
350
26CF1
  3
C2
350
26CF2
  3
C3
350
26CF3
  3
C4
350
26CF4
  3
C5
350
26CF5
  3
C6
350
26CF6
  3
C7
350
26CF7
  3
C8
350
26CF8
  0
DICTIONARY
  5
218
102
{ACAD_REACTORS
330
1B7
102
}
330
1B7
100
AcDbDictionary
281
     1
  3
Imperial24
350
219
  0
DICTIONARY
  5
202
102
{ACAD_REACTORS
330
1B7
102
}
330
1B7
100
AcDbDictionary
281
     1
  3
Standard
350
203
  0
DICTIONARY
  5
1E7
102
{ACAD_REACTORS
330
1B7
102
}
330
1B7
100
AcDbDictionary
281
     1
  3
2dWireframe
350
1ED
  3
Basic
350
1EC
  3
Brighten
350
1F3
  3
ColorChange
350
1F7
  3
Conceptual
350
1F0
  3
Dim
350
1F2
  3
EdgeColorOff
350
1FF
  3
Facepattern
350
1F6
  3
Flat
350
1E8
  3
FlatWithEdges
350
1E9
  3
Gouraud
350
1EA
  3
GouraudWithEdges
350
1EB
  3
Hidden
350
1EF
  3
JitterOff
350
1FD
  3
Linepattern
350
1F5
  3
OverhangOff
350
1FE
  3
Realistic
350
1F1
  3
Shaded
350
1FC
  3
Shaded with edges
350
1FB
  3
Shades of Gray
350
1F8
  3
Sketchy
350
1F9
  3
Thicken
350
1F4
  3
Wireframe
350
1EE
  3
X-Ray
350
1FA
  0
XRECORD
  5
296EA
102
{ACAD_REACTORS
330
1B7
102
}
330
1B7
100
AcDbXrecord
280
     1
 90
        1
330
203
  0
DICTIONARY
  5
7D6
102
{ACAD_REACTORS
330
1B7
102
}
330
1B7
100
AcDbDictionary
281
     1
  3
CANNOSCALE
350
7DC
  3
CMLEADERSTYLE
350
7D8
  3
CTABLESTYLE
350
7D7
  3
CVIEWDETAILSTYLE
350
7D9
  3
CVIEWSECTIONSTYLE
350
7DA
  3
LAYEREVAL
350
7DE
  3
LAYERNOTIFY
350
7DF
  3
LIGHTINGUNITS
350
7DD
  3
MSLTSCALE
350
7DB
  0
DICTIONARY
  5
296F0
102
{ACAD_REACTORS
330
1B7
102
}
330
1B7
100
AcDbDictionary
281
     1
  3
AcDsRecords
350
296F2
  3
AcDsSchemas
350
296F1
1001
ACAD
1070
     2
  0
DICTIONARY
  5
22D
102
{ACAD_REACTORS
330
22C
102
}
330
22C
100
AcDbDictionary
281
     1
  0
XRECORD
  5
687
102
{ACAD_REACTORS
330
686
102
}
330
686
100
AcDbXrecord
280
     1
290
     1
  0
XRECORD
  5
19D
102
{ACAD_REACTORS
330
19C
102
}
330
19C
100
AcDbXrecord
280
     1
340
2
  0
SORTENTSTABLE
  5
205EF
102
{ACAD_REACTORS
330
19C
102
}
330
19C
100
AcDbSortentsTable
330
2
331
2954E
  5
2954F
331
2954F
  5
29550
331
29550
  5
29551
331
29551
  5
29552
331
29552
  5
29553
331
29553
  5
29554
331
29554
  5
29555
331
29555
  5
29556
331
29556
  5
29557
331
29557
  5
29558
331
29558
  5
29559
331
29559
  5
2955A
331
2955A
  5
2955B
331
2955B
  5
2955D
331
2955C
  5
2955E
331
2955D
  5
2955F
331
2955E
  5
29560
331
2955F
  5
29561
331
29560
  5
29562
331
29561
  5
29563
331
29562
  5
29564
331
29563
  5
29565
331
29564
  5
29566
331
29565
  5
29567
331
29566
  5
29568
331
29567
  5
29569
331
29568
  5
2956A
331
29569
  5
2956B
331
2956A
  5
2956C
331
2956B
  5
2956D
331
2956C
  5
2956E
331
2956D
  5
2956F
331
2956E
  5
29570
331
2956F
  5
29571
331
29570
  5
29572
331
29571
  5
29573
331
29572
  5
29574
331
29573
  5
29575
331
29574
  5
29576
331
29575
  5
29577
331
29576
  5
29579
331
29578
  5
2957A
331
29579
  5
2957B
331
2957A
  5
2957C
331
2957B
  5
2957D
331
2957C
  5
2957E
331
2957D
  5
2957F
331
2957E
  5
29580
331
2957F
  5
29581
331
29580
  5
29582
331
29581
  5
29583
331
29582
  5
29584
331
29583
  5
29585
331
29584
  5
29586
331
29585
  5
29587
331
29586
  5
29588
331
29587
  5
29589
331
29588
  5
2958A
331
29589
  5
2958B
331
2958A
  5
2958C
331
2958B
  5
2958D
331
2958C
  5
2958E
331
2958D
  5
2958F
331
2958E
  5
29590
331
2958F
  5
29591
331
29590
  5
29592
331
29591
  5
29593
331
29592
  5
29594
331
29593
  5
29595
331
29594
  5
29596
331
29595
  5
29597
331
29596
  5
29598
331
29597
  5
29599
331
29598
  5
2959A
331
29599
  5
2959B
331
2959A
  5
2959C
331
2959B
  5
2959D
331
2959C
  5
2959E
331
2959D
  5
2959F
331
2959E
  5
295A0
331
2959F
  5
295A1
331
295A0
  5
295A2
331
295A1
  5
295A3
331
295A2
  5
295A4
331
295A3
  5
295A5
331
295A4
  5
295A6
331
295A5
  5
295A7
331
295A6
  5
295A8
331
295A7
  5
295A9
331
295A8
  5
295AA
331
295A9
  5
295AB
331
295AA
  5
295AC
331
295AB
  5
295AD
331
295AC
  5
295AE
331
295AD
  5
295AF
331
295AE
  5
295B0
331
295AF
  5
295B1
331
295B0
  5
295B2
331
295B1
  5
295B3
331
295B2
  5
295B4
331
295B3
  5
295B5
331
295B4
  5
295B6
331
295B5
  5
295B7
331
295B6
  5
295B8
331
295B7
  5
295B9
331
295B8
  5
295BA
331
295B9
  5
295BB
331
295BA
  5
295BC
331
295BB
  5
295BD
331
295BC
  5
295BE
331
295BD
  5
295BF
331
295BE
  5
295C0
331
295BF
  5
295C1
331
295C0
  5
295C2
331
295C1
  5
295C3
331
295C2
  5
295C4
331
295C3
  5
295C5
331
295C4
  5
295C6
331
295C5
  5
295C8
331
295C7
  5
295C9
331
295C8
  5
295CA
331
295C9
  5
295CB
331
295CA
  5
295CC
331
295CB
  5
295CD
331
295CC
  5
295CE
331
295CD
  5
295CF
331
295CE
  5
295D0
331
295CF
  5
295D1
331
295D0
  5
295D2
331
295D1
  5
295D3
331
295D2
  5
295D4
331
295D3
  5
295D5
331
295D4
  5
295D6
331
295D5
  5
295D7
331
295D6
  5
295D8
331
295D7
  5
295D9
331
295D8
  5
295DA
331
295D9
  5
295DB
331
295DA
  5
295DC
331
295DB
  5
295DD
331
295DC
  5
295DE
331
295DD
  5
295DF
331
295DE
  5
295E0
331
295DF
  5
296D9
331
295E0
  5
296DA
331
296D9
  5
2955C
331
296DA
  5
2954E
  0
XRECORD
  5
1A2
102
{ACAD_REACTORS
330
1A1
102
}
330
1A1
100
AcDbXrecord
280
     1
340
1A2
  0
XRECORD
  5
237
102
{ACAD_REACTORS
330
236
102
}
330
236
100
AcDbXrecord
280
     1
 90
        1
340
205
  0
XRECORD
  5
1ABC
102
{ACAD_REACTORS
330
1ABB
102
}
330
1ABB
100
AcDbXrecord
280
     1
 90
        1
340
26CE3
  0
ACDBDETAILVIEWSTYLE
  5
21B
102
{ACAD_XDICTIONARY
360
296F5
102
}
102
{ACAD_REACTORS
330
21A
102
}
330
21A
100
AcDbModelDocViewStyle
 70
     0
  3
Imperial24
290
     0
100
AcDbDetailViewStyle
 70
     0
 71
     0
 90
        3
 71
     1
340
A
 62
   256
 40
0.24
340
0
 62
   256
 40
0.24
300

 40
0.36
280
     3
 71
     2
340
5
 90
       25
 62
   256
 71
     3
340
A
 62
   256
 40
0.24
 90
        1
 40
0.75
 90
        1
300
%<\AcVar ViewType \f "%tc1">% %<\AcVar ViewDetailId>%\PSCALE %<\AcVar ViewScale \f "%sn">%
 71
     4
340
5
 90
       25
 62
   256
340
5
 90
       25
 62
   256
280
     0
  0
LAYOUT
  5
21E
102
{ACAD_XDICTIONARY
360
252F5
102
}
102
{ACAD_REACTORS
330
201
102
}
330
201
100
AcDbPlotSettings
  1

  2
DWG To PDF.pc3
  4
ISO_full_bleed_A4_(210.00_x_297.00_MM)
  6

 40
0.0
 41
0.0
 42
0.0
 43
0.0
 44
210.0
 45
297.0
 46
0.0
 47
0.0
 48
0.0
 49
0.0
140
0.0
141
0.0
142
1.0
143
1.0
 70
   672
 72
     1
 73
     0
 74
     5
  7
monochrome.ctb
 75
    16
147
25.4
 76
     0
 77
     2
 78
   300
148
0.0
149
0.0
100
AcDbLayout
  1
Layout 1
 70
     1
 71
     1
 10
0.0
 20
0.0
 11
210.0
 21
297.0
 12
0.0
 22
0.0
 32
0.0
 14
-7.314369446621242
 24
-4.94030657662256
 34
-0.0015258207003583
 15
217.1793238819542
 25
298.4079798798715
 35
0.0000000349246037
146
0.0
 13
0.0
 23
0.0
 33
0.0
 16
1.0
 26
0.0
 36
0.0
 17
0.0
 27
1.0
 37
0.0
 76
     0
330
1A0
331
1ABA
1001
PLOTTRANSPARENCY
1071
        1
1001
ACAD_PSEXT
1000
DWG To PDF.pc3
1000
DWG To PDF
1000
File
1000

1070
     0
  0
LAYOUT
  5
21D
102
{ACAD_XDICTIONARY
360
237AD
102
}
102
{ACAD_REACTORS
330
201
102
}
330
201
100
AcDbPlotSettings
  1

  2
DWG To PDF.pc3
  4
ISO_full_bleed_A4_(210.00_x_297.00_MM)
  6

 40
0.7937499880790711
 41
0.7937499880790711
 42
0.7937469482421875
 43
0.79376220703125
 44
210.0
 45
297.0
 46
0.0
 47
0.0
 48
0.0
 49
0.0
140
0.0
141
0.0
142
1.0
143
6.980987797419007
 70
 11952
 72
     1
 73
     0
 74
     0
  7

 75
     0
147
0.1432462036919356
 76
     0
 77
     2
 78
   300
148
528.7620538809947
149
148.3289992822255
100
AcDbLayout
  1
Model
 70
     1
 71
     0
 10
0.0
 20
0.0
 11
12.0
 21
9.0
 12
0.0
 22
0.0
 32
0.0
 14
0.0
 24
0.0
 34
0.0
 15
0.0
 25
0.0
 35
0.0
146
0.0
 13
0.0
 23
0.0
 33
0.0
 16
1.0
 26
0.0
 36
0.0
 17
0.0
 27
1.0
 37
0.0
 76
     0
330
2
331
1CA
1001
ACAD_PSEXT
1000
DWG To PDF.pc3
1000
DWG To PDF
1000
File
1000

1070
     0
  0
MATERIAL
  5
1D7
102
{ACAD_XDICTIONARY
360
1D8
102
}
102
{ACAD_REACTORS
330
1CE
102
}
330
1CE
100
AcDbMaterial
  1
ByBlock
 72
     0
 43
0.0208333333333333
 43
0.0
 43
0.0
 43
0.0
 43
0.0
 43
0.0208333333333333
 43
0.0
 43
0.0
 43
0.0
 43
0.0
 43
1.0
 43
0.0
 43
0.0
 43
0.0
 43
0.0
 43
1.0
 77
     0
 47
0.0208333333333333
 47
0.0
 47
0.0
 47
0.0
 47
0.0
 47
0.0208333333333333
 47
0.0
 47
0.0
 47
0.0
 47
0.0
 47
1.0
 47
0.0
 47
0.0
 47
0.0
 47
0.0
 47
1.0
171
     0
 49
0.0208333333333333
 49
0.0
 49
0.0
 49
0.0
 49
0.0
 49
0.0208333333333333
 49
0.0
 49
0.0
 49
0.0
 49
0.0
 49
1.0
 49
0.0
 49
0.0
 49
0.0
 49
0.0
 49
1.0
175
     0
142
0.0208333333333333
142
0.0
142
0.0
142
0.0
142
0.0
142
0.0208333333333333
142
0.0
142
0.0
142
0.0
142
0.0
142
1.0
142
0.0
142
0.0
142
0.0
142
0.0
142
1.0
179
     0
144
0.0208333333333333
144
0.0
144
0.0
144
0.0
144
0.0
144
0.0208333333333333
144
0.0
144
0.0
144
0.0
144
0.0
144
1.0
144
0.0
144
0.0
144
0.0
144
0.0
144
1.0
147
0.0208333333333333
147
0.0
147
0.0
147
0.0
147
0.0
147
0.0208333333333333
147
0.0
147
0.0
147
0.0
147
0.0
147
1.0
147
0.0
147
0.0
147
0.0
147
0.0
147
1.0
  0
MATERIAL
  5
1CF
102
{ACAD_XDICTIONARY
360
1D0
102
}
102
{ACAD_REACTORS
330
1CE
102
}
330
1CE
100
AcDbMaterial
  1
ByLayer
 72
     0
 43
0.0208333333333333
 43
0.0
 43
0.0
 43
0.0
 43
0.0
 43
0.0208333333333333
 43
0.0
 43
0.0
 43
0.0
 43
0.0
 43
1.0
 43
0.0
 43
0.0
 43
0.0
 43
0.0
 43
1.0
 77
     0
 47
0.0208333333333333
 47
0.0
 47
0.0
 47
0.0
 47
0.0
 47
0.0208333333333333
 47
0.0
 47
0.0
 47
0.0
 47
0.0
 47
1.0
 47
0.0
 47
0.0
 47
0.0
 47
0.0
 47
1.0
171
     0
 49
0.0208333333333333
 49
0.0
 49
0.0
 49
0.0
 49
0.0
 49
0.0208333333333333
 49
0.0
 49
0.0
 49
0.0
 49
0.0
 49
1.0
 49
0.0
 49
0.0
 49
0.0
 49
0.0
 49
1.0
175
     0
142
0.0208333333333333
142
0.0
142
0.0
142
0.0
142
0.0
142
0.0208333333333333
142
0.0
142
0.0
142
0.0
142
0.0
142
1.0
142
0.0
142
0.0
142
0.0
142
0.0
142
1.0
179
     0
144
0.0208333333333333
144
0.0
144
0.0
144
0.0
144
0.0
144
0.0208333333333333
144
0.0
144
0.0
144
0.0
144
0.0
144
1.0
144
0.0
144
0.0
144
0.0
144
0.0
144
1.0
147
0.0208333333333333
147
0.0
147
0.0
147
0.0
147
0.0
147
0.0208333333333333
147
0.0
147
0.0
147
0.0
147
0.0
147
1.0
147
0.0
147
0.0
147
0.0
147
0.0
147
1.0
  0
MATERIAL
  5
1DF
102
{ACAD_XDICTIONARY
360
1E0
102
}
102
{ACAD_REACTORS
330
1CE
102
}
330
1CE
100
AcDbMaterial
  1
Global
 72
     0
 43
0.0208333333333333
 43
0.0
 43
0.0
 43
0.0
 43
0.0
 43
0.0208333333333333
 43
0.0
 43
0.0
 43
0.0
 43
0.0
 43
1.0
 43
0.0
 43
0.0
 43
0.0
 43
0.0
 43
1.0
 77
     0
 47
0.0208333333333333
 47
0.0
 47
0.0
 47
0.0
 47
0.0
 47
0.0208333333333333
 47
0.0
 47
0.0
 47
0.0
 47
0.0
 47
1.0
 47
0.0
 47
0.0
 47
0.0
 47
0.0
 47
1.0
171
     0
 49
0.0208333333333333
 49
0.0
 49
0.0
 49
0.0
 49
0.0
 49
0.0208333333333333
 49
0.0
 49
0.0
 49
0.0
 49
0.0
 49
1.0
 49
0.0
 49
0.0
 49
0.0
 49
0.0
 49
1.0
175
     0
142
0.0208333333333333
142
0.0
142
0.0
142
0.0
142
0.0
142
0.0208333333333333
142
0.0
142
0.0
142
0.0
142
0.0
142
1.0
142
0.0
142
0.0
142
0.0
142
0.0
142
1.0
179
     0
144
0.0208333333333333
144
0.0
144
0.0
144
0.0
144
0.0
144
0.0208333333333333
144
0.0
144
0.0
144
0.0
144
0.0
144
1.0
144
0.0
144
0.0
144
0.0
144
0.0
144
1.0
147
0.0208333333333333
147
0.0
147
0.0
147
0.0
147
0.0
147
0.0208333333333333
147
0.0
147
0.0
147
0.0
147
0.0
147
1.0
147
0.0
147
0.0
147
0.0
147
0.0
147
1.0
  0
MLEADERSTYLE
  5
217
102
{ACAD_REACTORS
330
216
102
}
330
216
100
AcDbMLeaderStyle
179
     2
170
     2
171
     1
172
     0
 90
        2
 40
0.0
 41
0.0
173
     1
 91
-1056964608
340
1A8
 92
       -2
290
     1
 42
0.09
291
     1
 43
0.36
  3
Standard
 44
0.18
300

342
A
174
     1
178
     6
175
     1
176
     0
 93
-1056964608
 45
0.18
292
     0
297
     0
 46
0.18
 94
-1056964608
 47
1.0
 49
1.0
140
1.0
293
     1
141
0.0
294
     1
177
     0
142
1.0
295
     0
296
     0
143
0.125
271
     0
272
     9
273
     9
298
     1
  0
DICTIONARY
  5
1B6
330
1B5
100
AcDbDictionary
280
     1
281
     1
  0
MLINESTYLE
  5
1BA
102
{ACAD_REACTORS
330
1B5
102
}
330
1B5
100
AcDbMlineStyle
  2
STANDARD
 70
     0
  3

 62
   256
 51
90.0
 52
90.0
 71
     2
 49
0.5
 62
   256
  6
BYLAYER
 49
-0.5
 62
   256
  6
BYLAYER
  0
PLOTSETTINGS
  5
19B0
102
{ACAD_REACTORS
330
21C
102
}
330
21C
100
AcDbPlotSettings
  1
A4
  2
DWG To PDF.pc3
  4
ISO_A4_(210.00_x_297.00_MM)
  6

 40
0.0
 41
0.0
 42
0.0
 43
0.0
 44
210.0
 45
297.0
 46
0.0
 47
0.0
 48
0.0
 49
0.0
140
0.0
141
0.0
142
1.0
143
1.0
 70
  2720
 72
     1
 73
     0
 74
     5
  7
monochrome.ctb
 75
    16
147
25.4
 76
     0
 77
     2
 78
   300
148
0.0
149
0.0
1001
ACAD_PSEXT
1000
DWG To PDF.pc3
1000
DWG To PDF
1000
File
1000

1070
     0
1001
PLOTTRANSPARENCY
1071
        1
  0
ACDBPLACEHOLDER
  5
1CD
102
{ACAD_REACTORS
330
1CC
102
}
330
1CC
  0
SCALE
  5
205
102
{ACAD_REACTORS
330
204
102
}
330
204
100
AcDbScale
 70
     0
300
1:1
140
1.0
141
1.0
290
     1
  0
SCALE
  5
26CDE
102
{ACAD_REACTORS
330
204
102
}
330
204
100
AcDbScale
 70
     0
300
1; 5.5
140
1.0
141
5.5
290
     0
  0
SCALE
  5
26CDF
102
{ACAD_REACTORS
330
204
102
}
330
204
100
AcDbScale
 70
     0
300
1:6.5
140
1.0
141
6.5
290
     0
  0
SCALE
  5
26CE0
102
{ACAD_REACTORS
330
204
102
}
330
204
100
AcDbScale
 70
     0
300
6.5
140
1.0
141
1.0
290
     0
  0
SCALE
  5
26CE1
102
{ACAD_REACTORS
330
204
102
}
330
204
100
AcDbScale
 70
     0
300
1:7
140
1.0
141
7.0
290
     0
  0
SCALE
  5
20325
102
{ACAD_REACTORS
330
204
102
}
330
204
100
AcDbScale
 70
     0
300
1:6
140
1.0
141
6.0
290
     0
  0
SCALE
  5
26CE2
102
{ACAD_REACTORS
330
204
102
}
330
204
100
AcDbScale
 70
     0
300
1:8
140
1.0
141
8.0
290
     0
  0
SCALE
  5
26CE3
102
{ACAD_REACTORS
330
204
102
}
330
204
100
AcDbScale
 70
     0
300
1:5
140
1.0
141
5.0
290
     0
  0
SCALE
  5
26CE4
102
{ACAD_REACTORS
330
204
102
}
330
204
100
AcDbScale
 70
     0
300
1:3.5
140
1.0
141
3.5
290
     0
  0
SCALE
  5
26CE5
102
{ACAD_REACTORS
330
204
102
}
330
204
100
AcDbScale
 70
     0
300
1:4
140
1.0
141
4.0
290
     0
  0
SCALE
  5
26CE6
102
{ACAD_REACTORS
330
204
102
}
330
204
100
AcDbScale
 70
     0
300
1:3
140
1.0
141
3.0
290
     0
  0
SCALE
  5
26CE7
102
{ACAD_REACTORS
330
204
102
}
330
204
100
AcDbScale
 70
     0
300
1:2.5
140
1.0
141
2.5
290
     0
  0
SCALE
  5
26CE8
102
{ACAD_REACTORS
330
204
102
}
330
204
100
AcDbScale
 70
     0
300
1:2
140
1.0
141
2.0
290
     0
  0
SCALE
  5
26CE9
102
{ACAD_REACTORS
330
204
102
}
330
204
100
AcDbScale
 70
     0
300
1/128" = 1'-0"
140
0.0078125
141
12.0
290
     0
  0
SCALE
  5
26CEA
102
{ACAD_REACTORS
330
204
102
}
330
204
100
AcDbScale
 70
     0
300
1/64" = 1'-0"
140
0.015625
141
12.0
290
     0
  0
SCALE
  5
26CEB
102
{ACAD_REACTORS
330
204
102
}
330
204
100
AcDbScale
 70
     0
300
1/32" = 1'-0"
140
0.03125
141
12.0
290
     0
  0
SCALE
  5
26CEC
102
{ACAD_REACTORS
330
204
102
}
330
204
100
AcDbScale
 70
     0
300
1/16" = 1'-0"
140
0.0625
141
12.0
290
     0
  0
SCALE
  5
26CED
102
{ACAD_REACTORS
330
204
102
}
330
204
100
AcDbScale
 70
     0
300
3/32" = 1'-0"
140
0.09375
141
12.0
290
     0
  0
SCALE
  5
26CEE
102
{ACAD_REACTORS
330
204
102
}
330
204
100
AcDbScale
 70
     0
300
1/8" = 1'-0"
140
0.125
141
12.0
290
     0
  0
SCALE
  5
26CEF
102
{ACAD_REACTORS
330
204
102
}
330
204
100
AcDbScale
 70
     0
300
3/16" = 1'-0"
140
0.1875
141
12.0
290
     0
  0
SCALE
  5
26CF0
102
{ACAD_REACTORS
330
204
102
}
330
204
100
AcDbScale
 70
     0
300
1/4" = 1'-0"
140
0.25
141
12.0
290
     0
  0
SCALE
  5
26CF1
102
{ACAD_REACTORS
330
204
102
}
330
204
100
AcDbScale
 70
     0
300
3/8" = 1'-0"
140
0.375
141
12.0
290
     0
  0
SCALE
  5
26CF2
102
{ACAD_REACTORS
330
204
102
}
330
204
100
AcDbScale
 70
     0
300
1/2" = 1'-0"
140
0.5
141
12.0
290
     0
  0
SCALE
  5
26CF3
102
{ACAD_REACTORS
330
204
102
}
330
204
100
AcDbScale
 70
     0
300
3/4" = 1'-0"
140
0.75
141
12.0
290
     0
  0
SCALE
  5
26CF4
102
{ACAD_REACTORS
330
204
102
}
330
204
100
AcDbScale
 70
     0
300
1" = 1'-0"
140
1.0
141
12.0
290
     0
  0
SCALE
  5
26CF5
102
{ACAD_REACTORS
330
204
102
}
330
204
100
AcDbScale
 70
     0
300
1-1/2" = 1'-0"
140
1.5
141
12.0
290
     0
  0
SCALE
  5
26CF6
102
{ACAD_REACTORS
330
204
102
}
330
204
100
AcDbScale
 70
     0
300
3" = 1'-0"
140
3.0
141
12.0
290
     0
  0
SCALE
  5
26CF7
102
{ACAD_REACTORS
330
204
102
}
330
204
100
AcDbScale
 70
     0
300
6" = 1'-0"
140
6.0
141
12.0
290
     0
  0
SCALE
  5
26CF8
102
{ACAD_REACTORS
330
204
102
}
330
204
100
AcDbScale
 70
     0
300
1'-0" = 1'-0"
140
12.0
141
12.0
290
     0
  0
ACDBSECTIONVIEWSTYLE
  5
219
102
{ACAD_XDICTIONARY
360
296F3
102
}
102
{ACAD_REACTORS
330
218
102
}
330
218
100
AcDbModelDocViewStyle
 70
     0
  3
Imperial24
290
     0
100
AcDbSectionViewStyle
 70
     0
 71
     0
 90
       78
 71
     1
340
A
 62
   256
 40
0.24
340
0
340
0
 62
   256
 40
0.24
300
I, O, Q, S, X, Z
 40
0.48
 90
        3
 40
0.18
 90
        1
 71
     2
340
5
 90
       25
 62
   256
340
5
 90
       50
 62
   256
 40
0.24
 40
0.0
 40
0.24
 71
     3
340
A
 62
   256
 40
0.24
 90
        1
 40
0.75
 90
        1
300
%<\AcVar ViewType \f "%tc1">% %<\AcVar ViewSectionStartId>%-%<\AcVar ViewSectionEndId>%\PSCALE %<\AcVar ViewScale \f "%sn">%
 71
     4
 62
   256
 62
   257
300
ANSI31
 40
1.0
 90
        0
290
     0
290
     0
 90
        6
 40
0.0
 40
1.570796326794896
 40
0.2617993877991494
 40
1.308996938995747
 40
-0.2617993877991494
 40
1.832595714594044
  0
TABLESTYLE
  5
203
102
{ACAD_XDICTIONARY
360
1580D
102
}
102
{ACAD_REACTORS
330
202
102
}
330
202
100
AcDbTableStyle
280
     0
  3
Standard
 70
     0
 71
     0
 40
0.06
 41
0.06
280
     0
281
     0
  7
STANDARD
140
0.18
170
     2
 62
     0
 63
     7
283
     0
 90
      512
 91
        0
  1

274
    -2
284
     1
 64
     0
275
    -2
285
     1
 65
     0
276
    -2
286
     1
 66
     0
277
    -2
287
     1
 67
     0
278
    -2
288
     1
 68
     0
279
    -2
289
     1
 69
     0
  7
STANDARD
140
0.25
170
     5
 62
     0
 63
     7
283
     0
 90
      512
 91
        0
  1

274
    -2
284
     1
 64
     0
275
    -2
285
     1
 65
     0
276
    -2
286
     1
 66
     0
277
    -2
287
     1
 67
     0
278
    -2
288
     1
 68
     0
279
    -2
289
     1
 69
     0
  7
STANDARD
140
0.18
170
     5
 62
     0
 63
     7
283
     0
 90
      512
 91
        0
  1

274
    -2
284
     1
 64
     0
275
    -2
285
     1
 65
     0
276
    -2
286
     1
 66
     0
277
    -2
287
     1
 67
     0
278
    -2
288
     1
 68
     0
279
    -2
289
     1
 69
     0
  0
VISUALSTYLE
  5
1ED
102
{ACAD_REACTORS
330
1E7
102
}
330
1E7
100
AcDbVisualStyle
  2
2dWireframe
 70
     4
177
     3
291
     0
 70
    58
 90
        0
176
     1
 90
        2
176
     1
 90
        0
176
     1
 90
        0
176
     1
 40
0.6
176
     1
 40
30.0
176
     1
 62
     7
420
 16777215
176
     1
 90
        1
176
     1
 90
        4
176
     1
 62
     7
176
     1
 62
   257
176
     1
 90
        1
176
     1
 90
        1
176
     1
 40
1.0
176
     1
 90
        0
176
     1
 62
   257
176
     1
 40
1.0
176
     1
 90
        1
176
     1
 90
        6
176
     1
 90
        2
176
     1
 62
     7
176
     1
 90
        5
176
     1
 90
        0
176
     1
 90
        0
176
     1
290
     0
176
     1
 90
        1
176
     1
 40
0.0
176
     1
 90
        0
176
     1
290
     1
176
     1
290
     1
176
     1
290
     0
176
     1
290
     0
176
     1
290
     0
176
     1
290
     0
176
     1
290
     0
176
     1
290
     0
176
     1
290
     0
176
     1
 90
       50
176
     1
 40
0.0
176
     1
 40
1.0
176
     1
 90
        0
176
     1
 62
    18
176
     1
 90
       50
176
     1
 90
        3
176
     1
 62
     5
420
      255
176
     1
290
     0
176
     1
 90
       50
176
     1
 90
       50
176
     1
 90
       50
176
     1
290
     0
176
     1
 90
       50
176
     1
 62
   256
176
     0
 40
1.0
176
     0
 90
        2
176
     1
  1
strokes_ogs.tif
176
     1
290
     0
176
     1
 40
1.0
176
     1
 40
1.0
176
     1
1001
ACAD
1000
AcDbSavedByObjectVersion
1070
     0
  0
VISUALSTYLE
  5
1EC
102
{ACAD_REACTORS
330
1E7
102
}
330
1E7
100
AcDbVisualStyle
  2
Basic
 70
     7
177
     3
291
     1
 70
    58
 90
        1
176
     1
 90
        0
176
     1
 90
        1
176
     1
 90
        0
176
     1
 40
0.6
176
     1
 40
30.0
176
     1
 62
     7
420
 16777215
176
     1
 90
        0
176
     1
 90
        4
176
     1
 62
     7
176
     1
 62
   257
176
     1
 90
        1
176
     1
 90
        1
176
     1
 40
1.0
176
     1
 90
        8
176
     1
 62
     7
176
     1
 40
1.0
176
     1
 90
        1
176
     1
 90
        6
176
     1
 90
        2
176
     1
 62
     7
176
     1
 90
        5
176
     1
 90
        0
176
     1
 90
        0
176
     1
290
     0
176
     1
 90
        1
176
     1
 40
0.0
176
     1
 90
        0
176
     1
290
     0
176
     1
290
     1
176
     1
290
     1
176
     1
290
     0
176
     1
290
     0
176
     1
290
     0
176
     1
290
     0
176
     1
290
     0
176
     1
290
     0
176
     1
 90
       50
176
     1
 40
0.0
176
     1
 40
1.0
176
     1
 90
        0
176
     1
 62
    18
176
     1
 90
       50
176
     1
 90
        3
176
     1
 62
     5
420
      255
176
     1
290
     0
176
     1
 90
       50
176
     1
 90
       50
176
     1
 90
       50
176
     1
290
     0
176
     1
 90
       50
176
     1
 62
   256
176
     0
 40
1.0
176
     0
 90
        2
176
     1
  1
strokes_ogs.tif
176
     1
290
     0
176
     1
 40
1.0
176
     1
 40
1.0
176
     1
1001
ACAD
1000
AcDbSavedByObjectVersion
1070
     0
  0
VISUALSTYLE
  5
1F3
102
{ACAD_REACTORS
330
1E7
102
}
330
1E7
100
AcDbVisualStyle
  2
Brighten
 70
    12
177
     3
291
     1
 70
    58
 90
        2
176
     1
 90
        2
176
     1
 90
        0
176
     1
 90
        0
176
     1
 40
0.6
176
     1
 40
30.0
176
     1
 62
     7
420
 16777215
176
     1
 90
        1
176
     1
 90
        4
176
     1
 62
     7
176
     1
 62
   257
176
     1
 90
        1
176
     1
 90
        1
176
     1
 40
1.0
176
     1
 90
        8
176
     1
 62
     7
176
     1
 40
1.0
176
     1
 90
        1
176
     1
 90
        6
176
     1
 90
        2
176
     1
 62
     7
176
     1
 90
        5
176
     1
 90
        0
176
     1
 90
        0
176
     1
290
     0
176
     1
 90
        1
176
     1
 40
50.0
176
     1
 90
        0
176
     1
290
     0
176
     1
290
     1
176
     1
290
     1
176
     1
290
     0
176
     1
290
     0
176
     1
290
     0
176
     1
290
     0
176
     1
290
     0
176
     1
290
     0
176
     1
 90
       50
176
     1
 40
0.0
176
     1
 40
1.0
176
     1
 90
        0
176
     1
 62
    18
176
     1
 90
       50
176
     1
 90
        3
176
     1
 62
     5
420
      255
176
     1
290
     0
176
     1
 90
       50
176
     1
 90
       50
176
     1
 90
       50
176
     1
290
     0
176
     1
 90
       50
176
     1
 62
   256
176
     0
 40
1.0
176
     0
 90
        2
176
     1
  1
strokes_ogs.tif
176
     1
290
     0
176
     1
 40
1.0
176
     1
 40
1.0
176
     1
1001
ACAD
1000
AcDbSavedByObjectVersion
1070
     0
  0
VISUALSTYLE
  5
1F7
102
{ACAD_REACTORS
330
1E7
102
}
330
1E7
100
AcDbVisualStyle
  2
ColorChange
 70
    16
177
     3
291
     1
 70
    58
 90
        2
176
     1
 90
        2
176
     1
 90
        3
176
     1
 90
        0
176
     1
 40
0.6
176
     1
 40
30.0
176
     1
 62
     8
420
  8421504
176
     1
 90
        1
176
     1
 90
        4
176
     1
 62
     7
176
     1
 62
   257
176
     1
 90
        1
176
     1
 90
        1
176
     1
 40
1.0
176
     1
 90
        8
176
     1
 62
     8
420
  8421504
176
     1
 40
1.0
176
     1
 90
        1
176
     1
 90
        6
176
     1
 90
        2
176
     1
 62
     7
176
     1
 90
        5
176
     1
 90
        0
176
     1
 90
        0
176
     1
290
     0
176
     1
 90
        1
176
     1
 40
0.0
176
     1
 90
        0
176
     1
290
     0
176
     1
290
     1
176
     1
290
     1
176
     1
290
     0
176
     1
290
     0
176
     1
290
     0
176
     1
290
     0
176
     1
290
     0
176
     1
290
     0
176
     1
 90
       50
176
     1
 40
0.0
176
     1
 40
1.0
176
     1
 90
        0
176
     1
 62
    18
176
     1
 90
       50
176
     1
 90
        3
176
     1
 62
     5
420
      255
176
     1
290
     0
176
     1
 90
       50
176
     1
 90
       50
176
     1
 90
       50
176
     1
290
     0
176
     1
 90
       50
176
     1
 62
   256
176
     0
 40
1.0
176
     0
 90
        2
176
     1
  1
strokes_ogs.tif
176
     1
290
     0
176
     1
 40
1.0
176
     1
 40
1.0
176
     1
1001
ACAD
1000
AcDbSavedByObjectVersion
1070
     0
  0
VISUALSTYLE
  5
1F0
102
{ACAD_REACTORS
330
1E7
102
}
330
1E7
100
AcDbVisualStyle
  2
Conceptual
 70
     9
177
     3
291
     0
 70
    58
 90
        3
176
     1
 90
        2
176
     1
 90
        0
176
     1
 90
        0
176
     1
 40
0.6
176
     1
 40
30.0
176
     1
 62
     7
420
 16777215
176
     1
 90
        2
176
     1
 90
        2
176
     1
 62
     7
176
     1
 62
   257
176
     1
 90
        1
176
     1
 90
        1
176
     1
 40
179.0
176
     1
 90
        8
176
     1
 62
     7
176
     1
 40
1.0
176
     1
 90
        1
176
     1
 90
        6
176
     1
 90
        2
176
     1
 62
     7
176
     1
 90
        3
176
     1
 90
        0
176
     1
 90
        0
176
     1
290
     0
176
     1
 90
        1
176
     1
 40
0.0
176
     1
 90
        0
176
     1
290
     0
176
     1
290
     1
176
     1
290
     1
176
     1
290
     0
176
     1
290
     0
176
     1
290
     0
176
     1
290
     0
176
     1
290
     0
176
     1
290
     0
176
     1
 90
       50
176
     1
 40
0.0
176
     1
 40
1.0
176
     1
 90
        0
176
     1
 62
    18
176
     1
 90
       50
176
     1
 90
        3
176
     1
 62
     5
420
      255
176
     1
290
     0
176
     1
 90
       50
176
     1
 90
       50
176
     1
 90
       50
176
     1
290
     0
176
     1
 90
       50
176
     1
 62
   256
176
     0
 40
1.0
176
     0
 90
        2
176
     1
  1
strokes_ogs.tif
176
     1
290
     0
176
     1
 40
1.0
176
     1
 40
1.0
176
     1
1001
ACAD
1000
AcDbSavedByObjectVersion
1070
     0
  0
VISUALSTYLE
  5
1F2
102
{ACAD_REACTORS
330
1E7
102
}
330
1E7
100
AcDbVisualStyle
  2
Dim
 70
    11
177
     3
291
     1
 70
    58
 90
        2
176
     1
 90
        2
176
     1
 90
        0
176
     1
 90
        0
176
     1
 40
0.6
176
     1
 40
30.0
176
     1
 62
     7
420
 16777215
176
     1
 90
        1
176
     1
 90
        4
176
     1
 62
     7
176
     1
 62
   257
176
     1
 90
        1
176
     1
 90
        1
176
     1
 40
1.0
176
     1
 90
        8
176
     1
 62
     7
176
     1
 40
1.0
176
     1
 90
        1
176
     1
 90
        6
176
     1
 90
        2
176
     1
 62
     7
176
     1
 90
        5
176
     1
 90
        0
176
     1
 90
        0
176
     1
290
     0
176
     1
 90
        1
176
     1
 40
-50.0
176
     1
 90
        0
176
     1
290
     0
176
     1
290
     1
176
     1
290
     1
176
     1
290
     0
176
     1
290
     0
176
     1
290
     0
176
     1
290
     0
176
     1
290
     0
176
     1
290
     0
176
     1
 90
       50
176
     1
 40
0.0
176
     1
 40
1.0
176
     1
 90
        0
176
     1
 62
    18
176
     1
 90
       50
176
     1
 90
        3
176
     1
 62
     5
420
      255
176
     1
290
     0
176
     1
 90
       50
176
     1
 90
       50
176
     1
 90
       50
176
     1
290
     0
176
     1
 90
       50
176
     1
 62
   256
176
     0
 40
1.0
176
     0
 90
        2
176
     1
  1
strokes_ogs.tif
176
     1
290
     0
176
     1
 40
1.0
176
     1
 40
1.0
176
     1
1001
ACAD
1000
AcDbSavedByObjectVersion
1070
     0
  0
VISUALSTYLE
  5
1FF
102
{ACAD_REACTORS
330
1E7
102
}
330
1E7
100
AcDbVisualStyle
  2
EdgeColorOff
 70
    22
177
     3
291
     1
 70
    58
 90
        2
176
     0
 90
        2
176
     0
 90
        0
176
     0
 90
        0
176
     0
 40
0.6
176
     0
 40
30.0
176
     0
 62
     7
420
 16777215
176
     0
 90
        1
176
     0
 90
        4
176
     0
 62
     7
176
     0
 62
   257
176
     0
 90
        1
176
     0
 90
        1
176
     0
 40
1.0
176
     0
 90
        8
176
     2
 62
     7
176
     0
 40
1.0
176
     0
 90
        1
176
     0
 90
        6
176
     0
 90
        2
176
     0
 62
     7
176
     0
 90
        5
176
     0
 90
        0
176
     0
 90
        0
176
     0
290
     0
176
     0
 90
        1
176
     0
 40
0.0
176
     0
 90
        0
176
     0
290
     0
176
     0
290
     1
176
     0
290
     1
176
     0
290
     0
176
     0
290
     0
176
     0
290
     0
176
     0
290
     0
176
     0
290
     0
176
     0
290
     0
176
     0
 90
       50
176
     0
 40
0.0
176
     0
 40
1.0
176
     0
 90
        0
176
     0
 62
    18
176
     0
 90
       50
176
     0
 90
        3
176
     0
 62
     5
420
      255
176
     0
290
     0
176
     0
 90
       50
176
     0
 90
       50
176
     0
 90
       50
176
     0
290
     0
176
     0
 90
       50
176
     0
 62
   256
176
     0
 40
1.0
176
     0
 90
        2
176
     0
  1
strokes_ogs.tif
176
     0
290
     0
176
     0
 40
1.0
176
     0
 40
1.0
176
     0
1001
ACAD
1000
AcDbSavedByObjectVersion
1070
     0
  0
VISUALSTYLE
  5
1F6
102
{ACAD_REACTORS
330
1E7
102
}
330
1E7
100
AcDbVisualStyle
  2
Facepattern
 70
    15
177
     3
291
     1
 70
    58
 90
        2
176
     1
 90
        2
176
     1
 90
        0
176
     1
 90
        0
176
     1
 40
0.6
176
     1
 40
30.0
176
     1
 62
     7
420
 16777215
176
     1
 90
        1
176
     1
 90
        4
176
     1
 62
     7
176
     1
 62
   257
176
     1
 90
        1
176
     1
 90
        1
176
     1
 40
1.0
176
     1
 90
        8
176
     1
 62
     7
176
     1
 40
1.0
176
     1
 90
        1
176
     1
 90
        6
176
     1
 90
        2
176
     1
 62
     7
176
     1
 90
        5
176
     1
 90
        0
176
     1
 90
        0
176
     1
290
     0
176
     1
 90
        1
176
     1
 40
0.0
176
     1
 90
        0
176
     1
290
     0
176
     1
290
     1
176
     1
290
     1
176
     1
290
     0
176
     1
290
     0
176
     1
290
     0
176
     1
290
     0
176
     1
290
     0
176
     1
290
     0
176
     1
 90
       50
176
     1
 40
0.0
176
     1
 40
1.0
176
     1
 90
        0
176
     1
 62
    18
176
     1
 90
       50
176
     1
 90
        3
176
     1
 62
     5
420
      255
176
     1
290
     0
176
     1
 90
       50
176
     1
 90
       50
176
     1
 90
       50
176
     1
290
     0
176
     1
 90
       50
176
     1
 62
   256
176
     0
 40
1.0
176
     0
 90
        2
176
     1
  1
strokes_ogs.tif
176
     1
290
     0
176
     1
 40
1.0
176
     1
 40
1.0
176
     1
1001
ACAD
1000
AcDbSavedByObjectVersion
1070
     0
  0
VISUALSTYLE
  5
1E8
102
{ACAD_REACTORS
330
1E7
102
}
330
1E7
100
AcDbVisualStyle
  2
Flat
 70
     0
177
     3
291
     1
 70
    58
 90
        2
176
     1
 90
        1
176
     1
 90
        1
176
     1
 90
        2
176
     1
 40
0.6
176
     1
 40
30.0
176
     1
 62
     7
420
 16777215
176
     1
 90
        0
176
     1
 90
        0
176
     1
 62
     7
176
     1
 62
   257
176
     1
 90
        1
176
     1
 90
        1
176
     1
 40
1.0
176
     1
 90
        8
176
     1
 62
     7
176
     1
 40
1.0
176
     1
 90
        1
176
     1
 90
        6
176
     1
 90
        2
176
     1
 62
     7
176
     1
 90
        5
176
     1
 90
        0
176
     1
 90
        0
176
     1
290
     0
176
     1
 90
       13
176
     1
 40
0.0
176
     1
 90
        0
176
     1
290
     0
176
     1
290
     1
176
     1
290
     1
176
     1
290
     0
176
     1
290
     0
176
     1
290
     0
176
     1
290
     0
176
     1
290
     0
176
     1
290
     0
176
     1
 90
       50
176
     1
 40
0.0
176
     1
 40
1.0
176
     1
 90
        0
176
     1
 62
    18
176
     1
 90
       50
176
     1
 90
        3
176
     1
 62
     5
420
      255
176
     1
290
     0
176
     1
 90
       50
176
     1
 90
       50
176
     1
 90
       50
176
     1
290
     0
176
     1
 90
       50
176
     1
 62
   256
176
     0
 40
1.0
176
     0
 90
        2
176
     1
  1
strokes_ogs.tif
176
     1
290
     0
176
     1
 40
1.0
176
     1
 40
1.0
176
     1
1001
ACAD
1000
AcDbSavedByObjectVersion
1070
     0
  0
VISUALSTYLE
  5
1E9
102
{ACAD_REACTORS
330
1E7
102
}
330
1E7
100
AcDbVisualStyle
  2
FlatWithEdges
 70
     1
177
     3
291
     1
 70
    58
 90
        2
176
     1
 90
        1
176
     1
 90
        1
176
     1
 90
        2
176
     1
 40
0.6
176
     1
 40
30.0
176
     1
 62
     7
420
 16777215
176
     1
 90
        1
176
     1
 90
        0
176
     1
 62
     7
176
     1
 62
   257
176
     1
 90
        1
176
     1
 90
        1
176
     1
 40
1.0
176
     1
 90
        0
176
     1
 62
   257
176
     1
 40
1.0
176
     1
 90
        1
176
     1
 90
        6
176
     1
 90
        2
176
     1
 62
     7
176
     1
 90
        5
176
     1
 90
        0
176
     1
 90
        0
176
     1
290
     0
176
     1
 90
       13
176
     1
 40
0.0
176
     1
 90
        0
176
     1
290
     0
176
     1
290
     1
176
     1
290
     1
176
     1
290
     0
176
     1
290
     0
176
     1
290
     0
176
     1
290
     0
176
     1
290
     0
176
     1
290
     0
176
     1
 90
       50
176
     1
 40
0.0
176
     1
 40
1.0
176
     1
 90
        0
176
     1
 62
    18
176
     1
 90
       50
176
     1
 90
        3
176
     1
 62
     5
420
      255
176
     1
290
     0
176
     1
 90
       50
176
     1
 90
       50
176
     1
 90
       50
176
     1
290
     0
176
     1
 90
       50
176
     1
 62
   256
176
     0
 40
1.0
176
     0
 90
        2
176
     1
  1
strokes_ogs.tif
176
     1
290
     0
176
     1
 40
1.0
176
     1
 40
1.0
176
     1
1001
ACAD
1000
AcDbSavedByObjectVersion
1070
     0
  0
VISUALSTYLE
  5
1EA
102
{ACAD_REACTORS
330
1E7
102
}
330
1E7
100
AcDbVisualStyle
  2
Gouraud
 70
     2
177
     3
291
     1
 70
    58
 90
        2
176
     1
 90
        2
176
     1
 90
        1
176
     1
 90
        2
176
     1
 40
0.6
176
     1
 40
30.0
176
     1
 62
     7
420
 16777215
176
     1
 90
        0
176
     1
 90
        0
176
     1
 62
     7
176
     1
 62
   257
176
     1
 90
        1
176
     1
 90
        1
176
     1
 40
1.0
176
     1
 90
        0
176
     1
 62
     7
176
     1
 40
1.0
176
     1
 90
        1
176
     1
 90
        6
176
     1
 90
        2
176
     1
 62
     7
176
     1
 90
        5
176
     1
 90
        0
176
     1
 90
        0
176
     1
290
     0
176
     1
 90
       13
176
     1
 40
0.0
176
     1
 90
        0
176
     1
290
     0
176
     1
290
     1
176
     1
290
     1
176
     1
290
     0
176
     1
290
     0
176
     1
290
     0
176
     1
290
     0
176
     1
290
     0
176
     1
290
     0
176
     1
 90
       50
176
     1
 40
0.0
176
     1
 40
1.0
176
     1
 90
        0
176
     1
 62
    18
176
     1
 90
       50
176
     1
 90
        3
176
     1
 62
     5
420
      255
176
     1
290
     0
176
     1
 90
       50
176
     1
 90
       50
176
     1
 90
       50
176
     1
290
     0
176
     1
 90
       50
176
     1
 62
   256
176
     0
 40
1.0
176
     0
 90
        2
176
     1
  1
strokes_ogs.tif
176
     1
290
     0
176
     1
 40
1.0
176
     1
 40
1.0
176
     1
1001
ACAD
1000
AcDbSavedByObjectVersion
1070
     0
  0
VISUALSTYLE
  5
1EB
102
{ACAD_REACTORS
330
1E7
102
}
330
1E7
100
AcDbVisualStyle
  2
GouraudWithEdges
 70
     3
177
     3
291
     1
 70
    58
 90
        2
176
     1
 90
        2
176
     1
 90
        1
176
     1
 90
        2
176
     1
 40
0.6
176
     1
 40
30.0
176
     1
 62
     7
420
 16777215
176
     1
 90
        1
176
     1
 90
        0
176
     1
 62
     7
176
     1
 62
   257
176
     1
 90
        1
176
     1
 90
        1
176
     1
 40
1.0
176
     1
 90
        0
176
     1
 62
   257
176
     1
 40
1.0
176
     1
 90
        1
176
     1
 90
        6
176
     1
 90
        2
176
     1
 62
     7
176
     1
 90
        5
176
     1
 90
        0
176
     1
 90
        0
176
     1
290
     0
176
     1
 90
       13
176
     1
 40
0.0
176
     1
 90
        0
176
     1
290
     0
176
     1
290
     1
176
     1
290
     1
176
     1
290
     0
176
     1
290
     0
176
     1
290
     0
176
     1
290
     0
176
     1
290
     0
176
     1
290
     0
176
     1
 90
       50
176
     1
 40
0.0
176
     1
 40
1.0
176
     1
 90
        0
176
     1
 62
    18
176
     1
 90
       50
176
     1
 90
        3
176
     1
 62
     5
420
      255
176
     1
290
     0
176
     1
 90
       50
176
     1
 90
       50
176
     1
 90
       50
176
     1
290
     0
176
     1
 90
       50
176
     1
 62
   256
176
     0
 40
1.0
176
     0
 90
        2
176
     1
  1
strokes_ogs.tif
176
     1
290
     0
176
     1
 40
1.0
176
     1
 40
1.0
176
     1
1001
ACAD
1000
AcDbSavedByObjectVersion
1070
     0
  0
VISUALSTYLE
  5
1EF
102
{ACAD_REACTORS
330
1E7
102
}
330
1E7
100
AcDbVisualStyle
  2
Hidden
 70
     6
177
     3
291
     0
 70
    58
 90
        1
176
     1
 90
        2
176
     1
 90
        2
176
     1
 90
        0
176
     1
 40
0.6
176
     1
 40
30.0
176
     1
 62
     7
420
 16777215
176
     1
 90
        2
176
     1
 90
        2
176
     1
 62
     7
176
     1
 62
   257
176
     1
 90
        2
176
     1
 90
        1
176
     1
 40
40.0
176
     1
 90
        0
176
     1
 62
   257
176
     1
 40
1.0
176
     1
 90
        1
176
     1
 90
        6
176
     1
 90
        2
176
     1
 62
     7
176
     1
 90
        3
176
     1
 90
        0
176
     1
 90
        0
176
     1
290
     0
176
     1
 90
        1
176
     1
 40
0.0
176
     1
 90
        0
176
     1
290
     0
176
     1
290
     1
176
     1
290
     1
176
     1
290
     0
176
     1
290
     0
176
     1
290
     0
176
     1
290
     0
176
     1
290
     0
176
     1
290
     0
176
     1
 90
       50
176
     1
 40
0.0
176
     1
 40
1.0
176
     1
 90
        0
176
     1
 62
    18
176
     1
 90
       50
176
     1
 90
        3
176
     1
 62
     5
420
      255
176
     1
290
     0
176
     1
 90
       50
176
     1
 90
       50
176
     1
 90
       50
176
     1
290
     0
176
     1
 90
       50
176
     1
 62
   256
176
     0
 40
1.0
176
     0
 90
        2
176
     1
  1
strokes_ogs.tif
176
     1
290
     0
176
     1
 40
1.0
176
     1
 40
1.0
176
     1
1001
ACAD
1000
AcDbSavedByObjectVersion
1070
     0
  0
VISUALSTYLE
  5
1FD
102
{ACAD_REACTORS
330
1E7
102
}
330
1E7
100
AcDbVisualStyle
  2
JitterOff
 70
    20
177
     3
291
     1
 70
    58
 90
        2
176
     0
 90
        2
176
     0
 90
        0
176
     0
 90
        0
176
     0
 40
0.6
176
     0
 40
30.0
176
     0
 62
     7
420
 16777215
176
     0
 90
        1
176
     0
 90
        4
176
     0
 62
     7
176
     0
 62
   257
176
     0
 90
        1
176
     0
 90
        1
176
     0
 40
1.0
176
     0
 90
       10
176
     2
 62
     7
176
     0
 40
1.0
176
     0
 90
        1
176
     0
 90
        6
176
     0
 90
        2
176
     0
 62
     7
176
     0
 90
        5
176
     0
 90
        0
176
     0
 90
        0
176
     0
290
     0
176
     0
 90
        1
176
     0
 40
0.0
176
     0
 90
        0
176
     0
290
     0
176
     0
290
     1
176
     0
290
     1
176
     0
290
     0
176
     0
290
     0
176
     0
290
     0
176
     0
290
     0
176
     0
290
     0
176
     0
290
     0
176
     0
 90
       50
176
     0
 40
0.0
176
     0
 40
1.0
176
     0
 90
        0
176
     0
 62
    18
176
     0
 90
       50
176
     0
 90
        3
176
     0
 62
     5
420
      255
176
     0
290
     0
176
     0
 90
       50
176
     0
 90
       50
176
     0
 90
       50
176
     0
290
     0
176
     0
 90
       50
176
     0
 62
   256
176
     0
 40
1.0
176
     0
 90
        2
176
     0
  1
strokes_ogs.tif
176
     0
290
     0
176
     0
 40
1.0
176
     0
 40
1.0
176
     0
1001
ACAD
1000
AcDbSavedByObjectVersion
1070
     0
  0
VISUALSTYLE
  5
1F5
102
{ACAD_REACTORS
330
1E7
102
}
330
1E7
100
AcDbVisualStyle
  2
Linepattern
 70
    14
177
     3
291
     1
 70
    58
 90
        2
176
     1
 90
        2
176
     1
 90
        0
176
     1
 90
        0
176
     1
 40
0.6
176
     1
 40
30.0
176
     1
 62
     7
420
 16777215
176
     1
 90
        1
176
     1
 90
        4
176
     1
 62
     7
176
     1
 62
   257
176
     1
 90
        7
176
     1
 90
        7
176
     1
 40
1.0
176
     1
 90
        8
176
     1
 62
     7
176
     1
 40
1.0
176
     1
 90
        1
176
     1
 90
        6
176
     1
 90
        2
176
     1
 62
     7
176
     1
 90
        5
176
     1
 90
        0
176
     1
 90
        0
176
     1
290
     0
176
     1
 90
        1
176
     1
 40
0.0
176
     1
 90
        0
176
     1
290
     0
176
     1
290
     1
176
     1
290
     1
176
     1
290
     0
176
     1
290
     0
176
     1
290
     0
176
     1
290
     0
176
     1
290
     0
176
     1
290
     0
176
     1
 90
       50
176
     1
 40
0.0
176
     1
 40
1.0
176
     1
 90
        0
176
     1
 62
    18
176
     1
 90
       50
176
     1
 90
        3
176
     1
 62
     5
420
      255
176
     1
290
     0
176
     1
 90
       50
176
     1
 90
       50
176
     1
 90
       50
176
     1
290
     0
176
     1
 90
       50
176
     1
 62
   256
176
     0
 40
1.0
176
     0
 90
        2
176
     1
  1
strokes_ogs.tif
176
     1
290
     0
176
     1
 40
1.0
176
     1
 40
1.0
176
     1
1001
ACAD
1000
AcDbSavedByObjectVersion
1070
     0
  0
VISUALSTYLE
  5
1FE
102
{ACAD_REACTORS
330
1E7
102
}
330
1E7
100
AcDbVisualStyle
  2
OverhangOff
 70
    21
177
     3
291
     1
 70
    58
 90
        2
176
     0
 90
        2
176
     0
 90
        0
176
     0
 90
        0
176
     0
 40
0.6
176
     0
 40
30.0
176
     0
 62
     7
420
 16777215
176
     0
 90
        1
176
     0
 90
        4
176
     0
 62
     7
176
     0
 62
   257
176
     0
 90
        1
176
     0
 90
        1
176
     0
 40
1.0
176
     0
 90
        9
176
     2
 62
     7
176
     0
 40
1.0
176
     0
 90
        1
176
     0
 90
        6
176
     0
 90
        2
176
     0
 62
     7
176
     0
 90
        5
176
     0
 90
        0
176
     0
 90
        0
176
     0
290
     0
176
     0
 90
        1
176
     0
 40
0.0
176
     0
 90
        0
176
     0
290
     0
176
     0
290
     1
176
     0
290
     1
176
     0
290
     0
176
     0
290
     0
176
     0
290
     0
176
     0
290
     0
176
     0
290
     0
176
     0
290
     0
176
     0
 90
       50
176
     0
 40
0.0
176
     0
 40
1.0
176
     0
 90
        0
176
     0
 62
    18
176
     0
 90
       50
176
     0
 90
        3
176
     0
 62
     5
420
      255
176
     0
290
     0
176
     0
 90
       50
176
     0
 90
       50
176
     0
 90
       50
176
     0
290
     0
176
     0
 90
       50
176
     0
 62
   256
176
     0
 40
1.0
176
     0
 90
        2
176
     0
  1
strokes_ogs.tif
176
     0
290
     0
176
     0
 40
1.0
176
     0
 40
1.0
176
     0
1001
ACAD
1000
AcDbSavedByObjectVersion
1070
     0
  0
VISUALSTYLE
  5
1F1
102
{ACAD_REACTORS
330
1E7
102
}
330
1E7
100
AcDbVisualStyle
  2
Realistic
 70
     8
177
     3
291
     0
 70
    58
 90
        2
176
     1
 90
        2
176
     1
 90
        0
176
     1
 90
        2
176
     1
 40
0.6
176
     1
 40
30.0
176
     1
 62
     7
420
 16777215
176
     1
 90
        0
176
     1
 90
        0
176
     1
 62
     7
176
     1
 62
   257
176
     1
 90
        1
176
     1
 90
        1
176
     1
 40
1.0
176
     1
 90
        8
176
     1
 62
   257
176
     1
 40
1.0
176
     1
 90
        1
176
     1
 90
        6
176
     1
 90
        2
176
     1
 62
     7
176
     1
 90
        3
176
     1
 90
        0
176
     1
 90
        0
176
     1
290
     0
176
     1
 90
       13
176
     1
 40
0.0
176
     1
 90
        0
176
     1
290
     0
176
     1
290
     1
176
     1
290
     1
176
     1
290
     0
176
     1
290
     0
176
     1
290
     0
176
     1
290
     0
176
     1
290
     0
176
     1
290
     0
176
     1
 90
       50
176
     1
 40
0.0
176
     1
 40
1.0
176
     1
 90
        0
176
     1
 62
    18
176
     1
 90
       50
176
     1
 90
        3
176
     1
 62
     5
420
      255
176
     1
290
     0
176
     1
 90
       50
176
     1
 90
       50
176
     1
 90
       50
176
     1
290
     0
176
     1
 90
       50
176
     1
 62
   256
176
     0
 40
1.0
176
     0
 90
        2
176
     1
  1
strokes_ogs.tif
176
     1
290
     0
176
     1
 40
1.0
176
     1
 40
1.0
176
     1
1001
ACAD
1000
AcDbSavedByObjectVersion
1070
     0
  0
VISUALSTYLE
  5
1FC
102
{ACAD_REACTORS
330
1E7
102
}
330
1E7
100
AcDbVisualStyle
  2
Shaded
 70
    27
177
     3
291
     0
 70
    58
 90
        2
176
     1
 90
        2
176
     1
 90
        1
176
     1
 90
        2
176
     1
 40
0.6
176
     1
 40
30.0
176
     1
 62
     7
420
 16777215
176
     1
 90
        0
176
     1
 90
        4
176
     1
 62
     7
176
     1
 62
   257
176
     1
 90
        1
176
     1
 90
        1
176
     1
 40
1.0
176
     1
 90
        8
176
     1
 62
   257
176
     1
 40
1.0
176
     1
 90
        1
176
     1
 90
        6
176
     1
 90
        2
176
     1
 62
     8
420
  7895160
176
     1
 90
        3
176
     1
 90
        0
176
     1
 90
        0
176
     1
290
     0
176
     1
 90
        5
176
     1
 40
0.0
176
     1
 90
        0
176
     1
290
     0
176
     1
290
     1
176
     1
290
     1
176
     1
290
     0
176
     1
290
     0
176
     1
290
     0
176
     1
290
     0
176
     1
290
     0
176
     1
290
     0
176
     1
 90
       50
176
     1
 40
0.0
176
     1
 40
1.0
176
     1
 90
        0
176
     1
 62
    18
176
     1
 90
       50
176
     1
 90
        3
176
     1
 62
     5
420
      255
176
     1
290
     0
176
     1
 90
       50
176
     1
 90
       50
176
     1
 90
       50
176
     1
290
     0
176
     1
 90
       50
176
     1
 62
   256
176
     0
 40
1.0
176
     0
 90
        2
176
     1
  1
strokes_ogs.tif
176
     1
290
     0
176
     1
 40
1.0
176
     1
 40
1.0
176
     1
1001
ACAD
1000
AcDbSavedByObjectVersion
1070
     0
  0
VISUALSTYLE
  5
1FB
102
{ACAD_REACTORS
330
1E7
102
}
330
1E7
100
AcDbVisualStyle
  2
Shaded with edges
 70
    26
177
     3
291
     0
 70
    58
 90
        2
176
     1
 90
        2
176
     1
 90
        1
176
     1
 90
        2
176
     1
 40
0.6
176
     1
 40
30.0
176
     1
 62
     7
420
 16777215
176
     1
 90
        1
176
     1
 90
        2
176
     1
 62
     7
176
     1
 62
   257
176
     1
 90
        2
176
     1
 90
        1
176
     1
 40
1.0
176
     1
 90
        8
176
     1
 62
   257
176
     1
 40
1.0
176
     1
 90
        1
176
     1
 90
        6
176
     1
 90
        2
176
     1
 62
     7
176
     1
 90
        3
176
     1
 90
        0
176
     1
 90
        0
176
     1
290
     0
176
     1
 90
        5
176
     1
 40
0.0
176
     1
 90
        0
176
     1
290
     0
176
     1
290
     1
176
     1
290
     1
176
     1
290
     0
176
     1
290
     0
176
     1
290
     0
176
     1
290
     0
176
     1
290
     0
176
     1
290
     0
176
     1
 90
       50
176
     1
 40
0.0
176
     1
 40
1.0
176
     1
 90
        0
176
     1
 62
    18
176
     1
 90
       50
176
     1
 90
        3
176
     1
 62
     5
420
      255
176
     1
290
     0
176
     1
 90
       50
176
     1
 90
       50
176
     1
 90
       50
176
     1
290
     0
176
     1
 90
       50
176
     1
 62
   256
176
     0
 40
1.0
176
     0
 90
        2
176
     1
  1
strokes_ogs.tif
176
     1
290
     0
176
     1
 40
1.0
176
     1
 40
1.0
176
     1
1001
ACAD
1000
AcDbSavedByObjectVersion
1070
     0
  0
VISUALSTYLE
  5
1F8
102
{ACAD_REACTORS
330
1E7
102
}
330
1E7
100
AcDbVisualStyle
  2
Shades of Gray
 70
    23
177
     3
291
     0
 70
    58
 90
        2
176
     1
 90
        2
176
     1
 90
        3
176
     1
 90
        0
176
     1
 40
0.6
176
     1
 40
30.0
176
     1
 62
     7
420
 16777215
176
     1
 90
        2
176
     1
 90
        2
176
     1
 62
     7
176
     1
 62
     7
176
     1
 90
        1
176
     1
 90
        1
176
     1
 40
40.0
176
     1
 90
        8
176
     1
 62
     7
176
     1
 40
1.0
176
     1
 90
        1
176
     1
 90
        6
176
     1
 90
        2
176
     1
 62
     7
176
     1
 90
        3
176
     1
 90
        0
176
     1
 90
        0
176
     1
290
     0
176
     1
 90
        1
176
     1
 40
0.0
176
     1
 90
        0
176
     1
290
     0
176
     1
290
     1
176
     1
290
     1
176
     1
290
     0
176
     1
290
     0
176
     1
290
     0
176
     1
290
     0
176
     1
290
     0
176
     1
290
     0
176
     1
 90
       50
176
     1
 40
0.0
176
     1
 40
1.0
176
     1
 90
        0
176
     1
 62
    18
176
     1
 90
       50
176
     1
 90
        3
176
     1
 62
     5
420
      255
176
     1
290
     0
176
     1
 90
       50
176
     1
 90
       50
176
     1
 90
       50
176
     1
290
     0
176
     1
 90
       50
176
     1
 62
   256
176
     0
 40
1.0
176
     0
 90
        2
176
     1
  1
strokes_ogs.tif
176
     1
290
     0
176
     1
 40
1.0
176
     1
 40
1.0
176
     1
1001
ACAD
1000
AcDbSavedByObjectVersion
1070
     0
  0
VISUALSTYLE
  5
1F9
102
{ACAD_REACTORS
330
1E7
102
}
330
1E7
100
AcDbVisualStyle
  2
Sketchy
 70
    24
177
     3
291
     0
 70
    58
 90
        1
176
     1
 90
        2
176
     1
 90
        2
176
     1
 90
        0
176
     1
 40
0.6
176
     1
 40
30.0
176
     1
 62
     7
420
 16777215
176
     1
 90
        2
176
     1
 90
        2
176
     1
 62
     7
176
     1
 62
     7
176
     1
 90
        1
176
     1
 90
        1
176
     1
 40
40.0
176
     1
 90
       11
176
     1
 62
     7
176
     1
 40
1.0
176
     1
 90
        1
176
     1
 90
        6
176
     1
 90
        2
176
     1
 62
     7
176
     1
 90
        6
176
     1
 90
        0
176
     1
 90
        0
176
     1
290
     0
176
     1
 90
        1
176
     1
 40
0.0
176
     1
 90
        0
176
     1
290
     0
176
     1
290
     1
176
     1
290
     1
176
     1
290
     0
176
     1
290
     0
176
     1
290
     0
176
     1
290
     0
176
     1
290
     0
176
     1
290
     0
176
     1
 90
       50
176
     1
 40
0.0
176
     1
 40
1.0
176
     1
 90
        0
176
     1
 62
    18
176
     1
 90
       50
176
     1
 90
        3
176
     1
 62
     5
420
      255
176
     1
290
     0
176
     1
 90
       50
176
     1
 90
       50
176
     1
 90
       50
176
     1
290
     0
176
     1
 90
       50
176
     1
 62
   256
176
     0
 40
1.0
176
     0
 90
        2
176
     1
  1
strokes_ogs.tif
176
     1
290
     0
176
     1
 40
1.0
176
     1
 40
1.0
176
     1
1001
ACAD
1000
AcDbSavedByObjectVersion
1070
     0
  0
VISUALSTYLE
  5
1F4
102
{ACAD_REACTORS
330
1E7
102
}
330
1E7
100
AcDbVisualStyle
  2
Thicken
 70
    13
177
     3
291
     1
 70
    58
 90
        2
176
     1
 90
        2
176
     1
 90
        0
176
     1
 90
        0
176
     1
 40
0.6
176
     1
 40
30.0
176
     1
 62
     7
420
 16777215
176
     1
 90
        1
176
     1
 90
        4
176
     1
 62
     7
176
     1
 62
   257
176
     1
 90
        1
176
     1
 90
        1
176
     1
 40
1.0
176
     1
 90
       12
176
     1
 62
     7
176
     1
 40
1.0
176
     1
 90
        1
176
     1
 90
        6
176
     1
 90
        2
176
     1
 62
     7
176
     1
 90
        5
176
     1
 90
        0
176
     1
 90
        0
176
     1
290
     0
176
     1
 90
        1
176
     1
 40
0.0
176
     1
 90
        0
176
     1
290
     0
176
     1
290
     1
176
     1
290
     1
176
     1
290
     0
176
     1
290
     0
176
     1
290
     0
176
     1
290
     0
176
     1
290
     0
176
     1
290
     0
176
     1
 90
       50
176
     1
 40
0.0
176
     1
 40
1.0
176
     1
 90
        0
176
     1
 62
    18
176
     1
 90
       50
176
     1
 90
        3
176
     1
 62
     5
420
      255
176
     1
290
     0
176
     1
 90
       50
176
     1
 90
       50
176
     1
 90
       50
176
     1
290
     0
176
     1
 90
       50
176
     1
 62
   256
176
     0
 40
1.0
176
     0
 90
        2
176
     1
  1
strokes_ogs.tif
176
     1
290
     0
176
     1
 40
1.0
176
     1
 40
1.0
176
     1
1001
ACAD
1000
AcDbSavedByObjectVersion
1070
     0
  0
VISUALSTYLE
  5
1EE
102
{ACAD_REACTORS
330
1E7
102
}
330
1E7
100
AcDbVisualStyle
  2
Wireframe
 70
     5
177
     3
291
     0
 70
    58
 90
        0
176
     1
 90
        2
176
     1
 90
        0
176
     1
 90
        0
176
     1
 40
0.6
176
     1
 40
30.0
176
     1
 62
     7
420
 16777215
176
     1
 90
        1
176
     1
 90
        4
176
     1
 62
     7
176
     1
 62
   257
176
     1
 90
        1
176
     1
 90
        1
176
     1
 40
1.0
176
     1
 90
        0
176
     1
 62
   257
176
     1
 40
1.0
176
     1
 90
        1
176
     1
 90
        6
176
     1
 90
        2
176
     1
 62
     7
176
     1
 90
        3
176
     1
 90
        0
176
     1
 90
        0
176
     1
290
     0
176
     1
 90
        1
176
     1
 40
0.0
176
     1
 90
        0
176
     1
290
     0
176
     1
290
     1
176
     1
290
     1
176
     1
290
     0
176
     1
290
     0
176
     1
290
     0
176
     1
290
     0
176
     1
290
     0
176
     1
290
     0
176
     1
 90
       50
176
     1
 40
0.0
176
     1
 40
1.0
176
     1
 90
        0
176
     1
 62
    18
176
     1
 90
       50
176
     1
 90
        3
176
     1
 62
     5
420
      255
176
     1
290
     0
176
     1
 90
       50
176
     1
 90
       50
176
     1
 90
       50
176
     1
290
     0
176
     1
 90
       50
176
     1
 62
   256
176
     0
 40
1.0
176
     0
 90
        2
176
     1
  1
strokes_ogs.tif
176
     1
290
     0
176
     1
 40
1.0
176
     1
 40
1.0
176
     1
1001
ACAD
1000
AcDbSavedByObjectVersion
1070
     0
  0
VISUALSTYLE
  5
1FA
102
{ACAD_REACTORS
330
1E7
102
}
330
1E7
100
AcDbVisualStyle
  2
X-Ray
 70
    25
177
     3
291
     0
 70
    58
 90
        2
176
     1
 90
        2
176
     1
 90
        1
176
     1
 90
        1
176
     1
 40
0.5
176
     1
 40
30.0
176
     1
 62
     7
420
 16777215
176
     1
 90
        1
176
     1
 90
        0
176
     1
 62
     7
176
     1
 62
   257
176
     1
 90
        1
176
     1
 90
        1
176
     1
 40
1.0
176
     1
 90
        8
176
     1
 62
     7
176
     1
 40
1.0
176
     1
 90
        1
176
     1
 90
        6
176
     1
 90
        2
176
     1
 62
     7
176
     1
 90
        3
176
     1
 90
        0
176
     1
 90
        0
176
     1
290
     0
176
     1
 90
       13
176
     1
 40
0.0
176
     1
 90
        0
176
     1
290
     0
176
     1
290
     1
176
     1
290
     1
176
     1
290
     0
176
     1
290
     0
176
     1
290
     0
176
     1
290
     0
176
     1
290
     0
176
     1
290
     0
176
     1
 90
       50
176
     1
 40
0.0
176
     1
 40
1.0
176
     1
 90
        0
176
     1
 62
    18
176
     1
 90
       50
176
     1
 90
        3
176
     1
 62
     5
420
      255
176
     1
290
     0
176
     1
 90
       50
176
     1
 90
       50
176
     1
 90
       50
176
     1
290
     0
176
     1
 90
       50
176
     1
 62
   256
176
     0
 40
1.0
176
     0
 90
        2
176
     1
  1
strokes_ogs.tif
176
     1
290
     0
176
     1
 40
1.0
176
     1
 40
1.0
176
     1
1001
ACAD
1000
AcDbSavedByObjectVersion
1070
     0
  0
DICTIONARYVAR
  5
7DC
102
{ACAD_REACTORS
330
7D6
102
}
330
7D6
100
DictionaryVariables
280
     0
  1
1:1
  0
DICTIONARYVAR
  5
7D8
102
{ACAD_REACTORS
330
7D6
102
}
330
7D6
100
DictionaryVariables
280
     0
  1
STANDARD
  0
DICTIONARYVAR
  5
7D7
102
{ACAD_REACTORS
330
7D6
102
}
330
7D6
100
DictionaryVariables
280
     0
  1
STANDARD
  0
DICTIONARYVAR
  5
7D9
102
{ACAD_REACTORS
330
7D6
102
}
330
7D6
100
DictionaryVariables
280
     0
  1
Imperial24
  0
DICTIONARYVAR
  5
7DA
102
{ACAD_REACTORS
330
7D6
102
}
330
7D6
100
DictionaryVariables
280
     0
  1
Imperial24
  0
DICTIONARYVAR
  5
7DE
102
{ACAD_REACTORS
330
7D6
102
}
330
7D6
100
DictionaryVariables
280
     0
  1
1
  0
DICTIONARYVAR
  5
7DF
102
{ACAD_REACTORS
330
7D6
102
}
330
7D6
100
DictionaryVariables
280
     0
  1
15
  0
DICTIONARYVAR
  5
7DD
102
{ACAD_REACTORS
330
7D6
102
}
330
7D6
100
DictionaryVariables
280
     0
  1
0
  0
DICTIONARYVAR
  5
7DB
102
{ACAD_REACTORS
330
7D6
102
}
330
7D6
100
DictionaryVariables
280
     0
  1
0
  0
DICTIONARY
  5
296F2
102
{ACAD_REACTORS
330
296F0
102
}
330
296F0
100
AcDbDictionary
281
     1
  0
DICTIONARY
  5
296F1
102
{ACAD_REACTORS
330
296F0
102
}
330
296F0
100
AcDbDictionary
281
     1
  3
1421899484336
350
296EB
  3
1421899484352
350
296EC
  3
1421899484368
350
296ED
  3
1421899484384
350
296EE
  3
1421899484400
350
296EF
  0
DICTIONARY
  5
296F5
330
21B
100
AcDbDictionary
280
     1
281
     1
  3
ACAD_XREC_ROUNDTRIP
360
296F6
  0
DICTIONARY
  5
252F5
330
21E
100
AcDbDictionary
280
     1
281
     1
  0
DICTIONARY
  5
237AD
330
21D
100
AcDbDictionary
280
     1
281
     1
  0
DICTIONARY
  5
1D8
330
1D7
100
AcDbDictionary
280
     1
281
     1
  3
BUMPTILE
360
1DA
  3
DIFFUSETILE
360
1D9
  3
OPACITYTILE
360
1DD
  3
REFLECTIONTILE
360
1DC
  3
REFRACTIONTILE
360
1DE
  3
SPECULARTILE
360
1DB
  0
DICTIONARY
  5
1D0
330
1CF
100
AcDbDictionary
280
     1
281
     1
  3
BUMPTILE
360
1D2
  3
DIFFUSETILE
360
1D1
  3
OPACITYTILE
360
1D5
  3
REFLECTIONTILE
360
1D4
  3
REFRACTIONTILE
360
1D6
  3
SPECULARTILE
360
1D3
  0
DICTIONARY
  5
1E0
330
1DF
100
AcDbDictionary
280
     1
281
     1
  3
BUMPTILE
360
1E2
  3
DIFFUSETILE
360
1E1
  3
FBXASSET
360
698
  3
OPACITYTILE
360
1E5
  3
REFLECTIONTILE
360
1E4
  3
REFRACTIONTILE
360
1E6
  3
SPECULARTILE
360
1E3
  0
DICTIONARY
  5
296F3
330
219
100
AcDbDictionary
280
     1
281
     1
  3
ACAD_XREC_ROUNDTRIP
360
296F4
  0
DICTIONARY
  5
1580D
330
203
100
AcDbDictionary
280
     1
281
     1
  3
ACAD_ROUNDTRIP_2008_TABLESTYLE_CELLSTYLEMAP
360
296E9
  0
XRECORD
  5
296EB
102
{ACAD_REACTORS
330
296F1
102
}
330
296F1
100
AcDbXrecord
280
     1
  1
AcDb_Thumbnail_Schema
102
{ATTRRECORD
341
296EC
  2
AcDbDs::TreatedAsObjectData
280
     1
291
     1
102
ATTRRECORD}
102
{ATTRRECORD
341
296ED
  2
AcDbDs::Legacy
280
     1
291
     1
102
ATTRRECORD}
  2
AcDbDs::ID
280
    10
 91
        8
102
{ATTRRECORD
341
296EE
  2
AcDs:Indexable
280
     1
291
     1
102
ATTRRECORD}
102
{ATTRRECORD
341
296EF
  2
AcDbDs::HandleAttribute
280
     7
282
     1
102
ATTRRECORD}
  2
Thumbnail_Data
280
    15
 91
        0
  0
XRECORD
  5
296EC
102
{ACAD_REACTORS
330
296F1
102
}
330
296F1
100
AcDbXrecord
280
     1
  1
AcDbDs::TreatedAsObjectDataSchema
  2
AcDbDs::TreatedAsObjectData
280
     1
 91
        0
  0
XRECORD
  5
296ED
102
{ACAD_REACTORS
330
296F1
102
}
330
296F1
100
AcDbXrecord
280
     1
  1
AcDbDs::LegacySchema
  2
AcDbDs::Legacy
280
     1
 91
        0
  0
XRECORD
  5
296EE
102
{ACAD_REACTORS
330
296F1
102
}
330
296F1
100
AcDbXrecord
280
     1
  1
AcDbDs::IndexedPropertySchema
  2
AcDs:Indexable
280
     1
 91
        0
  0
XRECORD
  5
296EF
102
{ACAD_REACTORS
330
296F1
102
}
330
296F1
100
AcDbXrecord
280
     1
  1
AcDbDs::HandleAttributeSchema
  2
AcDbDs::HandleAttribute
280
     7
 91
        1
284
     1
  0
XRECORD
  5
296F6
102
{ACAD_REACTORS
330
296F5
102
}
330
296F5
100
AcDbXrecord
280
     1
102
DISPLAYNAME
  1
Imperial24
102
FLAGS
 90
        0
  0
XRECORD
  5
1DA
102
{ACAD_REACTORS
330
1D8
102
}
330
1D8
100
AcDbXrecord
280
     1
270
     1
271
     1
  0
XRECORD
  5
1D9
102
{ACAD_REACTORS
330
1D8
102
}
330
1D8
100
AcDbXrecord
280
     1
270
     1
271
     1
  0
XRECORD
  5
1DD
102
{ACAD_REACTORS
330
1D8
102
}
330
1D8
100
AcDbXrecord
280
     1
270
     1
271
     1
  0
XRECORD
  5
1DC
102
{ACAD_REACTORS
330
1D8
102
}
330
1D8
100
AcDbXrecord
280
     1
270
     1
271
     1
  0
XRECORD
  5
1DE
102
{ACAD_REACTORS
330
1D8
102
}
330
1D8
100
AcDbXrecord
280
     1
270
     1
271
     1
  0
XRECORD
  5
1DB
102
{ACAD_REACTORS
330
1D8
102
}
330
1D8
100
AcDbXrecord
280
     1
270
     1
271
     1
  0
XRECORD
  5
1D2
102
{ACAD_REACTORS
330
1D0
102
}
330
1D0
100
AcDbXrecord
280
     1
270
     1
271
     1
  0
XRECORD
  5
1D1
102
{ACAD_REACTORS
330
1D0
102
}
330
1D0
100
AcDbXrecord
280
     1
270
     1
271
     1
  0
XRECORD
  5
1D5
102
{ACAD_REACTORS
330
1D0
102
}
330
1D0
100
AcDbXrecord
280
     1
270
     1
271
     1
  0
XRECORD
  5
1D4
102
{ACAD_REACTORS
330
1D0
102
}
330
1D0
100
AcDbXrecord
280
     1
270
     1
271
     1
  0
XRECORD
  5
1D6
102
{ACAD_REACTORS
330
1D0
102
}
330
1D0
100
AcDbXrecord
280
     1
270
     1
271
     1
  0
XRECORD
  5
1D3
102
{ACAD_REACTORS
330
1D0
102
}
330
1D0
100
AcDbXrecord
280
     1
270
     1
271
     1
  0
XRECORD
  5
1E2
102
{ACAD_REACTORS
330
1E0
102
}
330
1E0
100
AcDbXrecord
280
     1
270
     1
271
     1
  0
XRECORD
  5
1E1
102
{ACAD_REACTORS
330
1E0
102
}
330
1E0
100
AcDbXrecord
280
     1
270
     1
271
     1
  0
XRECORD
  5
698
102
{ACAD_REACTORS
330
1E0
102
}
330
1E0
100
AcDbXrecord
280
     1
 70
     1
 90
1959938040
 71
     1
  1
C78627C1-2952-4250-AD13-4433CC6D3613
311
504B03041400060808002249EE528CA2DDAA35010000A80100004F00000045394646434135312D324339412D344237452D384246362D4437463232453434324342392F4173736574446174612F446566696E6974696F6E4974657261746F7250726F706572746965732E62696E35504B4EC330101D588058B040E2002CD89A
311
241E27699010CA97151B38007283A7AD94A655D3882D4BAE3077F29D8C2DCA48CFF37B33F3E41F007027F3219C797CFBF7DAFB17339AC3A67FEFD766ABE1225486DD520FF73E2ABB58658D94A22D168D50599A89AA4D5391C749829D8A2B55C973CFBBF4680CE979388695AF9BA937C3A047B39BA71B5F38DDB8DBEAA3BFA5
311
878730740510DCB707FC37A6B069F5A72888FCF2D09FFBC7673D4DE6F814B545D7D5659A085917A55055DE8A45D565A2C93B295BA5645D15D19B9976F3A1375354E78B4CE6B5A717A9144AA6B1289B04855288759D359825181DD773F89ADB206339EACD10C5D149C2C77E5C31A12574444084148C892C912306620C1933B1
311
257664812C86A665B296AC2307E4D073C931394BCE31000386516006CBE0188111C326FC05504B03041400060808002249EE52F6B7F04515010000300200004500000045394646434135312D324339412D344237452D384246362D4437463232453434324342392F4173736574446174612F496E7374616E636550726F7065
311
72746965732E62696EEB606060F80F0540260323103700495E20ED9E9A975A94991C9C9C919A9BA802147036B73033327736D435B23435D235313235D075743134D6353131367676367331363334664768046931363471713532B5D435052AD235313332D475727372D13534373670367376B67474B5042A03DBCBA019D37F
311
E8ABC6157B20CD04146B0062181F4C03F940F0C11EA29A8141C08141002C0426541C106CAC2CA046088033B02A030AC2157C6006F21A8018AAF50194E6010A610250382264E08660284CD9E98021862280A91564B406929A0FF62C401E28B6F88038B83CB1243943D7A928312F25350524030321A91525F1AE29E9A9FE7E30
311
2114DABD28B120233EC8DD29A0283F0D4506C281C8BBA4966526A70255310000504B03041400060808002249EE5288E57597CD3F0000904100006B00000045394646434135312D324339412D344237452D384246362D4437463232453434324342392F5265736F75726365732F43373836323743312D323935322D34323530
311
2D414431332D3434333343433644333631332F7468756D626E61696C2F302F67656E657269635F706E67355B773CD4FF1FBF73E71C0E67EF7576C9DEF3EC995D46C6A1EC5046649CBDF79E192942562825CE965D8A868C2842C8DE9FDFD1F7E7F138F7078FCF6B3F5FCFD7EBFDFEC41B196891913091804020321D6D7513FC
311
77D8C5070EC3FFEE51B21F068154CC75D455CC028A3EA68992803810109FDDE5D5CEC5521B28A1B422BF80741695D5B529DA1C2D058AD2388BDA9F476F7C2CADC939304173DBF48A452BF8A700C0C70C3D121C1AA15A5270C22E2B9E28763651F7DA0D12CE11077B2ECD0D560B5E3DE2368B1E65C5E1C87384A4CC5F2D9FB8
311
BE39E9B77C753783A37998F5CEF1B4FEE553463245C9712270880DF339E0B882A6BA713D865F6F384C842D440934EF264F4A304F8DE4EEFA1E2BF5E2D91F5ADD9613D6E31DDB33ED31DB1D7916CAF091286EA3D31B9CFECB78BB0060245B943C4C040119FF780A74DD308BA9D028678674EB5504ECF284EE814DAED07440BA
311
F649BE4B55DA2890F4D73E2D489A59EE54FDB0A85B59F2F52C4858A02705C4815A792B0C4A996A2023ECB195073E115E3E3647F64243A8338F2000BCB58DA5692C7E7C3D413F963FEDF3CF00FBB0F831A9D51360FECA43819F527B89FA260EB63C5DA676830AA3626A3693B23F1A17A0DFFCE3EE164E31B5365EDF0C89EF64
311
D8E38AB0BA9A1117D7C3A0EC44F44F4023095E80BA610DE336D0F99593A88BFC5306E72DF98F7FD132ED95878DF2964EA7E43071359FD83B2BDF9C6B5BDF768F0F3C0FC351199526F53D9460A34511F75D1B63E488178569472C91A94497807A3FD4A390C6558F26D416365C3656DE6E769DA9D8FC73774E1709812842DD8E
311
F96AED1960F79D21B395CDDFE6F92CB4EB962A4668C76990E2EF29798C8941D67DA50F4A5F947872460F1F6FDB794E8A29FD7AC0C0D6E0714339CE258FB17AE8535221E3464A10F29A0BE5EEECEFC5675926A89F49EB14E5711894F6586DB5754EB4D5DA9C6437EBA57DB97A24F8B8A8DB295FFD73266CF57E82694DF5166D
311
DF93573AFE9C9C5EB05F8FEF8E89E0A8917B0B3724DB7BEBB53252581EFC3E38166BA131A3A5B42FE2AD00A769BBFA4458D2DE7822F8C4F63D0B8E21B285AE13325F3410A435C648C9D91FDEB109E73CEDA7BC796961AF79175E1A3CE4C5E8B0D009B0C9E29EFD98BC8E97554E3D8D838424E270F7685226E5AC268E021EDE
311
3522D583E8F20C0BDE2959EF5BBFEEDAB32FE9A3ED0E39F211A86AA9DEBFC68182EDED132AB8BB794442D2D7EA9F4D8BFF52BC4D55BB165124EE90A42D101E67BBBB292FFB4F66DE5BF2300E44546757DA7CEF8932BFC9F92A0707953491A55C5A5ACEDABD9FA1AEA01BAC3DC5A24E22E7C47213493996EFBC369D086ED939
311
7C9BA6C7F9855C7BD5E15BFC8C53DB3D2A4C5901A57ACD2FBDF4D1676E95338B2C2BCE65FDA4C64F5FEFDC7D9CA5AA1FCF11E193F2FDABF0F4916BF13FB916A224380E6462A9815F2300DC49CC4DF8D055CEF76462F4B7A7ACA7365C2707891370BC1D0AA6203C44CCAB47084FEC057F27FFCD57F89B8B9852459798A675C6
311
6BD7CE572CAF71FF7E6D7ECF7BF62CAB7B3F1107DCD04DC55A3F9961700286141C94A4F771FEB2BCDA2DDEE0CB0BAE402FF1DB0100F8E475DFFFC074DDB4498AB7D186A7654DDB1CB680D703D47CEB4E72F8CB13D86A4AA68116E26387B93FD6738779B34FEDB8E517EDF2BAF28D9BE93A1D3A164320E07D42E514725C2951
311
5FF361754213EDE06B079A2E99EB1CA82A02019EADEEB87B9AF005BD04BBCECB14AACD6B24EFBE482194A97DD32400685FF1FEF1544D1B14EFB1E7F08E6D2CD2AF52DE757F35F5E62332EE88EA26417AD5C3E0E319D68F25414E6D672BD4522B278C57D18F0113921C71D96527E091F00CEB15AE23D24667369BD3CEFA10C7
311
549D930890BA4366F4EBC55F01F746109F98ABCDD5A3EE06619C6AD78AB33E48E4C9BD21BF7478B385EC05C4F8987E2C1BFA0A60EBEDAA0AE0B015C2720ECE180FB6F2DEFBEB822D96338C9B63822183BBF52FB664A7AE57003AABCE512BF77E7E31BDA2E739AC4C131657DDFE5225E900FB56CC01CDE808FA4A9C9DA16AC6
311
79656BB64796283D89812B8F91136AE18EE5EBBAF47A73BE3C153EB5D4CD491B4BFB4FE690A4CF9ABA08C0D8AA64220C438C96EA6CA80B58FE5761E697B3A292EB9FBDA502FA863E49FE694ADDFFF9D62C520BDD1A22014147A0903A05B9B729F54272EF83931FEEC057BFF8C8055C279EAC5C0011804828734024F6CFA319
311
C9CC6867C727184465CD9BB7ED386AFFD96B294A85E3802FAE47244602D8273615952B98C4F23F7EAE4463D9D638EEE374A20959E0FE519C4CFB0FBFE5DD80C2AA3F9DB961D1BDE57E67C9BB47B77FDD74EE3094F5DBBE3EBC1FBDB7393F5116263009E2EFE1AF9A221B2AE234C902BF70E9F280ED23E73908361565964333
311
A3F01D0B006AF32FB21AA1316744B489D5A198E85299241735BE559675130955C902A8ED761FC0DBE337A9F91919AF5CE32AF902ADF9AB2615E00E8A94586BA1A90839B61832FF1BFB76D2EFADE6DB1BA04CCAD3DA649E7E2A0219F592E22F2AD54847EEA8E42271011E9074F8F3DD9FBA6CDF88FFC9FC7E811AD1CA8F4557
311
CE4AFC7BBEDCF0114A48689F20A584520C74DA8127124B767E2FB91A6B186246727BE63C9445BAE02088D58B8EFDC0F1072407CD9B89A13F6303B4A928F593AD489B58E6869325790ADC406036C591729FE14021F94B7796BB11848D463536A092A26F077F94639F7CEEE2A724C66EC885F4A24F8B8A0AC321F8FD149BA529
311
460FAA34E4663C02D41FDF80BCA222D42F0ABFF8490F4FA74C673807C2051D8E467B47B616072860069A9A303ABA9B319D58404461401B0A0F9BE5E1E151C14BC33B32ABE03DDE91708DFAEB15E7C0D593C86BB7D7EC17BE56E57975F077BFD5525F3A1A361D584A75E08CF29FC7B44B2B3085014F3A5A14517377C3F6B8F3
311
7E59514C3B12F8AACDEDDA4DFC49BE5710101534CD6FB6DE15B50F11A09472AABA727F0C49D9CB906B158030065F48EB3625E010CEC1D511D0053474B11E6A4F01C0D6EF1BED3A944FDEC70E0DDCDC756C86545910E0DAE3BE3AA9A404574C2995CD5CAF9549226BC94B4F4F0F5F9086F418F6B32346464610D8BC7391D3C3
311
A3CCF04CFC1FB2A3A3170E369511868F14EEA4E5E438CC73DB1F3248AA94B6B2FF33B222FF3D1E7BF146CAD229770158063BCE4F5391964DF62F7E52A7BE0EEA829C9E13C4C147D6F93FE59E111DAB5E4594D6F3CD1AD375EE039930EFE5AF2BB2D41C83C7DABD8C659BAFBE8FAB392CA634F3D15C1D945DB4588D2B0824A4
311
EC928AAC565557CA2F0DAA588CA5BE30B3A8004F7BF005E96CBF891D7F18112A3619FDF530DC8AA64954258E1811789B5189B49B4EB53F5F89F7D37523894F3EB57B373763C91E502F52CC99EB7BDDF933FC324C4FFC2561DFFA7339FAFDD0A4BFBE6D3A8FF9ED1FC49898139864602458968913181918F719CCF5A68B2EE9
311
C1FF050E34E63107003B8120FA982C21B30A874E4F5E4B38D5A8290C4B8D9BE48A0BE31EA995BDC37AC6DE90BA17D259DEF53605D55922FEB1855D915B659FBEB350EE0DFB2F9F766E1C84CC8964B75D08667445EAB966015F63A18A9E0A325C1B3DC628C0D3CB60F767FA93CC65F25458BD23C3B312716E5F40E5858AC06E
311
BA9AB14F95DB99147B832069201541D09A0D856E12C629CF32683760EE855537D1901988D5EBC156676C7DD51D7207CF3267AF1D76C2AD867315E44618015313A98B19941C696FED3461CAA9B5415F918556D7802EDACEFD6B2E45853A9735DFC9DBF7E440F9319F8B6805A973BCCDC76C069A9144E51F187EDCC12FC31B5D
311
EAAF0A76137199B106EC84ADA6B6EE697D4E6A96E007417F4E880E8B1E89B4BCE9D81EF611E2ED8F0C1A6C25F620FAFAAB656A7C42D464880E8AFAB0E0FC8EA38CA9A8AEEAEE3E4648BA4680270A89743CDD3E6C6CBF34B7B640EFA285ABC7EA0A1E28F3CC963D114A80123EE66D0AF7D5380EB41909B605AB4765B709B808
311
590458157E69BA1378FEC4B48CAF6A730E3BE3C5EF2DD1A5EAF94B1DDE50CEB55DDFD7EE9A16747FA4B223359FB1FCC69E1194892BABB93A1D5C4E807AC0EA2E30180811E77A2291F6E7F7FAA5E0F60215BC6024E48DE436C511F0628B8CA189982D4D83CCA17D305A7E923C37941CFDFDCD93ACAF735EF5F0E61BBD3E6C41
311
A59B242790D3A3BAC7064DCD89AA2E37214EC839820949D5CAA31E240D2948E48F690298974A96BA9A8432BC90F5071D6537C9666EA4564796B7AFFFA548077BEEA75F63083435074BA182F3699557397F71548383FDA8CA34D99B981E72835ECDA5DDDC151315173D05A21F651AAF8524E88209E2E7A737ED1045800CE339
311
0050BCFB8BE588DF111617874C62575039CA588EEFDEFEFE319B739DE2EDC147092A262611E159650E787917885EF08F1F51B8F2D8A71D60B58B190FEF9541A1BE94BC19FEA50784DA1419FE4B0FB51B8D36B5FF8E1286FD8AF42B91E59A5F1CC4D60174E764045FD8C57B18209B217F89A62252BD20BE0E63E12B8E8F029F
311
E19E0E8D0870F58721A557082250D5424F7909369376E41666C0EE77CD87CB283F661D5FB6D0DA023CB67320A20DC7BE661E9E1BFE5463085C557DA1FF9BE835733766C3D139F2CF9E2208873AD0EB4814DE9E6BF2CAF81614D4D43906ED1C05A3265CABBFE192770FC2F64F940CB6B17B5F166F133C9AEEAD2641807C3E69
311
515171DD74C4A85311513D6EC9530B3B601B6BA3EBFF3B5C3D2F7D69765141E345F75433953D013ADDF8F6AA7DC3F4A7563FE5C7D367937E2900D7EAD0F9FC9A4A1A9B5BDF1FEF08532660C01C5D6DE22199AA774383E306DAB87E301ABB7D213887F9869D4942D0D71E94B27EDF216A318BD488D45DF84529EF575AF3C393
311
8C0AAA0215B01994153E2054A0B894DA5C784980633AAD48576957CF4AEAEAFADC7C587368551C73DBE1E57C58AC713303A8BFC258BD04B51724459FF9E24C03A81E0E0679CEB9B348C0DC998FEB9C6D6EFA77D247CC8F92D3848599ED89A23218D0636465AD1CEEB7DC140D7426F83491C4E8E8281C2FB35240918FFECE88
311
0CA2A42D70E8B20B34DF5221C7DB0CF90ECCB9C745B37A47E9B716FF7A97B7A252C1F3814DC7B1E1A7F72B8751D524EF7CAE45B0C73B3BE7D08ED39781B380DDFC9AA4A4749C9493DB5BAD07A6EA6C092FBD0E85DB004DF06B8C9D3089C5320187E4CE1846158C7EA7DDAE8AD9AFFF21AA3A1026BB06A259845E8232DEE628
311
11A4DA9CEAB3A4887320B76E2AE5615EAB7BDF738CBDD01F1E64064BC13D9EC53576751CA8CACD58B3CEB0E6CA585BD089B2A59B9FC101403387AADBDBE70586B93D64BF3AD4453EF9C3B6A93817E8346991798601344F79A83C51F3D50F7BF2683A3605F51A72449489E0EE6169C749C60B1035651103AEE24D24E51A759C
311
840DD3FC6504DA6FE107510E447B43461C79D22970B75DE5E1BD3007D1AFC619A4A4A69B5626AF5E9B8374E20677F77E2F8E73DF868E8BEC7EBA7B6A75EEF7205E1AB9486CB642741D6E03FF13FCCEDB1C4AC129886268B01CDF4B124AF797CF784F3C6DEC97A17D4B558070A0F1C04DA4FF9BDBF34159AEFE958479824B3F
311
58EBD1E19088A2AFDE501B6F2052368A3FD0E650A179EFAB1561E1D27527077136E652676C3670F42DCB3352F48F6BC86D2C3B0051727E41A0A4DC6CE2BE9D47F5CAA2935A3C0539AF080665997194ABECD723B08129CC5B6B21D2E7D54CD4D12610E7E9FB8306771A89576C7A982002775ED44F3F744CF21EEBB27A631671
311
D921938AAEE3EB0D19CD1E083727F607823E817BF599DCED5394E37EEBC2E88782E638920CA641EF74D4CDFCDEF06F4278ECB18E31E7E9876F2D783C8BF429C75395F57E98C2B495A3DA077EB3AC3C158608B6B57FE3EA48484D9A480096FCEE0DE880950E7E5A5714131C5C41AAA29FD19AE81AC145FA1B9E85C7169A5AB8
311
37B213493DF7E9AA4B5FBF9CDEB36EBD21EF1181B7CF7366AB2A951D01E37AF4EB835D1BE8C117CFBE7625D2EBCDB0B20C5A4B45CED0BCDE3EE8DA9DA78C2E21DEAAFFD1197E463C33CC6A80FB785669B856EFF7A8CCCA2841B5A5369173320B1170C368B2748D81062EA0296E5E2D95D7667A4A46D98A6FF475C76AAB0A8C
311
8D45E226FAFC9FE0133EA9F60111F99CA81ACE03A1D14C89E8B0D69079C91464FA1D99E651D0EAF606F345C42A8A1AA9BA391031582B96D5B4176A77AADB01F12FD298A75DEEBB2C82F0B8650E880722F8DDD90C56A7A058E5FDEF1AC93545BA27367C76F5D8F9690CB6F8DAE141EDD7971F0FB548A2AE435F224D6E5954CA
311
155512F7332029D5A1230854B79F258EC5FFDB09F5F6343A8EB193229B7F7E79B3E48F8E183860B38C8269D1B53738FF1E0BACF6AADA6D4869E9DE708E79B5DADCC09B1BC76F649731CFAF59A83FD8BAE4C749D66FA87A3810D4D62FFE826FA400C0F325D2BC0F3CA35F5847B82A2ACC7961745C823E4D863D54460AF792CE
311
6F79B5C7A33B25C3AEA6CDE15A919B6367D781E9D44F61BF828672594A3E1D9EDD6DF179A81F27EAC05B936575D73E05C209DDD2115CFB705DF9BBF3C911589B3640735E9E618FC9C36A7326C82B2205E244C55D56FDB9D5DC93CE958D4BF8174D2B3DA54CB3C09F2C2A6DFF73D23B2197355761AD421EC581284A7EF8DE2C
311
E3497C0C804D49B41DFD6A7360844E5BEFFB495CFCDB97A4595911CDBA623274CE852B5E278AF0BEB1770E9D37CD977B2766A7DED0E94B840E1E95E8C77DE5CB6354AF7871427C28ADBEEF7BA0A28E19DE9ACD75F379FE373EAE6DDDAE3834692F9C2B03B4FCA8FCA9ABE8EEEBEBB725B88A7C90941E850682CA04061A7DF0
311
CE82ED49BFAFFD42C309818FAE14755CAAE78B0F73243ECCCAD7DF58FCB9CDFAE7A4D3E6671A613639130D056C8383C8F4FCF4808C331E544DD26E4755D09EA05253B3049A1E32587CC25D72E073E2CD96D04A71BBCB0038FEC3F53D254199C3CDC67CD66640269431860225392B2CB3ECD0B4498AAE78BA1994246AE1EE78
311
F2EDFB79F6C6CB6B5E279C4D373FBC21CB2698C9ACBBEB6A4BB6B39E16AB0E421CCBFC7654D81ED86022F9BB522146F9F4772E2D0E4FA70120C95A85A417BF5078B232F4754363EB1750B2AC2148EB46B1EA72AD9B4D23ADCBC589D70106C3EC2ABEEED84DFE28E718C6C83502C28E9FDD3B09DA0A6F6F7B72B706A31C9E2A
311
331EE70DA56A083D2177BFD63C55B11D8D949FAFCF90B23A1E24B9B5018B9A17E99F2890EC302F330FE7936E2C23F0D237EC8916F5166AB84B62A21BB0B950146962D754F92CC2C8877BED8FC7B7B25726DD19545392570B3A2C66B58F027BEF412E552D12A588C4A3CC5C3193FCB3485EFFF700D0B9EEC077754A33DC1FB9
311
E25AF814628F91DDFECB667D3F7690803F38D13F8AE39353523BB08FC6760144AFA2CE28236F65EDBB3D5F59A57D612B99E3D7E5F8A851666BF9B5A6658EFC96EEB37A378ABB0EB3FDDF1303AF32C41BD1C8560745D7BD81066B0D6313359CF488563D3BA3F8E2185D1FAA3EBA1397C9D0E3DD232180A4DCADB6AF25DB3AC3
311
CC26589C8239E66E81547BC7E2F328F9884764CA37EB5DBE390DFC03A5246B456A7C3684C4377D0EEF9A350680FA9A077E8B2957B489E09AB1AD41316944C2254B5984830F691C93CAA767EECF976FA5647538830B5E63236A6F0365C1E0F3E327F24FE35EDDBD7360B0F7374837409F7A6311BECC12B7026D4FA1AE204FA3
311
F5FE904B1F420C7A9044AE58E403E7C4848E7DA25DC9EDAC79DD756FAA26B9EA83ACE8A214A2612A22AFA19DAE7DBAC5F8CDE1292A485F98DAC731A29FE01A3966E96BCB9FB5A4C8830E1B9AF0C54B87FBE221A097036E5D28D1F869F810C06A9BB0AC0612F69AEBAF893C6E7AD59460208BAB3A6B09CA4F6BDDAB8CF0D1F8
311
4B72487498395A70DCD754796E271099A567A55CF242BBED64696378BB6CF25EF0FCDB589F3A82F1116D010A9AB9FA4358809EE0C973A2B4229BAA876A70B03AB49CBA7FBE71DB1832FFD32F9BF2C8E98075CACAFB36921235D0F552B6A67E94E094097A5D7DF681B40623DA535ADA7A9AD8E9A62407D7C9A5AE51D62A17A8
311
3A23728DE86BB56115804D3F2675F2C6B87541A0FC497BF0CA86420F558C9859EBE9FAD62747E323E3AADC03FDCDDFE7407B09DA90B44E3185723C5381EAEF589765E2F7A099BA46695BAD60CEF3491B8A171F5F56444F7CE9455312C3498C74173AEA0214EC029833B34B650CBB5A5508D5091665309642791708ECF27CF1
311
1DB3D797D6CFE474453BD4BFADB768094B2147814D81C7CBAF8228DCAF5564B5891F5EF6A860EB2E323CB82AB868D8EA048880D63B0DE5341F1B3D53297B928A11E15F25E5148990F710747C3509ED14909C552EBE3973246FCE55D00564D8310BC3EBC5085D08D806799B77D6C57FDF5E55837F9E934F09C03C729271B64F
311
12D0A9F9E938107CAF7BF1EC8CF1BB9B42363D33070F4CACB425E605DDB0A34A12BB936DE286B9887A4E2E558F0886498BFF49C311D96C277CF6A9FC0D75AD0ECC5226D7E0E3572012E56D7FDE4410CEC7A6D0F997F225A2055B8B92E3956E875AE4993CB3D4C9063AF98FD45E1BAB165640A43439A2C9181A7C355B297C0A
311
0CCFFAE19B6FA3C2BA238A885FBC98B8F6DAF4B94B97304878DF4D8BFF6A4AEDF79E90ED4E68F00CD7299F4E0D83E35601AF0CBEF18C1E870E74758FA91F5131075004DB3CFCF09AE1DABC11957FD9808C92E8A678CE9DBE40DDA0E0D1D505AAFBCBA208232BFB6FB3704E8985E61ADE53DE74152F5C7DE74B1DEDCD37DC3E
311
8FB30D7EBA8B9EFFC3606BF90B8D438279CB7709FC7C00D327F41817EEA71CD9E49FE9C8C9A81C70915D9F0F15958EC5AA4C3BBFAF46986B90F188BDB24B89DE3C6F29EC3E6F66D84856EE96A35E657CA41B41EFD8DBFA16AD6E91439EA92B40B21C053249F51AE50EB0B24C770FFAF40DF12C8436366819C48E36547D4E7B
311
72FE2BBF10828583057814A668BDF183F6B2E58DFB151103E56303E63D00F39C27C4661605DB644D19175D02E3F0241E8FC3458D17AAAADB117CE9EEA690D0DB01E634878C04C2C9310B69FCAB831151E3AD293BEF6E46B0ABCECB50F5939B39C613D41E81FAE8D34CAE3C4566B761D37185FE864AC32FCB71AEF39DAA5BAB
311
88609BB980CD2F07A8F941653B529567726E2B2A58D079DD57E1E5E31426CF184A04D7B03B985F276D47406AF276FE32E3328BA866EB1FD39BEF57863A317634AA5FE467409B3873F5069EF0D71AF00AD189D17BA1974ECDB2D623E9E14086386A6AAB5807825C37B015BFE892AFD154920EC437EB945D958E18622E1E0FE2
311
FA06557CE4BB9BBD05A2D40E774DA2B65473791E314B7D6C886820B2FCFE4AA272B3B8B15E7344A145E8AF919B5454D89D36D413E87211186BF6F645E5EC94DCCE8E1C799022E4EC9BC86D7A0F2AFB1FC4B2CE48F84B3F49ECE65BAD24CADCC07EFF39AB06BE9E6B27A059938EA7208838455383DDBCFCD967DDE4650EF92A
311
14FF933C975DB20BD7FEEBC4487576485963D757D16340D9599FEB362F775F38CA4185A86F74B629C81B133644A3B18FD056E997E0734F9BE26D11C0AAFC669E2AC9FC41D281F8B2E1C35AE27BCE05F3DA295488096688719D974DF1B5D182DB7792288697F8763CFB43562C1CDEE11C4AABD5C22B6E33F6F389CFC3477C59
311
19DC0D533F8A7A1846B7ADB60ABDC26C43D0CFC8910B7C15EE22675BD02702ED39DB77A87A192CA7A543E6205B979B9F5A6B512A3CA799E198B2D5797C0AF8D1D872CA455D4D431A7879D4DD76110B5FF7F4176B54477A9EB5E4A5D11214FDA585F0382751D8E2582BA5D2075053298FEB8F1537304E32CB22C2E2B693DC0A
311
760B1DFCA751BDC445AFDCBB12820ED85F6D5298933C7EF1211E9E057684056CDA3FEF3BB6052355E162DF27C59E965A8DDB7F9437EB72CDDA3A090DE65A5B2F50326247B7EC67B73ACC7047FC9B353D6EE990F772207C6EC52B39DC2F3C0754821DAB559F7C1809C7D0DD5B0499D0442E0A6E391B3D5DB46D11E731E6794E
311
C77523FBDAA242ED67F9FA1FB684255671F63C9BCFE6E7E896D51001A6113EF2298BA494E0B0980D1FA5B9D60796554C02256B1E0345FB7C6186B6A19D2DCA270416262845FA4F42DB5D9B0A0B6F07FCA2E56C242522E001E0CEB734AF310FC8BFB57E38E03AACE93B3326A2197891E68452B26A6307FDABFEE0223D3C03C3
311
C73D2D5BC054C8311F12004CAE488E5C29287F8156A2CAA4AD0D7BE6B97264E4139F437CE73ADF52E5134C52B819777C18B323A5924E4F67AFD13B1CDC3A61793A79FAF5C0CEB718E441071E797C6DCCB9EFCF7E4A1E9F3DF3C2F9C9E8294E9586868788C972857FB0556D7A26941A7EEB9B580AD78EC40B85DC906B4120A5
311
63CA3B87797ED612D3B035962BB75F6515A393F4CB057F564CDF54F2E5A024514E6A1F901DB80C7E70B1FC05E356A7E72FABF4775B3E3FB8F70A2A8E7B6A94542BB304157978CCC999E707A29CC795E67A59CC546A5D47B368954CA7B6E75EC9E1F6FC73CE3B4F71F8CB1A6B15923D61EAAEB14626AAA9D04A26EB9C66CD1B
311
E86CA31A5D8703DE04CD1EBCE4F5CCB62F93909AD11E55799A781A956ED27D3E738F4538CB04ADABC7DAEF20BC35BA6A90BCC1DC61BA05F20D8832FFB9BC9B15E2DB838A0AFBB7E0C82A562127E0446894F427794C3037186F622BF24DE1B00AA10A23BFA47B2A180D6DA5AD6F7326FEB8C100C2D7142EB2A0B2A9D1008A09
311
BA343D70E054AB69E2A7EDB783CBD92537FAF4A44D1296AC2792729104B3276C276C951D0CF3CF3F1E6B017720A7B8505A5FF9589365979678C36F1BAF759EAF57C60F1FF5FE9DCF5F8E764FF25A2D06CF25117A8FED51884C13B2B750DB0E4F5E3D64124FCF11F0AD8F1CC3B3DA4B38ED22BF1CB2585EE6BFEBBA63FBFD44
311
F9537B9B37BDD6B358720F98A8125AED4349CCFEB0E135F19E208A04CA7E2B10711185D72E381F448036EF57C9F874E54A971CA37A639E986AC0226DC5AA00D5B14FEA9192234B3DE617814FC221C92F33F1D392F297731B567FD98FD91D989379AF567A65B8ADF177591DB90FBEA99BF4ED11B16E50A0AB1DBF1156D034BB
311
E04D69D08F939D8E92BF525A1DDAFF80ECBC95D8F45D3FDD289FD23F7D8B452F8EBB34EC082DEEE68E18EDDF072060FAD2AB1504DD4879BF67099FC58F6E9DEFBF645D16334A3E9A127C6F1AF6132CF287E433B43A0EE93812B4AA0B194E03EE3FF91EF9C6ED0074A2F6EB18A96A7C9890B1FCDA1F2095E944DB911ED54C60
311
DF16FB74C8CE9BDC7C54C4F14078CF73C2FFF1F1BBCCD7CF64F71407EA1683DBC410D226627F66E509060D5C0AFD611DE681D509DB8DD12FB1265B03C6F5C55FF4C30BD94187FF692B4F152982502F193098A789526A038AB529A52BC0DC4FB6285CBAC10A8B8DB75DCD9BDABBB221E27D1F8DA9F5EE5926A1C8AA9BA9BC09
311
239C6A7F12914EA3B59EFF7AAEC3FFCCE56F1C5C2980AD072793527565E774F4631DB178CEEC691B1F367BEA0CF2907E1D6B854D527065979DDEF002D8B2ACEA7CE21AE297737EDE1D45B31233B73FEA35BCFDD0B09721FDBAF6432681F2FD10C3E9EFB246FD6E854B344ACC9D8A0EEF876A7314B49B6A499FC650B099D650
311
DBFEC7638ADFD245E2B7839DA5AC5F7D5623FC0ECEEC8653FC9B2BDD1AD4D00A566FBA7186DD3C9CD26512551637498CADB950FEC71ADB9A5524285DE328B8EC7EC75D2345AEC6A27C42AF6D9B92155315C80DBFCABBB7DA0FAE425C4FB896B15C9BFAC4FE67DF5A23D30C93DA4D8F36FB15D100050DA6062E22AEC5F4DAC4
311
F6FEEF97AE05DE63C6D38F9E068A20BC5E3B6BCD75320C5090924E7F93640A7735B1A43451C2D91EE62C6238B797349E59890AF3A520DF4A87095F3ABEC2E61F0593416CE46CDCBE0E00E2523FCCD04408588B5B6C9DB6459C786CE378770B54F51DA3A5E1DF2A3349BEAAC234A6CF8993B598B3B25B4B113E353A4D750FA7
311
534749430F3EBF2512E7EA3FD43C6AB9A1F765A58463B306721A15D224FAFE8C6F5E3432D57EE697DA0DD5A9D4866A8BCCAAA9DFF1F06047851408FEC060471D0E3EB86BFAF46E4B5E60311DC3E3CEA147C75CF971BE74689507154FF2D2E92F15CDB2B9182B11459FD8ACAC5A85F174BC94A7F4EE4C4F5CAFA7C02E37BF0B
311
C77B7DCD0C047BC316F562A01A441AFA7931CC84A28CB9F4AA367EB515778F29BFE61195FA671F4352E5E46E3A64773F1F76EE5EB36D7BCE9BCEAD837A4D77F8DB8C92AEEF6711920D7C7D0F76B0FD0EB7AB83724CD35BCA7D36DDDF5FBB7FF6F04A91F3E2BB3B8F1A43CD659639507FF6331C5F697BCC782AE57D757A27D9
311
7F1AB9E0AEDB43F92F1B2AACDF5FEC8ADBAF9F814E2027003BA2F9E144B1938A7A04050AE5D953B82C45619165C813A10E76DD6906B3C16438064D14CDA713AEC420034613E1AC7241904A49FBF87409AFB1FCB9B72FE7933A87D8FBEDACECE4EDCF6A4FE9FB94D5DEB74FAB7CFEAE17EE965DF980DCCA2D04134994F9A2E9
311
4D2265DA4FE6AA7B7AC15FACAC2B5ABBCD7DFF542C5314FDAB2E1B9D8B65220B8E2B638BE008E8DCA22678C820C5053664D15E89F2D735B51A84955E81A443545E9FF787BE0FA700A76D136C27DA179A7C6E8939E01BE756E19CB292798063D8B97F44E8A27BCF3A614FEB8BE974A718E86F7EC99B53CA35FA24F61F2B0726
311
6684623A3D4CF073E511F3A10A8FDAFAF0078C577F4DF9D339FE7862E5FA47CF4344209E5BF76D783B1B48E152AD281B15FCB934DCDA49CEC5706B1EE8B460F435324A5CAD154725E21AB8044B75A557A79F6C807B9340AA3D92503E866F4274412926C8C504E4D5EF8C0E68DD0B028781A6B4054F11CF18941F101C57CCC7
311
96773ABC8DED9CD91FE5788806C05E548895354AEAC96546D55B0E94A59F148D061F42AA398D822CDECA4CDE79E13469BDCC44FDC990F366BA5978C15F97ED80CBFD73B0CD9B8B83A4F6845BDFBFAF034019473FB9A63BD55D3A4A7284757071574029A4D016DCCBE95DD679EF3C4880BF169422F8C89B68A988D2B13793CA
311
ED4F74DE7486C72DC94DF46B8E93D8E02EFCB1FF9B3BA10C8AE7F653DF94F4AF466CDDCEF5776687F7C4C14B63E4EED1719DC2EC482D7DBCC7AE518CDE3D5FF86D39000EC3673C0044E1D308BF05F74D1B5F033A7D1BE7F74BC55BBE3E4A20F920946CA0271EB17BD2B80E5660ACB8A29A79F5E4BBA49D4D945B6EEF4A7EFE
311
AA65E5555BBB57A7E15D2F83C69F30BBB978D2B39F1F26FC097424D39BB33CA3D87ABF64E307938B685BAD44F71556A30B7E712CA4FE600613C3E554B69ADE949A7CFE214DF1FFF05CB82151EC6FC31950239F94CF7AD39DC473F6EA356E5EC2C4EFA04383CEFE985A127484366FBEE3C0EC4FEA363E4F6632AE781392FD45
311
D67B63FB8DF70E82734F431FD3443172A0E30A83D60982D55FA6A2CF86DBA8382502ACC6CDEF3B907982EED1160E14863FA242F9757347E1544275CCDCF71ECD5F8621CBEA326B8BA884AD7F825781923E66971F04010D574C541D8427A438A37EEF8AF88240EED7362C953F5A81DE2D56109CDE2524EA0F5D2F87308C0C47
311
BD97AD605878AB8589E17CA83930CB5E0DCCD75853D68B1AB136594926DE426C367428E9334AFAFF90ECE221BB5DC9E5BB53D2CDEF954EAA9CD814F0E5725F1965DD458E5F8487683AD86B9D0076BE3EE91EB1CECC5331A67A3F79D8B27587C12EC2A6A70474749F27B4C0BBAFB94B34189E88DC18964BE4121B9137FD516C
311
7755356E50D6714E31ACD222621EBBCD1CFF81D87479056A9DA0E0B8EA19D24CF937DA89F78E8650CCBDC110AAB6C4E46DCBFD0446BA9E2060E81F314AC2031E88135E5476AC0160EF5C0DD2EEF1B8B5CB2D198BE9A554A9093B5F7D7E4B5407DDFCA1D9C152FD97F55BFFFDFE802954DFEC8995B983E28AC92F1971E28F53
311
1DC407A1280EB125F64A72E617EFB27DFBCEDCDA2D6F2BDADA36873EE46B9BE1782998C63DA7182BC383FB6FD15DA472B175D7E8B4FC88F38D6E07FEAA3FA3CBB8F6B449ECF14D2175E5C5CCA3A42ABF24CA6C9395AF74535F4DDB38CB84F56614B0FD32D7E19CA5CF988DB4449C40E23DF2B16772594554579094450F56F2
311
53CD25EA7F77366FB1CFE79696C428BB64D5A41E986189427E5E4D7E2DAE3D5BB4972B3DC44EAABDDDD63A2264ECFA5C786EB0EE1FDC5BE34FA0F08376869FD1E61EA06CAE15191135445EE8F0394161C3266A596AA035572BB0C8876180D8B9C77D307DF9DCDF7365ABDA6F3A2366436457A4DFC1F259666569A9E4A79C81
311
7BDD5610E5200FCE894A358EC72858D50EF67545DA81C6FACE3D457BAF70367E1E6BDD9A952FB4F56247F58F523B97E640246051A72F79BE42FFA0B3187F63097F91C48B868586F714B0EBD5A00A8412C1236E1298F60C72BE6C96B82B404CADAA304AE9F303176B14BA53FBC2D5E86377E35542019E24D97B96A49B2C0E50
311
06E7795954DEAF5DA58958839043C6C70BD3B1B33B6DC5C31316D8A6923F142E26F6711A2258AF977DDF1F970ECC4F1F2B434B96D81BEB6E89BF3BBB3C7C8CC80505070723D6D7D7D3C8CA27CA164A26024FED94B12A86031867241DA53D929636DA600F050BC40CE48B8BA03D69224720DEE2ED2127390BDF5E6EA64527BB
311
D4C4C63FA76BB801FEEC0E61218EC98A8A86CD8313781617877E66692839B9468CF4DB8E50A73986E558E309C0D6F676F921BE02F1185454DC75B111572FF9D27D85EA14C05AD7271225B391C4275659CA4A43759D0BA44639BE4C30A84DB7F67A41399FB95CBF923B1B1672ABC807C1590557FB18D811983FA97F5E609516
311
D62281D38B1281F68FC75528C35E4CD7DF0F7DBB5E5DD69C414EBEA2F4A5B241B996BA77AE6C772E367408C633EA3E438B68563EA8BE7667F3A4C4FDEEA52ABD78A2820F443B7914A15F180018D231E64519C56A12F6CA7C8DAE18F06F6B769DBF92329EF6A5D18FBCE600F36BD8E8198DE5CDAA96181F3A756EBA5501CEE5
311
8F497EA4F418A2B82565B9BCC611713C0B708CCA1F398B78C5F7D03B3437CC18F13061F55C7BEDADD5ACB1DB0E36D3CE47FF6EA1A563A57E9649EA5D14D1A50EAA457463381C073777EF1600607BAF6428A7DDC079D47A204EF1E1F1F0589FB054D45E02CE623B3823C317C601E589E22B1E88B448524B86A82828E32345EC
311
18AE17214B42F8C41C6D428016D9BA31DDCB47572561E5A402E5BA4FCE55F78AF7268524AA04130F3A20BA5D1E9F9948EA48FC8F5314FDB35E21898198060034ACE5E3E2BBCA34092518F275190AF65F45867FF0900AA4B81F25427414C372BF51DC29AA855C5428EE1EEDD6B849AD60F6E73475C2D2523F8A2772C840A478
311
DED18A8C5C91B085F255DC4F54EA7AA8947354FD17ECF8FB3B4A0DE7B483CAF3A1165EE05BBA413E5C1FEF3DE1D6B8F2F3F3251C17D9FCAB48A9AAF63AC773A0E413BBC46A9ADF84A566FC920E4D8C52C9769EE3301CADEEEDD92B312E02E2A7E35B7F1E7D203FE5A7D75578B06E99D0E46FFADB8FDA17ED8880390DA29094
311
202D6F645F76F6F96409CDA05495A96E84B04A00D1A6C6C81D7F3DE9376E828CCF144EE50E364ACCE7237EA0BFB5607ED1AC3CFE73794E5B61739D14DF1743441B1AC98F00ECEDE9E7301FA29755FBEFA68C91EF2B314CF510537EF1ABFC9A762496280B546F5EDAAF8A5B387D469FC9A878A92828C88608453ACEC6094DCA
311
54111E7AD5B2663DFE2DD151B7F123B9F4FEF8EE36AB125FD7AD52A59B1B765B3E3F73E3F73DEA93875004D2AFFE3CDE9493B87A9904DD052028949041A91DC0E1BA47BA714343FD5B25E0A6A09503AFC17C790058A836A324FE31D7893512E28230332F153181C1E018E1124EBE1BA262AA428A518237D1EA7275E48C5C56
311
1BD19ED6912EDD8367DA0F31E40EEAE9683DA9257525AEA7B632B97119E17145A90231768A4F3B9120FF32E8319B015E3CBE26F1A754177D8185345817C096B0CE443A955D13AC15E1FB5DEEA0239EC32A3C92241A237B0B02FFCB4F93CF2B02570C8D192E2F2A68CEEB42F12E6F8CEEFF46C251E22B4341C56FB08CCE550E
311
7A9D6F4D6564B9EA52A83D5BF2C6E03FA19D2775E15A8A7ACF30A13C259EE7F5EF2AC3BA354F1500E1A07FC63FB4686E2F12EC69719F9ECF5FE3F35598DF2CE944008CE78F0911BA5BE5D0A34E0098FF038669C26030BA9B300303039852A8F6F496341737CA7E0D2E3AAA36DE0A70AA7D9CA0D54D9AD84B18A44C9E625475
311
E1C97B93BEBB38DCE7D227E67A2D00F531436136355F243D1FC0D712C5765754FA22FCFFAE97919161F46D6E61ACB37D83777B385889770B50765B127768443A5C4D3A4E35A3151111F146B7CA116F918A049F1C272F2CD7976C69A0068773451659A97E0F4A08FE604C3FF6CE7385DB19F4D3ABC8A0D80DA8A42096AC377D
311
B49382B36E270B6FA7570188B4B7D1DDDDA82ACA487CCA5D38BD3BD039ADBAFA4ACFF27809239B722081E2EB9F145320553D183F28471C388BC8814E5045676767AB58A8E72D1CED2CA731379515D2E533E4CF0B39DFC625F97AC4836831A4DE330E87A8126FA17EBE583D614E71E22A8DBF2825599743E0640037303E8E1B
311
1E8EA4E1ABFA4F62907B5E4E0E5DCFDAB417C36C6848A2B8D15F1E505434C0707E16B1CFC2A1C36A42BBF55734F8F4301DDC2A5110CEE8C0747F69519265012A2174BF4E955ECD4FDE095A3ABC70536B7AD0B9D7892F81287D667C108703C9B66A221E9A0929D030008F77FF6F5D2108EF5706FC87A3069B976F7C9FC3239D
311
13D283CDEA83597461079FEEE049B0F392889898B7D87D31F8D60ED7B56B91823A8E4EDDB36C6172ECEE42BD42B12CD67994FA0F0DFAE9389356F4CD4425A4B8AA55CBF7ECD585C6A2C2316791E43D5C06841ADBB226A87FD61515FFBB0167B74E56BD7F3E90A57A97FEDCBDF483A0D6699A8C0849CAEB4947FAA90D8E332D
311
9DEBD9F4738C37DA0CAF9CF3DAA68BCB67C420459C7A64498D6E848E5CADE92BB6901F607AA331104A67F7CD650EE169B1DAE94D2C31C2F993632259B6957E246EFE4C5481107B07118607700040E5812A2A2A38DA0076875258C753F60E0F2662C748EDD5F3F3686B8FC3BD6FE631ECCAA1E8B1C1E565AD117E54893E79F4
311
672E32F9E46B2A183DFDCF3EECB4D4D077DBEA0DA254D256045109670050129E9B9B1A9E4A11344D61497A992778095151510C4BB7EF2009B63AA4360635312E4CF668B7E0D3D85A8688E2BD83B569439892ADB63461930D428E0DE42E4AC57CE48DA5CC1449530D8BD3D6A0F08DF20C8E8F570F2CFFFCEA286E30969B4654
311
D498A58D9DA782E19FE3F002181838925592C4A1EF0B332D88B61A92C644547BED490D3A42CFFAB70E36D961F694F6307F72FF15A1C79D5B1B5CEFD353D9E2B52566DEC8F8F09CB3E8359C0F68EBBB7898243E34E12A015B2685AB303C04D3A9E00671FF3DFF0A184E4A2ABEB2B666AF5B3A209C73D8EF29DCDB069C9F391E
311
EE9DD0F74C7BCDE16F8F02E3B8816122BBEB50665775B600549D8BB33A54A6BF940C028118BC6878C79958D6784F9DEAA6E26748386FFAF8D0D0101E2847B6563F5D8DC1D78F787BE00E2C941AE12148D4A81599FE8F68D4DA5CDED75530ADE138240300EE13B0FC13A1687FED6774662C05A2B7DFB186732F0D7A93545D8B
311
0A6390AE5054D9CB582DA846D7A061B3358B45E2B52DDE63E114397EDB7E09233A579155D795BE76102CF277F4DF8B188C4F2879BEAE3C08347124BF9ED23B128259FE107D31E34A652F090B30B39E0D9AF917B76A2806135621A8A60681F16AF216514BBD02711585B5B1AE823F4B2D0369EA5B6BCB863072727FFC871CA6
311
C9AB79A814D989057E9470A3D238BC87CBB4A0EA49AFE2B86F22E499793CAA9047080450166BDC357524561E258C77CB697F1ABB32562CF87C3B7AA12F911EF19FB3E5C02222E887D08202A60A17151F5E053A86B437771088B4FEE14D652C43E8D939995D34545E12E2FF93D4E366EAD25F10CB7DED141563C3D0C447AF06
311
078A91135FD4B9611583CB4BF3BD167F2399CEAB0E0100F8FFC305F00F1711717173138B4B48C83022295DE657EFEDD97F238ECA80F528AFB4F8D67AD4E2594B9A3AA86D7487EFC313BA95745C186F0CDD84CC12DC9CB0424B42203D351FD9C0A3AF10CC7F388E0329279087386421F194F4A29464C1DEF7EF8BE515E4A199
311
DCD5B909342598D8FE6A231F71336248D5CEC5454455C7BE383B3BC7B260FED27F703FDC39A170F3827239102F59D4DEE7FEF82EAA1A5E4BA94DCC4CC44E7E2EDE20F24244E4454369D2E87C3F823F193FD4FD27E1C23984B01898D15ABC20711A8A558054951A6AE280096BA36CBA439603B7B0B4C45F248C14B2383B4B5C
311
D8ECECE4FF859AD4A6CA2326D020EF090F4041D28DB66E5256B56232CC52829DE8060BAE6BBF37D4B7469B822454FE93210A3E8D15E69FFCF01123222611C51C4FD0A041A0CFA2471CF6BE38D2B20FA4C3525B5B8B586759475CF80ADFE67A284AC24651E52B8E683D24C2622642F27E7C3C22783BCF63648BC398BD6CD0D9
311
C97E7E7E3EACB6126DB7A6C1FD9F1031302EE67ED96F22B77C7CA0239BB324207559B105E4693EB26EC46182A92C9C0DBD24F29B31C5C5AC1F84300E0E17CEEAC15F5736FA4A98971E2F1423BFCD68D4BBD5F86E74B40A369F39507C88FCDB35D2DD8DEBEA4AF999E23CF2816D204200DF6E611781B9884C1AC8888B4DE397
311
320472959434323A5A36B22A8E1F721A270DF3BD65E4A31C11FF048AFB0D8B7B6881423793963A23CFCE935FC189ED36FAE35C46DA3574C979E4394BE52084F3081837BE033396D2EBD80F1F691B273F660D2B32FA27A33B1DE4ADA5F0FA4651511102DFA410DDA86E065272CA314D5249DF91B06BB92807B28EFD54F08F7B
311
525252782CD276DD02E6B0319B13DF87B1F6361AD6B28FC0D711CF445429B9E5A433CD493051C49A9E03DDB1B147D880253514A5DED88009018620EE229101C041950E2D8AA8E1F5F5438E0C0C0C60EEDEE9E3E0C051948C69F84BB7B2A48A1F3C8EB9E6864687F4F4F6F6E2FA87608ADAF9C5E117B7C1A737E710769DA1D1
311
5ECE6A84502AA855398712D5FB51BE92E4EF824969CE18278798AC303C2C7980DD2500ADF8FB1E6D6C2FAAFF9987178923334A244758BAA01A9A1B70FA5097D01E1CC2A58DAD0EC94CE6430AA9B0C10D75E3C6BAC670EFBADEE1607739CE0FC18A2587E3EC3058562014C64219C69BC269082D5C2F4A659278D58575591217
311
6D78A1B641719C2A394CED495A1AC5D583FD2F5EDD93308EA7EAE8A6DD396598BDBD3D4CFED62D18A5BDFDE0DD5C80D1A89BA62697B131AE7CE9A6594138582F1B37D68F1749AC7CB67A70695D48A4A056AC1FBD4E82358CEAE38F54B95A9016F9000F9879C0D9D131768635CA798895F27D6F1614F11F2838A83611AA51C9
311
A3DDB539D42979C29F10465655C17BEC3E2760B80DCBF609198C7B171A531905F3EC218D696025975E986C6B4C666666787271F202805577DD5A3EF0CAFAF91B62DC4B2DB4217A7606282F31D8DDBC290593BAA93EA6353AFA9939B877978481E15CFC9F2755CDC00C538F63A4BA3E80AE009B73CA0185687D339A507D165B
311
74290D6EE46D5C58148F020C3668ABE9EF2F7549170DC80DB41FFC1D678FF19AEB10C7133832B104B80F691B3138F97A92D26E551F1F110400D45AC71A9B9AC41A1A1B1DAEED0B0810638EFFB511D46B121C6FEA0F38CD00E03CFFEB9713FE1F9C263E4DDEC160D0497FA9A132BA608584057FB15380825DE6C7FC3C667EE9
311
47D488A09898D8E939C4953BF4EC9836344D2CC6B2971B2A21A572B06096F4982D2CC7232D46E8EA69DC83722E267754D777F97F96D5DA74E1E75178084D0E70F12AD33E5F71EF2AFA599B2BEBF60A5BE475F444F240CBFE8143C334E7ED9150FEEFEF7EB020C4DBED388DD1D6A167A76F3CBF119B578AE8CFA7736ACAFA44
311
40A1C47185638A0D2F3EB5BDDEFDA958FB13CE4AA4923D5BF840392D45544329525749734866684BF7F8D9D54D892E19BCA9F829A0F8BFCBEEA6CFDFC61D74EA1A645ED7A1FF241739F15694BD835B66FEC5677E40FE69BD3F91AE402F036537218A401CB0828604AD189E575015C6F3F6BBC8AC79CF6C70653847254B3155
311
1EFCBEB5978B9DB85D58D0FA41A9DFE9C624834AA04949D24B5AE6D299E072D152D12097920F14AA92C31C3B97E28B6C2E6E9C23D63043ECBBC0A60FDF5BD0C33C127EA8A3308B8B6AFFEB28B4455BF6E7AF4FC6222728357EB8E46E85053E6A8843AB23295BF838ABDA94658FEF3F832F147046B4ACD6F7D48E8FCC961858
311
2961C898D1C7A253C91BFECBDA6BA18A1FCF70755DCCEE2222F41B76D23CA98D0CB3D95F0CF66D57FFF65E2A90F5DF40FC3187621E981BD0BC1D992787212688976B94A8F0C6EF646624B570B78E068826F87CE27041A95C9A4871FF65CC17FCB1639629AD6A9517000D63AC231F3D741CB8430777E7ECF80CE7A3F73C0F16
311
2F7E56AA71F4DA80A33CD6ACEE78E2C11FAC03DAFCE929B106F8F6B3ED2DC71FF994BD9CEF4E9A94896EF1B6E2B7B4978168BCF0847A3D2A4F1B0500B926E634B174548E9FBAD27153FB5FC36799B1E6C7C38A94E1F9E996796D7B485E635D5287A2AE76FBD11A341DB3F8F810385BB7296391973DC6C37C452A9305AEBBE0
311
CDB6C566DB59FE60C8E94B1FD090354BF51439FFD1B48D725228FFA88C84F686F547107A7A235665A4593B7C34D748C1AC8D56DD5DA861EEFBADDECBBD65117E65851F90351AEB65F0EFCFF4BCFEF24CB7A5879699FAC437A7AF9099186CF006BB923A59E37D7A36A29FD8D2CBB914A5E9D0A8FD212FBF796AE9A67958FF1D
311
5D8B85F78F96219D4714EB919929241B6C018AAE0C02069F8D919961EC5DDFBFB7573E3AC8E08BFB7C8534BE6DE045B3CD63DBD71F7638BA2309CAE398EA3A7D8F98BBBC7AEB367EFA5CFA27A9F8F2F52FE878058E6209C026453F8E7E8A237DFC389E9590F6059B397CFD65183BBF936E86896612A5B5FEE49DAC8455D026
311
218AFEBEC12B3523A45B57B82C9C97E02ACFA1184DB18E48CF615DBF39C3CC6F0B4AE6BBEEA2E39D944E290302FA3DE33FA7E40296E2EF7BF1CD855BBECFAD0FD622BEE9746FC4FDFDE545AE6E3BC234CADF83A0FB76DFB145BF3828AE3436368AC24989454F8FF70A177672C711CAA1A76107218CF948CA01F873520E7A2B
311
118EBB161ABAD432932029628B6761590C98AB590C8C8C79798CE9F715BA696E839E9131A4BB68BE923F1747FBFF165331FFDD4D05997ACD168F12CA75348DAC04C7F509FE83898A8B421181AF492861CE81E4A2DD0A30850CFA95E05F097FF70F9E777310D584A75BA7018922E271DAB1D785671157685B7D383D3E074DDB
311
4F1E44EF04B07BAAC75A062077C54B9752C738C9D804D402E02851F3F89605AF189738C18C021D2139EAF72513824E10DDD3047BACC8521ED7E98B257D1166903B1B08FA6F918FD7E162913FEC7D0EF4787E29C35FBA8C6E2C9C20E9AB30AE42CA2A01A090E7D010C1B5BF9CEE2A304BF3A987FB40D836979B79E18D70F257
311
DA61E808472DD85B82761825779D6B90CAEB0F23360C6F80A7D7D77545E95B3DFF0CF96A827F9B5BCECD2C9698718417EF80FEEDEE938AFF55859D0D540B7FE09435583A6F04874A0C7E8CF234DF4879722000167F5872CEC6BF3EF7E5A8CC8121E6A359227C8A29C95212F9F735BC72A887D56B8F309FC525BFB4FD767AAE
311
C4AEFF249CFBBD2DE1AB9969A6155C7D8DABC307E47324C1F916C7BCFF40ABA5644E9FFB9238D19ADADA49D9610F01ABBA57E4DFCBDCCBB2B93C8953206C91DE01B0E2651A6D6C31721915B31F7B7CBCE55466F6D70402788FA91D73BE4ADCBA99A35F17D6B83383704917D6833F0FA3CD45C926ADB8BC17999A4A0AFBCE25
311
41F7B8CF4C2F5FBA611B3E626D64407CB32C122DFF4EF8674D6EDBB86C8F7C6A16D50FA685E2CCA34F8F7D1D8265BB0042E9D7F1F666F7BE5FAA5184DF58E12122A42EF02F461B3F369AC746F96528AD208512AB56844CF75B97F352DF7995024FB02855385854F3798670D01CAC771AC3E1889EC25F61A20C1F8CAB468988
311
17F9C47E2CDA1F286BF2F358298709FE567C91133E2638C8B53975E753EA8BFD3578B5F7186B7BF084EBA3F77BAC3132A5779902EC22AF2D2E79F42D324E083386DAEE9810D1B44A5DAA54513C7A71E52A4AB9257D975B621308FE4D2141CC3DCFE946C154A3C1DFCCA7629EC69ACFA831634ADDA93C0388D2A9A2DDAFCF95
311
7C6995BCE7FBB6DC4EBAE79E63EB08E9A25F52F67076F7093CA545CA3053B5BF576DEAD4E0017143C5F759F32B2D6F145B52B67B48909B7C7FCA6586EE385A2189C16932CB6DDFD9152AE317C430492A578ED27B72D85D40C7C93C097939E1B50F4D67F05334FE9DC362C30B7FF561B95259138ECFD9274C8D695C31B14D4E
311
AA9F3D7FA8DDF652F8C5DEFA23284C799B7D94416DEE81E05A866302DC70192A5368EA65E1CED8BF107A1E2D3119A71E85DC1A7B0C1E93274CE04DD0F2ABC8AC7C987FDB002B6F81757B43502EF7A0D92E416494FAEEA4C9C090CD9557AA4D532F4996A272B94355C5A0E4974EEA9627476F30809B94D8D8D860062E022046
311
43BEC7D0438AF800FC7E2B26955D595421E83C69E1A07E0E3122285835F014AD538188CF9737CE76D464A353FA55A001AB2526B84E985083693BC76FE211CA1D000679C889E3C009832C87E1AC2EDD05C302557422DF0800E316FCAC86978A371F025A6C7DAA9F333E7BD160403A1A06EA75AA9888FF01504B030414000608
311
08002249EE5228BB58AF800100009E0500003D00000045394646434135312D324339412D344237452D384246362D4437463232453434324342392F536368656D61732F436F6D6D6F6E536368656D612E786D6CBD544D4FC23018BEFB2B96DE15493C78601010A34B880709DEDFB52FD0D8B54BD70DF6EFED3AC0B12E6442E2
311
716BFB3CEFF3D18E26FB440405EA8C2B1992E1C323095052C5B8DC842437EBFB673219DF8DA659866649B798C078B48AE6410122242F2A4994AC7F93815DF85C049C8564CA0A901499DD886B2EB9B1E02448F358701A9235880C49A0119892A20C89D1B9FD768815CAD268CB5E0355B40B1E47F3E37A2020464BED06AA57CE
311
8FCC20C3C3446D46761A2632A8C1283D07031EFF2AE7CCB1BFEEE916E406DFAC8E36FFD99A9D60A6944090EEDC3B670C7DC13DE86B6B2C5C240D6E503BB85ACD579D513F1B9F9A69DC9CC22AFA80C426D40AF0B21EA168559156B6276F0F726A6BFF04DCD513A87A62CAD41FB24FCB2858B3952E3D852084DA25B9303C1568
311
7973CC8E8AAE11DF2836C38C6A9E765E8C1BA1BFB1DC29CDFE518C8B5A7655A4ED7E77291ABEB80DBD82EC866ADE1B8D05AF9E35CF09D7A061F38A986D9EC412B8F0F65E5D81534D9B231D1E5A8FE577A241F3A5FD01504B03041400060808002249EE52E336299B9F040000341300003E00000045394646434135312D3243
311
39412D344237452D384246362D4437463232453434324342392F536368656D61732F47656E65726963536368656D612E786D6CD5585B6FE238147EDF5F61E5BD1498E9A895A02398AA5D1E2A5665BAAF96710C78D6B9C87168D95FBFE7F81242134A968E469A4855437C72AEDFB965F4F53551642B7421B3741C0D7AFD8888
311
9467B14CD7E3A834AB8BEBE8EBED1FA3495108B3E01B91B0DBD1F3EC8E6C991A470F22155A72F73CBABC1D4D5921DCD1934863A11F990102A6F61466977B8AC49FB13C174CB3940BE4504A22E3713489B7F82406516225536940BD88E4E552493E8E564C1522225AB0384BD56E1C195DC26FAB13882C2EBD62E1FF9E5B0FCC
311
453132C99548446A1872B62267078F1EF14C3DB1DD1952DDBBB384AD456779F387C51992E0ADCE12FED2622BC5CB1952FC9BDF3295E9206E961AB116DA7ACE45F76F07A26EFC3FD762FD7362FC3C0BAA4DB34C09E682CA5167BADCD16CF94370E331E2F1A3D852008AAD5D64BA2373478338AEB1583B905396D158182655E1
311
B938D07926CF007CC7E85E6709999B0D3827C0BF406BEF55C68CF5579DA32C8C85BE03EFE788787E8FEC95DC85C3E31A615658D81F9A34499612004CE69CAB12531B15A887ACA642C110F8C1A8C1974A85853F407794695C905C688E69B116550ACA946B9B4785FC179E0E229240B62665328E86D5BD2C800CF5D80289F35A
311
C25E3DD51508F4BF9A74A0F5A557BB3D284BC6FF59312E282F956A75C5D453906F48D11A876599E49425602400842995BDF02C4D012E226658F78A710416AC552831FDDEF0E6F0BABEBEA9DC36718CCEF4DAC5A0DF871AECBDD8F448F015F8DA113A473609D1751672B723874B2CAB21ECD6E284E51DCC7D1A47A00F60EC21
311
DC4CC3CDC406DC03760A4E6C772F2F4D561A9AE58C4B03F5B4838701472139EDCB36819A66C472B52AB1139C648956F43E0DAEC067B56B0818F5961D3D446B8F1E1E78C0EAD7EE02AF2895D813E88AC5014A7B436DBB20F778D40A1D9737EFE45B47D49CC8360F9966B15AABAC802C1005548A93EE469F5D55317CD8BF0AA8
311
6CABADB2A009D4D6F60CFE53AE370AFE8C45415B15D362A5A038E766E34B00F8C2E3E7098E2093B1C96349FDAEA158903B4BDAEA665F473FECE72186E3BDDCACCADA31839CD6D4FA7D47DF5469006ED340EBE71DF960DDEE88A3E17557039B58C278A1795BA8079419DA8FC5BA1BAA1A66238BF69C7B2BE4E6274839122B7D
311
00BE8B7D52CF61B2D63216046008C8B330FC10F8907787DEF061F47965BBA02FD8F53BA12F9827614979F53563D0BB1AD67A03DC0E00E2FB2CF3EFB457E70E65A3D7C78E7D700DBB45132AE9BBA5E468CD861408961AD8B00A55C2FCC677F4456039FD9F1907A5B3E2D0EE845FDBA2DAFA88C64195671AD6D282DA2E45B1F5
311
0A0D632B0D0B6718757DCC7C84A70A3656F222CDA6DBF07E204AB358961D1BE31E53A82C2C0D56DBF61A5608B5A252A932A1DC6E32462430853353EA30417C8199A662E946A4EF352268B8CDB9A9C6762515ACE8E09BBC031C608A02C4BA89C9DDC074E46E0E26A17BCBD4ED43270D03E3645ADB81F6D62CC07A3243EB81C0
311
7E01681DDF2DB4730631E6DDA6CBBD048BE9F06AEB3CF06B31DD6C9575E37E9FF17161342C4C76D95519672A6509E0F5C4E71B4B1916440059F57D0921F496237E473A83E3E4E06353BD9D27593594D7B6707C08D22FEBDFBFFE03504B03041400060808002249EE528DFFFC99640100009B03000045000000453946464341
311
35312D324339412D344237452D384246362D4437463232453434324342392F536368656D61732F52656E6465724D6174657269616C536368656D612E786D6CA5535D6BC230147DDFAF08799F5FDB600FADA20EA430D968A7AF12D36B1B481349529DFF7EF9A85A718860DFDA73EFB987734EA3D16FC5D10E946652C4B8DFE9
311
610482CA9C8922C6B5D93CBFE3D1F0291A6B0D26A3255464182D920FB4233CC629881CD49C18508CF000E3EE309A100D61622AAB4A8A33B2483F11CB639C545B0E1508438C3D3C0361192846DB7ACD198DF186700D182920B914FC1063A36AFBEE8FBA03FFD3CC1D1F4FC9E151A2AF59F628C5B7821D83FDFD3489305080F2
311
EE04BF962195FB285E9D2DD352320A9E827AE357594914E42B1F5FE35F83688F60C4C91A6C946ED0668E8F244BC2EB0BA6E3BCCFC0B6A4B507F9F9F8D51EB315D9BA9E08D308E89F96931666E577837E2B4172199C68C4FE306156D47DF51C698C7B9D97FE5BEFE2190C3C38BB054E6E8163FB039CB4B993C80BF18D969203
311
116D6BBD26238B821F9BB909AD6D9C71B85BCD8C33D66FEA3D31B4BC0AD45BEA46BBEDDFEC0F504B03041400060808002249EE52E68DE2D351000000570000004700000045394646434135312D324339412D344237452D384246362D4437463232453434324342392F4173736574446174612F41737365745461626C654F66
311
436F6E74656E74732E62696E536160607036B73033327736D435B23435D235313235D075743134D63531313676763673313633341602AACB4D2C492DCA4CCC492C28484D2C4ACC4B4E050A82012F90744FCD03CA26072767A4E6260200504B03041400060808002249EE52C55C663656000000680000004500000045394646
311
434135312D324339412D344237452D384246362D4437463232453434324342392F4173736574446174612F53747265616D56657273696F6E5461626C652E696E665D8CBD0A80300C06F73E4B29FE6CDD8A2E82A083B8B7F209014925C9FBA3AEAEC7DD2555D896CB85E51C2A1BD834F6A1F56EC4494C4695278364ABB24ABD
311
2146F88CCEBB89D5321FF8F3F43D672A3B44DF3CB6A1710F504B03041400060808002249EE52B16719C436010000A20400003600000045394646434135312D324339412D344237452D384246362D4437463232453434324342392F4173736574446174612F636E782E786D6CCD944F4BC43010C5BF4A09786CD216C53FA459
311
442F7B5270F1E06D369DAE61D3A42453D16F6FB2DB83B2E2690F859C86DF4C5E1E7923579F832D3E3044E35DCB6A5EB1029DF69D71BB964DD49737AC582919BCA71F182B1C0CD8B25C664AEE829FC6B9D4610F93CD556BDC7E2EDEC788B481ADC5A7FEC13B42479115DA428C2D8BFA1D07E03091EF30EE790704BCE601A39F
311
82C63489CC80F3241D10083BA69AAAA9CBEABAAC2F37D5ED5D3E576F526452C9ADF776E64DBA2CF8F1A2A9F4F15EA62A2932A0E414CC4CE5D730F5974ABE354E8A442A19292457E60EFA1A53078CA3351A289927BC26A43241088314475849915DF8E5C523F6C699DCB24ED2807C784E023190C1057AF29FDAF37BB37691C0
311
695CB223A71ACFEFC3CBE117BD1E6379C8CDF2D272AA911BD79F212BE2B04E5274F27651DF504B03041400060808002249EE52D0410281E6000000600100006700000045394646434135312D324339412D344237452D384246362D4437463232453434324342392F5265736F75726365732F43373836323743312D32393532
311
2D343235302D414431332D3434333343433644333631332F7468756D626E61696C2F302F636E782E786D6C4D904D6AC4300C85AF12045D2676C294FEE0782ED15537C57534A919C732B65C3AB7AFDD7A31209078FA107A4F9D7F0E3F7C63CA8EC20AF32461C0606973615FA1F0657C86E1AC5522E23B0C86600E5CA1C9A0D5
311
9EA8C42E6D7831C537D5BB70EDE28E0193B31F31EC30586F725E21DB2F3CCC640AD386F93A6D86CD344F09339564B11E6077603F60131AC60DF4229779944FE37C7A932FAFAD1EDF9568A4569F44BEF32E30268A0F8BB454C750FF914A3440AB925CA79A09D077CF2951975A654ED57F87F8162B6462F4CE1AAE3109B28C3C
311
5608CDA1C43FAC95687E6BFB0BA3F6968DFE05504B03041400060808002249EE52A233C2345D000000800000006500000045394646434135312D324339412D344237452D384246362D4437463232453434324342392F5265736F75726365732F43373836323743312D323935322D343235302D414431332D34343333434336
311
44333631332F7468756D626E61696C2F636E782E786D6C4D8B490E80201004BF42E6EE76F3C0F216234B883063108CCF170C074F95AE5473F5C4C06E932E4F28601967600677D21E9D8092EDB002539227A2FCCB80E1168D80A6417297A89C5D6963B7129A0D1E8F2EE73AA7B62BBEB8B27DE50B504B030414000608080022
311
49EE52BE89762363000000880000005B00000045394646434135312D324339412D344237452D384246362D4437463232453434324342392F5265736F75726365732F43373836323743312D323935322D343235302D414431332D3434333343433644333631332F636E782E786D6C4DCC3B0E80201004D0AB90EDFD75167CCE
311
820A4A845D83603CBE602CAC26799919AEEEE0D965E2E908050C6D0FCCE04C8BC355404EB6198129C92351FAD580A10E464065907C8D948F8F166375F655BDC3FDC3B4E530A176BE7057BDC43B2A593FE403504B03041400060808002249EE522F9929E67D000000A30000003600000045394646434135312D324339412D34
311
4237452D384246362D4437463232453434324342392F5265736F75726365732F636E782E786D6C4D8CDF0A83201C465F457EF76EF9276BA0C6B017896521330D97638F3F1D5DECEA83C3778E1C3E9B476F9B5E2E0605E4D200B2E11167175605F958700F68D032C578FCDD008569B30A2A062DD714F37EA2D92E53F6957A17
311
9E27345D2F686708A6B796624EDB06DF47C230E78C19234626082BC6B52A657EBDB235AFBF504B03041400060808002249EE528EA1C99B09010000550300003400000045394646434135312D324339412D344237452D384246362D4437463232453434324342392F536368656D61732F636E782E786D6CCD933B4F04211485
311
FFCA84C4728099687C84610B0B2B1BB5B243B8BB9205EE8487D17F2FAC14BB899D169B50C0C9979B730E20369FDE0D1F1093C5B09089723240D0686CD82DA4E4ED7843868D1411311F616408CAC3429A4CA4D8452C6B970C6C55714D7536ECBB788FDE6378D6EFE01519B453292D241D8E54958C06D29E1A95159D68848425
311
6AA813B2F5D027E8082A832172E6F334F2EB71BA7CE1B7776D5DBD0AD64829DE105DE76DC81071BD98B9C6BA0DD51017AC015294683BD5521079EC8ED63E04AB841429C7DA4227F3D75A49B5AECE6A956B59EC00FE3052B016F624F2030488569F6BE6137BFF16FA098281F8586F2A5AE5CE35FB6F2EFF56013BFC80FA0CDA
311
8790DF504B03041400060808002249EE52E3603EBE7A000000C20000002C00000045394646434135312D324339412D344237452D384246362D4437463232453434324342392F636E782E786D6C6DCD410EC2201085E1AB90D9DBEACE05D09878023D01A1D34A8419C380F1F82DA68B9AB8FDFEC93C3D7C52546FCC12980C9C
311
BA232824CF63A0D9402DD3E10C6AB03A3397DD192872090D3406ABE7CCF5B5D18893ABB1690CF4DCF02282E5EA8A5BB96FFE536F285CB347F95BEFFE81C9ED5AFF9D5B1FB575BB00504B03041400060808002249EE525C45B3C87F000000A300000007000000636E782E786D6C4D8CD10E822018465F85FDF754324ADD0427
311
04EFE1121D13A191B41E3F685E74F56D67DF395DFFD91C7A9BF8B2C133A84E1740C63FC264FDC220ED336E00F5BC8B21EC7F37407EDC0C838281774B0CE979A0C9CC6372853AEBD703AA566B395C2B4C643B602A6A851BA16FF85E6B4214A5448A361BE7A2E4F9F5F2963CFF02504B03041400060808002249EE52CA1DF9C9
311
A900000073010000130000005B436F6E74656E745F54797065735D2E786D6CA590410EC2300C04BF12E5DEBA70400835E500FC800F84E0B411AD13252E2ABF27A55740421CEDDDD9B55CEFA7A117778CC979527255565220197F75D42A39B22DB652EC9BFAFC089844F65252B2630E3B80643A1C742A7D40CA8AF571D09CC7
311
D842D0E6A65B8475556DC07862242E78CE904D7D44ABC79EC569CAEBA537E3521C16DF5CA5A40EA17746733E0B6615DE7217475F386F18B9481C510F1F021CD9FF027EA0E1F5C4E609504B03041400060808002249EE523DEE336E64000000790000001B0000006175746F6465736B2D64657369676E2D7061636B6167652E
311
786D6C35CBC10E83200C00D05F21DCA56CA76D41FC96062B120735B69A7DBE268BB7777961F8D5AF396893C2ADB70FE7ADA196782C2DF776D7A97B5933C430F15651E5469C55D70F80A4992A3ADC954792C525AE70A1E4D6AD9816CC044FEFDF01FE3FDE907802504B03041400060808002249EE52AF51DF49F90000009601
311
00003700000045394646434135312D324339412D344237452D384246362D4437463232453434324342392F4173736574446174612F636F72652E786D6C8550D16E842010FC15B3EF28785AF5825CEEAAF7057DEA1B01CE923BC10834FDFCC26993F6A909C992D9D9D99DA1A7AFF9917DAAD5696B7A2039864C1961A536530F
311
C1DF500BD989D1D55AFF8B0699E1B3EA21C1C0E8B4DAB0EC90B0C62B935063A5DA41EE9CF2908947FCF4E0C4879A79CE838F0C77CF172EEE7C5239C9371EA32168B98F6A19D5F44DAB1518C143339E870EBDB6A44155870FE8325603EABA976B595FEBF17A6969918619F57AFED92E56C5BD92C04A5C12841B44AA37DC1DD3
311
ABDF6991988C3ABF46CFFBD2E40ED8395D3D70CF69B175FFA88645FEAF1AB4F1877257DD265CF4118F7C36182D524AB13C238C3525CABE01504B03041400060808002249EE52144732AFF40000008E0100006800000045394646434135312D324339412D344237452D384246362D4437463232453434324342392F5265736F
311
75726365732F43373836323743312D323935322D343235302D414431332D3434333343433644333631332F7468756D626E61696C2F302F636F72652E786D6C85505D6F842010FC2B66DF51F0B46A835C7A557F419FFA4690B3E44E307C34FDF985D326ED53139225B333B3BB43CF5FEB3DFB94D629A37B2039864C6A6166A5
311
971E82BFA216B233A3D618FF8B0699E6ABEC21C1C0E8624DD80E4818EDA54EA836B33C40EE9CF490897BFCF4E0C4875C79CE838F0C77CB372E6E7C9139C9771EA321A8F990AA39BAA9AB921618C14333BE0C1D7A6D4983AA0E9FD065AC06D4754F53594FF5385D5A5A2431A35EAD3FD38595DCCB1958894B82708348F586BB
311
E7F4EA775A2426A3CEDB78F331345D070CD36247FFB8856DFEDF2D28ED4FE5E1B62B5CDC3F2EF768305AA474627944176B4A927D03504B03041400060808002249EE52CF9FEE4BFA000000960100006600000045394646434135312D324339412D344237452D384246362D4437463232453434324342392F5265736F757263
311
65732F43373836323743312D323935322D343235302D414431332D3434333343433644333631332F7468756D626E61696C2F636F72652E786D6C85505D6F842010FC2B8677143CADDA20975ED55FD0A7BE51E03C720A868FA63FBF70DAA47D6A42B26476767667C8F96B5DB24F699D32BA07384720939A1BA1F4DC83E0AFB0
311
05D999126B8CFF45039966ABEC41820125B335613B206EB4973AA1DA087980CC39E941C697F8E981E337B9B29C051F19EE9E6F8CDFD92C739CEF3C4A4250E2185522AAA9AB9216508C86667C193AF8DAE206561D3AC1CB580DB0EB9EA6B29EEA71BAB4A448C39478B5FE6CE756322F05A0252A31440DC4D51BEA9ED3ABDF49
311
919894386FA3E763697207A8BF85F54333B59062EFFE510D9BF85F3528ED4FE5A1BA4FB8E8231EF9685052A494627944186B4A947E03504B03041400060808002249EE52A8ADB7D80C010000B10100005C00000045394646434135312D324339412D344237452D384246362D4437463232453434324342392F5265736F7572
311
6365732F43373836323743312D323935322D343235302D414431332D3434333343433644333631332F636F72652E786D6C8550C96EC32014FC158B3B368BD70813255EBEA0A7DE904D5C94182C03553FBF90B8527BAA84F4D030F3861976FE5A1FC9A7DCAD32BA05384520917A32B3D24B0BBCBBC11A2467CE7663DC2F1A48
311
B458650B220C385B76E3B7039A8C765247549B591EA0B0563A904C8F7069819D3EE42A52E15D60D87BBA89E92E1699E2F4C5E3CC7B351F5235876DEAA6E40E38467D355CFA067635AE60DE200AAF43DEC3A62947528CC5305E6B964531674EAD3FEED32E859333E004110C510571FE869A533CC53BCB229333EBF690F9308D
311
E900EFAABA24558721690A0273522078E93185794E69D7953D2D3165D94BF8C7D06FF3FF865E6947C961F852D81031FCFFF9C059160B0CE3D96E98B16CFE0D504B03041400060808002249EE523B0DB814FA000000960100003700000045394646434135312D324339412D344237452D384246362D44374632324534343243
311
42392F5265736F75726365732F636F72652E786D6C8550CB6E833010FC15E4BB01132821328E9A021F50F5D49B656FA89560233FAA7E7EED40A5F654C9D25AB3B3B33B43CF5FCB3DFB04EB94D13D22798932D0C248A5E71E057FC547949D19B5C6F85F349469BE408F128C189DAD09EB0E09A33DE8846A236107B973E05126
311
EEF1D323273E60E1390F3E32DC2D5FB9B8F11972926F3C464350721F5532AAA9AB028B182987767C1E3AFC72242DAEBBF2802F633DE0AE7B9AAA666AC6E972A4451A66D4ABE567BBB0C03D48C4AAB222B86C31A9DFCAEE945EF34E8BC464D4791B3DEF4B933BC45EC1996005385A6CDD3FAA6195FFAB06A5FDA1DA55B70917
311
7DC4231F0D468B94522C8F08634D89B26F504B03041400060808002249EE52191FEF8DF7000000940100003500000045394646434135312D324339412D344237452D384246362D4437463232453434324342392F536368656D61732F636F72652E786D6C85505D6F842010FC2B8677143CAD7A412EBDAA7FA07DEA1B01CE92
311
3BC1F0D1F4E717D426ED53139225B3B3B33B432E5FCB23FB94D629A37B80730432A9B9114ACF3D08FE065B905D28B1C6F85F349069B6C81E241850325B13D603E2467BA913AA8D9007C89C931E64FC113F3D70FC432E2C67C14786BBE72BE37736CB1CE73B8F921094384695886AEAA6A40514A3A1199F870EBEB4B8815587
311
4EF03A5603ECBAA7A9ACA77A9CAE2D29D230255E2D3FDBB995CC4B0168894A0C510371F586BA737AF53B29129312E76DF47C2C4DEE007DDDEE74A4D87B7F34C32AFED70C4AFB537968EE132EBA88276E0D4A8A94512C5B80B1A63CE937504B03041400060808002249EE52107AFDE503010000D80100002D00000045394646
311
434135312D324339412D344237452D384246362D4437463232453434324342392F636F72652E786D6C9591DD6E842010855FC5CC3DFEB05AD70DB259AD3E41AF7A4765D6925DC108367DFC42B5697BD7262490C37706CE0C3BBF4FF7E80D17AB8CAE218B5388500F462A3DD6B0BA2B394274E66C31C6FDC020D262C21A820C
311
9C8D8B59E75D1A8C76A883AA8DC45D14D6A28368B8FB430D7678C549C462759EB0B77816C34D8C1867F1C671E6D4F4651D16140E25709AD28CA425C9F2A7B43A85553CB324909CAD4ABB03DD1FC3E905656466E723012F0E2CD9AE3DB62AB9434AFA4FAAABC2057857F57D7B293242DBEA42F2A6ECC8B1E91FC863D953DAE5
311
396D9BCA17F166CEAC5B7C6BF622A1097FB56FC65FD1D659FE33DAE6B0C0B3EF5049E83367C9E710FC1E66C23F00504B03041400060808002249EE52281E2AE007010000B201000008000000636F72652E786D6C8D50D16E842010FC15C23B0A9ED6F3825C7A55BFA04F7DA3C059720A06F0D2FE7DE1B449FBD68464C9CCEC
311
CEECD2F3E73C81BB725E5BD3429261089411566A33B6700D577484E0CCA8B336FC924160F8AC5A9860C8E8E8ECBAEC90B02628935063A5DA41EEBD0A1088297E5AE8C5879A79C6D71015FE962D5CDCF8A832926D3A46839E7F5A85533C280959810B82708D48F98A9B537AD51BCD9392D175D572B7D232BAEBAB560E3282BB
311
BA7FEE1AF47224352A1B7C4097BEEC50D33C0D453554FD7039D23C3533EA838B3BEF4362CE003CBF275F9A6F14A3EFD64EBB208692C09AE90B324CF344FC09BD2EF21FA1B50987621FB875F89839067A10D1385D3096C779634DD766DF504B010214001400060808002249EE528CA2DDAA35010000A80100004F0000000000
311
00000000000000000000000045394646434135312D324339412D344237452D384246362D4437463232453434324342392F4173736574446174612F446566696E6974696F6E4974657261746F7250726F706572746965732E62696E504B010214001400060808002249EE52F6B7F04515010000300200004500000000000000
311
000000000000A201000045394646434135312D324339412D344237452D384246362D4437463232453434324342392F4173736574446174612F496E7374616E636550726F706572746965732E62696E504B010214001400060808002249EE5288E57597CD3F0000904100006B000000000000000000000000001A0300004539
311
4646434135312D324339412D344237452D384246362D4437463232453434324342392F5265736F75726365732F43373836323743312D323935322D343235302D414431332D3434333343433644333631332F7468756D626E61696C2F302F67656E657269635F706E67504B010214001400060808002249EE5228BB58AF8001
311
00009E0500003D000000000000000000000000007043000045394646434135312D324339412D344237452D384246362D4437463232453434324342392F536368656D61732F436F6D6D6F6E536368656D612E786D6C504B010214001400060808002249EE52E336299B9F040000341300003E00000000000000000000000000
311
4B45000045394646434135312D324339412D344237452D384246362D4437463232453434324342392F536368656D61732F47656E65726963536368656D612E786D6C504B010214001400060808002249EE528DFFFC99640100009B0300004500000000000000000000000000464A000045394646434135312D324339412D34
311
4237452D384246362D4437463232453434324342392F536368656D61732F52656E6465724D6174657269616C536368656D612E786D6C504B010214001400060808002249EE52E68DE2D3510000005700000047000000000000000000000000000D4C000045394646434135312D324339412D344237452D384246362D443746
311
3232453434324342392F4173736574446174612F41737365745461626C654F66436F6E74656E74732E62696E504B010214001400060808002249EE52C55C663656000000680000004500000000000000000000000000C34C000045394646434135312D324339412D344237452D384246362D4437463232453434324342392F
311
4173736574446174612F53747265616D56657273696F6E5461626C652E696E66504B010214001400060808002249EE52B16719C436010000A204000036000000000000000000000000007C4D000045394646434135312D324339412D344237452D384246362D4437463232453434324342392F4173736574446174612F636E
311
782E786D6C504B010214001400060808002249EE52D0410281E6000000600100006700000000000000000000000000064F000045394646434135312D324339412D344237452D384246362D4437463232453434324342392F5265736F75726365732F43373836323743312D323935322D343235302D414431332D3434333343
311
433644333631332F7468756D626E61696C2F302F636E782E786D6C504B010214001400060808002249EE52A233C2345D0000008000000065000000000000000000000000007150000045394646434135312D324339412D344237452D384246362D4437463232453434324342392F5265736F75726365732F43373836323743
311
312D323935322D343235302D414431332D3434333343433644333631332F7468756D626E61696C2F636E782E786D6C504B010214001400060808002249EE52BE89762363000000880000005B000000000000000000000000005151000045394646434135312D324339412D344237452D384246362D44374632324534343243
311
42392F5265736F75726365732F43373836323743312D323935322D343235302D414431332D3434333343433644333631332F636E782E786D6C504B010214001400060808002249EE522F9929E67D000000A300000036000000000000000000000000002D52000045394646434135312D324339412D344237452D384246362D
311
4437463232453434324342392F5265736F75726365732F636E782E786D6C504B010214001400060808002249EE528EA1C99B09010000550300003400000000000000000000000000FE52000045394646434135312D324339412D344237452D384246362D4437463232453434324342392F536368656D61732F636E782E786D
311
6C504B010214001400060808002249EE52E3603EBE7A000000C20000002C000000000000000000000000005954000045394646434135312D324339412D344237452D384246362D4437463232453434324342392F636E782E786D6C504B010214001400060808002249EE525C45B3C87F000000A30000000700000000000000
311
0000000000001D550000636E782E786D6C504B010214001400060808002249EE52CA1DF9C9A9000000730100001300000000000000000000000000C15500005B436F6E74656E745F54797065735D2E786D6C504B010214001400060808002249EE523DEE336E64000000790000001B000000000000000000000000009B5600
311
006175746F6465736B2D64657369676E2D7061636B6167652E786D6C504B010214001400060808002249EE52AF51DF49F90000009601000037000000000000000000000000003857000045394646434135312D324339412D344237452D384246362D4437463232453434324342392F4173736574446174612F636F72652E78
311
6D6C504B010214001400060808002249EE52144732AFF40000008E01000068000000000000000000000000008658000045394646434135312D324339412D344237452D384246362D4437463232453434324342392F5265736F75726365732F43373836323743312D323935322D343235302D414431332D3434333343433644
311
333631332F7468756D626E61696C2F302F636F72652E786D6C504B010214001400060808002249EE52CF9FEE4BFA000000960100006600000000000000000000000000005A000045394646434135312D324339412D344237452D384246362D4437463232453434324342392F5265736F75726365732F43373836323743312D
311
323935322D343235302D414431332D3434333343433644333631332F7468756D626E61696C2F636F72652E786D6C504B010214001400060808002249EE52A8ADB7D80C010000B10100005C000000000000000000000000007E5B000045394646434135312D324339412D344237452D384246362D4437463232453434324342
311
392F5265736F75726365732F43373836323743312D323935322D343235302D414431332D3434333343433644333631332F636F72652E786D6C504B010214001400060808002249EE523B0DB814FA000000960100003700000000000000000000000000045D000045394646434135312D324339412D344237452D384246362D
311
4437463232453434324342392F5265736F75726365732F636F72652E786D6C504B010214001400060808002249EE52191FEF8DF7000000940100003500000000000000000000000000535E000045394646434135312D324339412D344237452D384246362D4437463232453434324342392F536368656D61732F636F72652E
311
786D6C504B010214001400060808002249EE52107AFDE503010000D80100002D000000000000000000000000009D5F000045394646434135312D324339412D344237452D384246362D4437463232453434324342392F636F72652E786D6C504B010214001400060808002249EE52281E2AE007010000B20100000800000000
311
000000000000000000EB600000636F72652E786D6C504B0506000000001A001A00210B0000186200000000
310
504B03041400060808002249EE52000000000000000000000000370000006662782F37393734364338322D443732332D343845322D393730462D3733424132303635393837312F617474726962757465732E62696E504B03041400060808002249EE52000000000000000000000000350000006662782F3739373436433832
310
2D443732332D343845322D393730462D3733424132303635393837312F76657274696365732E62696E504B03041400060808002249EE52F270F1330600000004000000360000006662782F37393734364338322D443732332D343845322D393730462D3733424132303635393837312F747269616E676C65732E62696E6366
310
60600000504B03041400060808002249EE5288E57597CD3F000090410000420000006662782F37393734364338322D443732332D343845322D393730462D3733424132303635393837312F7265736F75726365732F322F305F67656E657269632E706E67355B773CD4FF1FBF73E71C0E67EF7576C9DEF3EC995D46C6A1EC50
310
46649CBDF79E192942562825CE965D8A868C2842C8DE9FDFD1F7E7F138F7078FCF6B3F5FCFD7EBFDFEC41B196891913091804020321D6D7513FC77D8C5070EC3FFEE51B21F068154CC75D455CC028A3EA68992803810109FDDE5D5CEC5521B28A1B422BF80741695D5B529DA1C2D058AD2388BDA9F476F7C2CADC939304173
310
DBF48A452BF8A700C0C70C3D121C1AA15A5270C22E2B9E28763651F7DA0D12CE11077B2ECD0D560B5E3DE2368B1E65C5E1C87384A4CC5F2D9FB8BE39E9B77C753783A37998F5CEF1B4FEE553463245C9712270880DF339E0B882A6BA713D865F6F384C842D440934EF264F4A304F8DE4EEFA1E2BF5E2D91F5ADD9613D6E31D
310
DB33ED31DB1D7916CAF091286EA3D31B9CFECB78BB0060245B943C4C040119FF780A74DD308BA9D028678674EB5504ECF284EE814DAED07440BAF649BE4B55DA2890F4D73E2D489A59EE54FDB0A85B59F2F52C4858A02705C4815A792B0C4A996A2023ECB195073E115E3E3647F64243A8338F2000BCB58DA5692C7E7C3D41
310
3F963FEDF3CF00FBB0F831A9D51360FECA43819F527B89FA260EB63C5DA676830AA3626A3693B23F1A17A0DFFCE3EE164E31B5365EDF0C89EF64D8E38AB0BA9A1117D7C3A0EC44F44F4023095E80BA610DE336D0F99593A88BFC5306E72DF98F7FD132ED95878DF2964EA7E43071359FD83B2BDF9C6B5BDF768F0F3C0FC351
310
199526F53D9460A34511F75D1B63E488178569472C91A94497807A3FD4A390C6558F26D416365C3656DE6E769DA9D8FC73774E1709812842DD8EF96AED1960F79D21B395CDDFE6F92CB4EB962A4668C76990E2EF29798C8941D67DA50F4A5F947872460F1F6FDB794E8A29FD7AC0C0D6E0714339CE258FB17AE8535221E346
310
4A10F29A0BE5EEECEFC5675926A89F49EB14E5711894F6586DB5754EB4D5DA9C6437EBA57DB97A24F8B8A8DB295FFD73266CF57E82694DF5166DDF93573AFE9C9C5EB05F8FEF8E89E0A8917B0B3724DB7BEBB53252581EFC3E38166BA131A3A5B42FE2AD00A769BBFA4458D2DE7822F8C4F63D0B8E21B285AE13325F3410A4
310
35C648C9D91FDEB109E73CEDA7BC796961AF79175E1A3CE4C5E8B0D009B0C9E29EFD98BC8E97554E3D8D838424E270F7685226E5AC268E021EDE3522D583E8F20C0BDE2959EF5BBFEEDAB32FE9A3ED0E39F211A86AA9DEBFC68182EDED132AB8BB794442D2D7EA9F4D8BFF52BC4D55BB165124EE90A42D101E67BBBB292FFB
310
4F66DE5BF2300E44546757DA7CEF8932BFC9F92A0707953491A55C5A5ACEDABD9FA1AEA01BAC3DC5A24E22E7C47213493996EFBC369D086ED9397C9BA6C7F9855C7BD5E15BFC8C53DB3D2A4C5901A57ACD2FBDF4D1676E95338B2C2BCE65FDA4C64F5FEFDC7D9CA5AA1FCF11E193F2FDABF0F4916BF13FB916A224380E6462
310
A9815F2300DC49CC4DF8D055CEF76462F4B7A7ACA7365C2707891370BC1D0AA6203C44CCAB47084FEC057F27FFCD57F89B8B9852459798A675C66BD7CE572CAF71FF7E6D7ECF7BF62CAB7B3F1107DCD04DC55A3F9961700286141C94A4F771FEB2BCDA2DDEE0CB0BAE402FF1DB0100F8E475DFFFC074DDB4498AB7D186A765
310
4DDB1CB680D703D47CEB4E72F8CB13D86A4AA68116E26387B93FD6738779B34FEDB8E517EDF2BAF28D9BE93A1D3A164320E07D42E514725C29515FF361754213EDE06B079A2E99EB1CA82A02019EADEEB87B9AF005BD04BBCECB14AACD6B24EFBE482194A97DD32400685FF1FEF1544D1B14EFB1E7F08E6D2CD2AF52DE757F
310
35F5E62332EE88EA26417AD5C3E0E319D68F25414E6D672BD4522B278C57D18F0113921C71D96527E091F00CEB15AE23D24667369BD3CEFA10C7549D930890BA4366F4EBC55F01F746109F98ABCDD5A3EE06619C6AD78AB33E48E4C9BD21BF7478B385EC05C4F8987E2C1BFA0A60EBEDAA0AE0B015C2720ECE180FB6F2DEFB
310
EB822D96338C9B63822183BBF52FB664A7AE57003AABCE512BF77E7E31BDA2E739AC4C131657DDFE5225E900FB56CC01CDE808FA4A9C9DA16AC679656BB64796283D89812B8F91136AE18EE5EBBAF47A73BE3C153EB5D4CD491B4BFB4FE690A4CF9ABA08C0D8AA64220C438C96EA6CA80B58FE5761E697B3A292EB9FBDA502
310
FA863E49FE694ADDFFF9D62C520BDD1A22014147A0903A05B9B729F54272EF83931FEEC057BFF8C8055C279EAC5C0011804828734024F6CFA319C9CC6867C727184465CD9BB7ED386AFFD96B294A85E3802FAE47244602D8273615952B98C4F23F7EAE4463D9D638EEE374A20959E0FE519C4CFB0FBFE5DD80C2AA3F9DB961
310
D1BDE57E67C9BB47B77FDD74EE3094F5DBBE3EBC1FBDB7393F5116263009E2EFE1AF9A221B2AE234C902BF70E9F280ED23E73908361565964333A3F01D0B006AF32FB21AA1316744B489D5A198E85299241735BE559675130955C902A8ED761FC0DBE337A9F91919AF5CE32AF902ADF9AB2615E00E8A94586BA1A90839B618
310
32FF1BFB76D2EFADE6DB1BA04CCAD3DA649E7E2A0219F592E22F2AD54847EEA8E42271011E9074F8F3DD9FBA6CDF88FFC9FC7E811AD1CA8F4557CE4AFC7BBEDCF0114A48689F20A584520C74DA8127124B767E2FB91A6B186246727BE63C9445BAE02088D58B8EFDC0F1072407CD9B89A13F6303B4A928F593AD489B58E686
310
9325790ADC406036C591729FE14021F94B7796BB11848D463536A092A26F077F94639F7CEEE2A724C66EC885F4A24F8B8A0AC321F8FD149BA529460FAA34E4663C02D41FDF80BCA222D42F0ABFF8490F4FA74C673807C2051D8E467B47B616072860069A9A303ABA9B319D58404461401B0A0F9BE5E1E151C14BC33B32ABE0
310
3DDE91708DFAEB15E7C0D593C86BB7D7EC17BE56E57975F077BFD5525F3A1A361D584A75E08CF29FC7B44B2B3085014F3A5A14517377C3F6B8F37E59514C3B12F8AACDEDDA4DFC49BE5710101534CD6FB6DE15B50F11A09472AABA727F0C49D9CB906B158030065F48EB3625E010CEC1D511D0053474B11E6A4F01C0D6EF1B
310
ED3A944FDEC70E0DDCDC756C86545910E0DAE3BE3AA9A404574C2995CD5CAF9549226BC94B4F4F0F5F9086F418F6B32346464610D8BC7391D3C3A3CCF04CFC1FB2A3A3170E369511868F14EEA4E5E438CC73DB1F3248AA94B6B2FF33B222FF3D1E7BF146CAD229770158063BCE4F5391964DF62F7E52A7BE0EEA829C9E13C4
310
C147D6F93FE59E111DAB5E4594D6F3CD1AD375EE039930EFE5AF2BB2D41C83C7DABD8C659BAFBE8FAB392CA634F3D15C1D945DB4588D2B0824A4EC928AAC565557CA2F0DAA588CA5BE30B3A8004F7BF005E96CBF891D7F18112A3619FDF530DC8AA64954258E1811789B5189B49B4EB53F5F89F7D37523894F3EB57B373763
310
C91E502F52CC99EB7BDDF933FC324C4FFC2561DFFA7339FAFDD0A4BFBE6D3A8FF9ED1FC49898139864602458968913181918F719CCF5A68B2EE9C1FF050E34E63107003B8120FA982C21B30A874E4F5E4B38D5A8290C4B8D9BE48A0BE31EA995BDC37AC6DE90BA17D259DEF53605D55922FEB1855D915B659FBEB350EE0DFB
310
2F9F766E1C84CC8964B75D08667445EAB966015F63A18A9E0A325C1B3DC628C0D3CB60F767FA93CC65F25458BD23C3B312716E5F40E5858AC06EBA9AB14F95DB99147B832069201541D09A0D856E12C629CF32683760EE855537D1901988D5EBC156676C7DD51D7207CF3267AF1D76C2AD867315E44618015313A98B19941C
310
696FED3461CAA9B5415F918556D7802EDACEFD6B2E45853A9735DFC9DBF7E440F9319F8B6805A973BCCDC76C069A9144E51F187EDCC12FC31B5DEAAF0A76137199B106EC84ADA6B6EE697D4E6A96E007417F4E880E8B1E89B4BCE9D81EF611E2ED8F0C1A6C25F620FAFAAB656A7C42D464880E8AFAB0E0FC8EA38CA9A8AEEA
310
EE3E4648BA4680270A89743CDD3E6C6CBF34B7B640EFA285ABC7EA0A1E28F3CC963D114A80123EE66D0AF7D5380EB41909B605AB4765B709B808590458157E69BA1378FEC4B48CAF6A730E3BE3C5EF2DD1A5EAF94B1DDE50CEB55DDFD7EE9A16747FA4B223359FB1FCC69E1194892BABB93A1D5C4E807AC0EA2E30180811E7
310
7A2291F6E7F7FAA5E0F60215BC6024E48DE436C511F0628B8CA189982D4D83CCA17D305A7E923C37941CFDFDCD93ACAF735EF5F0E61BBD3E6C41A59B242790D3A3BAC7064DCD89AA2E37214EC839820949D5CAA31E240D2948E48F690298974A96BA9A8432BC90F5071D6537C9666EA4564796B7AFFFA548077BEEA75F6308
310
3435074BA182F3699557397F71548383FDA8CA34D99B981E72835ECDA5DDDC151315173D05A21F651AAF8524E88209E2E7A737ED1045800CE3390050BCFB8BE588DF111617874C62575039CA588EEFDEFEFE319B739DE2EDC147092A262611E159650E787917885EF08F1F51B8F2D8A71D60B58B190FEF9541A1BE94BC19FE
310
A50784DA1419FE4B0FB51B8D36B5FF8E1286FD8AF42B91E59A5F1CC4D60174E764045FD8C57B18209B217F89A62252BD20BE0E63E12B8E8F029FE19E0E8D0870F58721A557082250D5424F7909369376E41666C0EE77CD87CB283F661D5FB6D0DA023CB67320A20DC7BE661E9E1BFE5463085C557DA1FF9BE835733766C3D1
310
39F2CF9E2208873AD0EB4814DE9E6BF2CAF81614D4D43906ED1C05A3265CABBFE192770FC2F64F940CB6B17B5F166F133C9AEEAD2641807C3E69515171DD74C4A85311513D6EC9530B3B601B6BA3EBFF3B5C3D2F7D69765141E345F75433953D013ADDF8F6AA7DC3F4A7563FE5C7D367937E2900D7EAD0F9FC9A4A1A9B5BDF
310
1FEF08532660C01C5D6DE22199AA774383E306DAB87E301ABB7D213887F9869D4942D0D71E94B27EDF216A318BD488D45DF84529EF575AF3C3938C0AAA0215B01994153E2054A0B894DA5C784980633AAD48576957CF4AEAEAFADC7C587368551C73DBE1E57C58AC713303A8BFC258BD04B51724459FF9E24C03A81E0E0679
310
CEB9B348C0DC998FEB9C6D6EFA77D247CC8F92D3848599ED89A23218D0636465AD1CEEB7DC140D7426F83491C4E8E8281C2FB35240918FFECE880CA2A42D70E8B20B34DF5221C7DB0CF90ECCB9C745B37A47E9B716FF7A97B7A252C1F3814DC7B1E1A7F72B8751D524EF7CAE45B0C73B3BE7D08ED39781B380DDFC9AA4A474
310
9C9493DB5BAD07A6EA6C092FBD0E85DB004DF06B8C9D3089C5320187E4CE1846158C7EA7DDAE8AD9AFFF21AA3A1026BB06A259845E8232DEE62811A4DA9CEAB3A4887320B76E2AE5615EAB7BDF738CBDD01F1E64064BC13D9EC53576751CA8CACD58B3CEB0E6CA585BD089B2A59B9FC101403387AADBDBE70586B93D64BF3A
310
D4453EF9C3B6A93817E8346991798601344F79A83C51F3D50F7BF2683A3605F51A72449489E0EE6169C749C60B1035651103AEE24D24E51A759C840DD3FC6504DA6FE107510E447B43461C79D22970B75DE5E1BD3007D1AFC619A4A4A69B5626AF5E9B8374E20677F77E2F8E73DF868E8BEC7EBA7B6A75EEF7205E1AB9486C
310
B642741D6E03FF13FCCEDB1C4AC129886268B01CDF4B124AF797CF784F3C6DEC97A17D4B558070A0F1C04DA4FF9BDBF34159AEFE958479824B3F58EBD1E19088A2AFDE501B6F2052368A3FD0E650A179EFAB1561E1D27527077136E652676C3670F42DCB3352F48F6BC86D2C3B0051727E41A0A4DC6CE2BE9D47F5CAA2935A
310
3C0539AF080665997194ABECD723B08129CC5B6B21D2E7D54CD4D12610E7E9FB8306771A89576C7A982002775ED44F3F744CF21EEBB27A631671D921938AAEE3EB0D19CD1E083727F607823E817BF599DCED5394E37EEBC2E88782E638920CA641EF74D4CDFCDEF06F4278ECB18E31E7E9876F2D783C8BF429C75395F57E98
310
C2B495A3DA077EB3AC3C158608B6B57FE3EA48484D9A480096FCEE0DE880950E7E5A5714131C5C41AAA29FD19AE81AC145FA1B9E85C7169A5AB837B213493DF7E9AA4B5FBF9CDEB36EBD21EF1181B7CF7366AB2A951D01E37AF4EB835D1BE8C117CFBE7625D2EBCDB0B20C5A4B45CED0BCDE3EE8DA9DA78C2E21DEAAFFD119
310
7E463C33CC6A80FB785669B856EFF7A8CCCA2841B5A5369173320B1170C368B2748D81062EA0296E5E2D95D7667A4A46D98A6FF475C76AAB0A8C8D45E226FAFC9FE0133EA9F60111F99CA81ACE03A1D14C89E8B0D69079C91464FA1D99E651D0EAF606F345C42A8A1AA9BA391031582B96D5B4176A77AADB01F12FD298A75D
310
EEBB2C82F0B8650E880722F8DDD90C56A7A058E5FDEF1AC93545BA27367C76F5D8F9690CB6F8DAE141EDD7971F0FB548A2AE435F224D6E5954CA155512F7332029D5A1230854B79F258EC5FFDB09F5F6343A8EB193229B7F7E79B3E48F8E183860B38C8269D1B53738FF1E0BACF6AADA6D4869E9DE708E79B5DADCC09B1BC7
310
6F649731CFAF59A83FD8BAE4C749D66FA87A3810D4D62FFE826FA400C0F325D2BC0F3CA35F5847B82A2ACC7961745C823E4D863D54460AF792CE6F79B5C7A33B25C3AEA6CDE15A919B6367D781E9D44F61BF828672594A3E1D9EDD6DF179A81F27EAC05B936575D73E05C209DDD2115CFB705DF9BBF3C911589B3640735E9E
310
618FC9C36A7326C82B2205E244C55D56FDB9D5DC93CE958D4BF8174D2B3DA54CB3C09F2C2A6DFF73D23B2197355761AD421EC581284A7EF8DE2CE3497C0C804D49B41DFD6A7360844E5BEFFB495CFCDB97A4595911CDBA623274CE852B5E278AF0BEB1770E9D37CD977B2766A7DED0E94B840E1E95E8C77DE5CB6354AF7871
310
427C28ADBEEF7BA0A28E19DE9ACD75F379FE373EAE6DDDAE3834692F9C2B03B4FCA8FCA9ABE8EEEBEBB725B88A7C90941E850682CA04061A7DF0CE82ED49BFAFFD42C309818FAE14755CAAE78B0F73243ECCCAD7DF58FCB9CDFAE7A4D3E6671A613639130D056C8383C8F4FCF4808C331E544DD26E4755D09EA05253B3049A
310
1E32587CC25D72E073E2CD96D04A71BBCB0038FEC3F53D254199C3CDC67CD66640269431860225392B2CB3ECD0B4498AAE78BA1994246AE1EE78F2EDFB79F6C6CB6B5E279C4D373FBC21CB2698C9ACBBEB6A4BB6B39E16AB0E421CCBFC7654D81ED86022F9BB522146F9F4772E2D0E4FA70120C95A85A417BF5078B232F475
310
4363EB1750B2AC2148EB46B1EA72AD9B4D23ADCBC589D70106C3EC2ABEEED84DFE28E718C6C83502C28E9FDD3B09DA0A6F6F7B72B706A31C9E2A331EE70DA56A083D2177BFD63C55B11D8D949FAFCF90B23A1E24B9B5018B9A17E99F2890EC302F330FE7936E2C23F0D237EC8916F5166AB84B62A21BB0B950146962D754F9
310
2CC2C8877BED8FC7B7B25726DD19545392570B3A2C66B58F027BEF412E552D12A588C4A3CC5C3193FCB3485EFFF700D0B9EEC077754A33DC1FB9E25AF814628F91DDFECB667D3F7690803F38D13F8AE39353523BB08FC6760144AFA2CE28236F65EDBB3D5F59A57D612B99E3D7E5F8A851666BF9B5A6658EFC96EEB37A378A
310
BB0EB3FDDF1303AF32C41BD1C8560745D7BD81066B0D6313359CF488563D3BA3F8E2185D1FAA3EBA1397C9D0E3DD232180A4DCADB6AF25DB3AC3CC26589C8239E66E81547BC7E2F328F9884764CA37EB5DBE390DFC03A5246B456A7C3684C4377D0EEF9A350680FA9A077E8B2957B489E09AB1AD41316944C2254B5984830F
310
691C93CAA767EECF976FA5647538830B5E63236A6F0365C1E0F3E327F24FE35EDDBD7360B0F7374837409F7A6311BECC12B7026D4FA1AE204FA3F5FE904B1F420C7A9044AE58E403E7C4848E7DA25DC9EDAC79DD756FAA26B9EA83ACE8A214A2612A22AFA19DAE7DBAC5F8CDE1292A485F98DAC731A29FE01A3966E96BCB9F
310
B5A4C8830E1B9AF0C54B87FBE221A097036E5D28D1F869F810C06A9BB0AC0612F69AEBAF893C6E7AD59460208BAB3A6B09CA4F6BDDAB8CF0D1F84B72487498395A70DCD754796E271099A567A55CF242BBED64696378BB6CF25EF0FCDB589F3A82F1116D010A9AB9FA4358809EE0C973A2B4229BAA876A70B03AB49CBA7FBE
310
71DB1832FFD32F9BF2C8E98075CACAFB36921235D0F552B6A67E94E094097A5D7DF681B40623DA535ADA7A9AD8E9A62407D7C9A5AE51D62A17A83A23728DE86BB56115804D3F2675F2C6B87541A0FC497BF0CA86420F558C9859EBE9FAD62747E323E3AADC03FDCDDFE7407B09DA90B44E3185723C5381EAEF589765E2F7A0
310
99BA46695BAD60CEF3491B8A171F5F56444F7CE9455312C3498C74173AEA0214EC029833B34B650CBB5A5508D5091665309642791708ECF27CF11DB3D797D6CFE474453BD4BFADB768094B2147814D81C7CBAF8228DCAF5564B5891F5EF6A860EB2E323CB82AB868D8EA048880D63B0DE5341F1B3D53297B928A11E15F25E5
310
148990F710747C3509ED14909C552EBE3973246FCE55D00564D8310BC3EBC5085D08D806799B77D6C57FDF5E55837F9E934F09C03C729271B64F12D0A9F9E938107CAF7BF1EC8CF1BB9B42363D33070F4CACB425E605DDB0A34A12BB936DE286B9887A4E2E558F0886498BFF49C311D96C277CF6A9FC0D75AD0ECC5226D7E0
310
E3572012E56D7FDE4410CEC7A6D0F997F225A2055B8B92E3956E875AE4993CB3D4C9063AF98FD45E1BAB165640A43439A2C9181A7C355B297C0A0CCFFAE19B6FA3C2BA238A885FBC98B8F6DAF4B94B97304878DF4D8BFF6A4AEDF79E90ED4E68F00CD7299F4E0D83E35601AF0CBEF18C1E870E74758FA91F5131075004DB3C
310
FCF09AE1DABC11957FD9808C92E8A678CE9DBE40DDA0E0D1D505AAFBCBA208232BFB6FB3704E8985E61ADE53DE74152F5C7DE74B1DEDCD37DC3E8FB30D7EBA8B9EFFC3606BF90B8D438279CB7709FC7C00D327F41817EEA71CD9E49FE9C8C9A81C70915D9F0F15958EC5AA4C3BBFAF46986B90F188BDB24B89DE3C6F29EC3E
310
6F66D84856EE96A35E657CA41B41EFD8DBFA16AD6E91439EA92B40B21C053249F51AE50EB0B24C770FFAF40DF12C8436366819C48E36547D4E7B72FE2BBF10828583057814A668BDF183F6B2E58DFB151103E56303E63D00F39C27C4661605DB644D19175D02E3F0241E8FC3458D17AAAADB117CE9EEA690D0DB01E634878C
310
04C2C9310B69FCAB831151E3AD293BEF6E46B0ABCECB50F5939B39C613D41E81FAE8D34CAE3C4566B761D37185FE864AC32FCB71AEF39DAA5BAB88609BB980CD2F07A8F941653B529567726E2B2A58D079DD57E1E5E31426CF184A04D7B03B985F276D47406AF276FE32E3328BA866EB1FD39BEF57863A317634AA5FE46740
310
9B3873F5069EF0D71AF00AD189D17BA1974ECDB2D623E9E14086386A6AAB5807825C37B015BFE892AFD154920EC437EB945D958E18622E1E0FE2FA06557CE4BB9BBD05A2D40E774DA2B65473791E314B7D6C886820B2FCFE4AA272B3B8B15E7344A145E8AF919B5454D89D36D413E87211186BF6F645E5EC94DCCE8E1C7990
310
22E4EC9BC86D7A0F2AFB1FC4B2CE48F84B3F49ECE65BAD24CADCC07EFF39AB06BE9E6B27A059938EA7208838455383DDBCFCD967DDE4650EF92A14FF933C975DB20BD7FEEBC4487576485963D757D16340D9599FEB362F775F38CA4185A86F74B629C81B133644A3B18FD056E997E0734F9BE26D11C0AAFC669E2AC9FC41D2
310
81F8B2E1C35AE27BCE05F3DA295488096688719D974DF1B5D182DB7792288697F8763CFB43562C1CDEE11C4AABD5C22B6E33F6F389CFC3477C5919DC0D533F8A7A1846B7ADB60ABDC26C43D0CFC8910B7C15EE22675BD02702ED39DB77A87A192CA7A543E6205B979B9F5A6B512A3CA799E198B2D5797C0AF8D1D872CA455D
310
4D431A7879D4DD76110B5FF7F4176B54477A9EB5E4A5D11214FDA585F0382751D8E2582BA5D2075053298FEB8F1537304E32CB22C2E2B693DC0A760B1DFCA751BDC445AFDCBB12820ED85F6D5298933C7EF1211E9E057684056CDA3FEF3BB6052355E162DF27C59E965A8DDB7F9437EB72CDDA3A090DE65A5B2F50326247B7
310
EC67B73ACC7047FC9B353D6EE990F772207C6EC52B39DC2F3C0754821DAB559F7C1809C7D0DD5B0499D0442E0A6E391B3D5DB46D11E731E6794EC77523FBDAA242ED67F9FA1FB684255671F63C9BCFE6E7E896D51001A6113EF2298BA494E0B0980D1FA5B9D60796554C02256B1E0345FB7C6186B6A19D2DCA270416262845
310
FA4F42DB5D9B0A0B6F07FCA2E56C242522E001E0CEB734AF310FC8BFB57E38E03AACE93B3326A2197891E68452B26A6307FDABFEE0223D3C03C3C73D2D5BC054C8311F12004CAE488E5C29287F8156A2CAA4AD0D7BE6B97264E4139F437CE73ADF52E5134C52B819777C18B323A5924E4F67AFD13B1CDC3A61793A79FAF5C0
310
CEB718E441071E797C6DCCB9EFCF7E4A1E9F3DF3C2F9C9E8294E9586868788C972857FB0556D7A26941A7EEB9B580AD78EC40B85DC906B4120A563CA3B87797ED612D3B035962BB75F6515A393F4CB057F564CDF54F2E5A024514E6A1F901DB80C7E70B1FC05E356A7E72FABF4775B3E3FB8F70A2A8E7B6A94542BB3041579
310
78CCC999E707A29CC795E67A59CC546A5D47B368954CA7B6E75EC9E1F6FC73CE3B4F71F8CB1A6B15923D61EAAEB14626AAA9D04A26EB9C66CD1BE86CA31A5D8703DE04CD1EBCE4F5CCB62F93909AD11E55799A781A956ED27D3E738F4538CB04ADABC7DAEF20BC35BA6A90BCC1DC61BA05F20D8832FFB9BC9B15E2DB838A0A
310
FBB7E0C82A562127E0446894F427794C3037186F622BF24DE1B00AA10A23BFA47B2A180D6DA5AD6F7326FEB8C100C2D7142EB2A0B2A9D1008A09BA343D70E054AB69E2A7EDB783CBD92537FAF4A44D1296AC2792729104B3276C276C951D0CF3CF3F1E6B017720A7B8505A5FF9589365979678C36F1BAF759EAF57C60F1FF5
310
FE9DCF5F8E764FF25A2D06CF25117A8FED51884C13B2B750DB0E4F5E3D64124FCF11F0AD8F1CC3B3DA4B38ED22BF1CB2585EE6BFEBBA63FBFD44F9537B9B37BDD6B358720F98A8125AED4349CCFEB0E135F19E208A04CA7E2B10711185D72E381F448036EF57C9F874E54A971CA37A639E986AC0226DC5AA00D5B14FEA9192
310
234B3DE617814FC221C92F33F1D392F297731B567FD98FD91D989379AF567A65B8ADF177591DB90FBEA99BF4ED11B16E50A0AB1DBF1156D034BBE04D69D08F939D8E92BF525A1DDAFF80ECBC95D8F45D3FDD289FD23F7D8B452F8EBB34EC082DEEE68E18EDDF072060FAD2AB1504DD4879BF67099FC58F6E9DEFBF645D1633
310
4A3E9A127C6F1AF6132CF287E433B43A0EE93812B4AA0B194E03EE3FF91EF9C6ED0074A2F6EB18A96A7C9890B1FCDA1F2095E944DB911ED54C60DF16FB74C8CE9BDC7C54C4F14078CF73C2FFF1F1BBCCD7CF64F71407EA1683DBC410D226627F66E509060D5C0AFD611DE681D509DB8DD12FB1265B03C6F5C55FF4C30BD941
310
87FF692B4F152982502F193098A789526A038AB529A52BC0DC4FB6285CBAC10A8B8DB75DCD9BDABBB221E27D1F8DA9F5EE5926A1C8AA9BA9BC09239C6A7F12914EA3B59EFF7AAEC3FFCCE56F1C5C2980AD072793527565E774F4631DB178CEEC691B1F367BEA0CF2907E1D6B854D527065979DDEF002D8B2ACEA7CE21AE297
310
737EDE1D45B31233B73FEA35BCFDD0B09721FDBAF6432681F2FD10C3E9EFB246FD6E854B344ACC9D8A0EEF876A7314B49B6A499FC650B099D650DBFEC7638ADFD245E2B7839DA5AC5F7D5623FC0ECEEC8653FC9B2BDD1AD4D00A566FBA7186DD3C9CD26512551637498CADB950FEC71ADB9A5524285DE328B8EC7EC75D2345
310
AEC6A27C42AF6D9B92155315C80DBFCABBB7DA0FAE425C4FB896B15C9BFAC4FE67DF5A23D30C93DA4D8F36FB15D100050DA6062E22AEC5F4DAC4F6FEEF97AE05DE63C6D38F9E068A20BC5E3B6BCD75320C5090924E7F93640A7735B1A43451C2D91EE62C6238B797349E59890AF3A520DF4A87095F3ABEC2E61F0593416CE4
310
6CDCBE0E00E2523FCCD04408588B5B6C9DB6459C786CE378770B54F51DA3A5E1DF2A3349BEAAC234A6CF8993B598B3B25B4B113E353A4D750FA7534749430F3EBF2512E7EA3FD43C6AB9A1F765A58463B306721A15D224FAFE8C6F5E3432D57EE697DA0DD5A9D4866A8BCCAAA9DFF1F06047851408FEC060471D0E3EB86BFA
310
F46E4B5E60311DC3E3CEA147C75CF971BE74689507154FF2D2E92F15CDB2B9182B11459FD8ACAC5A85F174BC94A7F4EE4C4F5CAFA7C02E37BF0BC77B7DCD0C047BC316F562A01A441AFA7931CC84A28CB9F4AA367EB515778F29BFE61195FA671F4352E5E46E3A64773F1F76EE5EB36D7BCE9BCEAD837A4D77F8DB8C92AEEF
310
6711920D7C7D0F76B0FD0EB7AB83724CD35BCA7D36DDDF5FBB7FF6F04A91F3E2BB3B8F1A43CD659639507FF6331C5F697BCC782AE57D757A27D97F1AB9E0AEDB43F92F1B2AACDF5FEC8ADBAF9F814E2027003BA2F9E144B1938A7A04050AE5D953B82C45619165C813A10E76DD6906B3C16438064D14CDA713AEC420034613
310
E1AC7241904A49FBF87409AFB1FCB9B72FE7933A87D8FBEDACECE4EDCF6A4FE9FB94D5DEB74FAB7CFEAE17EE965DF980DCCA2D04134994F9A2E94D2265DA4FE6AA7B7AC15FACAC2B5ABBCD7DFF542C5314FDAB2E1B9D8B65220B8E2B638BE008E8DCA22678C820C5053664D15E89F2D735B51A84955E81A443545E9FF787BE
310
0FA700A76D136C27DA179A7C6E8939E01BE756E19CB292798063D8B97F44E8A27BCF3A614FEB8BE974A718E86F7EC99B53CA35FA24F61F2B07266684623A3D4CF073E511F3A10A8FDAFAF0078C577F4DF9D339FE7862E5FA47CF4344209E5BF76D783B1B48E152AD281B15FCB934DCDA49CEC5706B1EE8B460F435324A5CAD
310
154725E21AB8044B75A557A79F6C807B9340AA3D92503E866F4274412926C8C504E4D5EF8C0E68DD0B028781A6B4054F11CF18941F101C57CCC796773ABC8DED9CD91FE5788806C05E548895354AEAC96546D55B0E94A59F148D061F42AA398D822CDECA4CDE79E13469BDCC44FDC990F366BA5978C15F97ED80CBFD73B0CD
310
9B8B83A4F6845BDFBFAF034019473FB9A63BD55D3A4A7284757071574029A4D016DCCBE95DD679EF3C4880BF169422F8C89B68A988D2B13793CAED4F74DE7486C72DC94DF46B8E93D8E02EFCB1FF9B3BA10C8AE7F653DF94F4AF466CDDCEF5776687F7C4C14B63E4EED1719DC2EC482D7DBCC7AE518CDE3D5FF86D39000EC3
310
673C0044E1D308BF05F74D1B5F033A7D1BE7F74BC55BBE3E4A20F920946CA0271EB17BD2B80E5660ACB8A29A79F5E4BBA49D4D945B6EEF4A7EFEAA65E5555BBB57A7E15D2F83C69F30BBB978D2B39F1F26FC097424D39BB33CA3D87ABF64E307938B685BAD44F71556A30B7E712CA4FE600613C3E554B69ADE949A7CFE214D
310
F1FFF05CB82151EC6FC31950239F94CF7AD39DC473F6EA356E5EC2C4EFA04383CEFE985A127484366FBEE3C0EC4FEA363E4F6632AE781392FD45D67B63FB8DF70E82734F431FD3443172A0E30A83D60982D55FA6A2CF86DBA8382502ACC6CDEF3B907982EED1160E14863FA242F9757347E1544275CCDCF71ECD5F8621CBEA
310
326B8BA884AD7F825781923E66971F04010D574C541D8427A438A37EEF8AF88240EED7362C953F5A81DE2D56109CDE2524EA0F5D2F87308C0C47BD97AD605878AB8589E17CA83930CB5E0DCCD75853D68B1AB136594926DE426C367428E9334AFAFF90ECE221BB5DC9E5BB53D2CDEF954EAA9CD814F0E5725F1965DD458E5F
310
8487683AD86B9D0076BE3EE91EB1CECC5331A67A3F79D8B27587C12EC2A6A70474749F27B4C0BBAFB94B34189E88DC18964BE4121B9137FD516C7755356E50D6714E31ACD222621EBBCD1CFF81D87479056A9DA0E0B8EA19D24CF937DA89F78E8650CCBDC110AAB6C4E46DCBFD0446BA9E2060E81F314AC2031E88135E5476
310
AC0160EF5C0DD2EEF1B8B5CB2D198BE9A554A9093B5F7D7E4B5407DDFCA1D9C152FD97F55BFFFDFE802954DFEC8995B983E28AC92F1971E28F531DC407A1280EB125F64A72E617EFB27DFBCEDCDA2D6F2BDADA36873EE46B9BE1782998C63DA7182BC383FB6FD15DA472B175D7E8B4FC88F38D6E07FEAA3FA3CBB8F6B449EC
310
F14D2175E5C5CCA3A42ABF24CA6C9395AF74535F4DDB38CB84F56614B0FD32D7E19CA5CF988DB4449C40E23DF2B16772594554579094450F56F253CD25EA7F77366FB1CFE79696C428BB64D5A41E986189427E5E4D7E2DAE3D5BB4972B3DC44EAABDDDD63A2264ECFA5C786EB0EE1FDC5BE34FA0F08376869FD1E61EA06CAE
310
15191135445EE8F0394161C3266A596AA035572BB0C8876180D8B9C77D307DF9DCDF7365ABDA6F3A2366436457A4DFC1F259666569A9E4A79C817BDD5610E5200FCE894A358EC72858D50EF67545DA81C6FACE3D457BAF70367E1E6BDD9A952FB4F56247F58F523B97E640246051A72F79BE42FFA0B3187F63097F91C48B86
310
8586F714B0EBD5A00A8412C1236E1298F60C72BE6C96B82B404CADAA304AE9F303176B14BA53FBC2D5E86377E35542019E24D97B96A49B2C0E5006E7795954DEAF5DA58958839043C6C70BD3B1B33B6DC5C31316D8A6923F142E26F6711A2258AF977DDF1F970ECC4F1F2B434B96D81BEB6E89BF3BBB3C7C8CC80505070723
310
D6D7D7D3C8CA27CA164A26024FED94B12A86031867241DA53D929636DA600F050BC40CE48B8BA03D69224720DEE2ED2127390BDF5E6EA64527BBD4C4C63FA76BB801FEEC0E61218EC98A8A86CD8313781617877E66692839B9468CF4DB8E50A73986E558E309C0D6F676F921BE02F1185454DC75B111572FF9D27D85EA14C0
310
5AD7271225B391C4275659CA4A43759D0BA44639BE4C30A84DB7F67A41399FB95CBF923B1B1672ABC807C1590557FB18D811983FA97F5E609516D62281D38B1281F68FC75528C35E4CD7DF0F7DBB5E5DD69C414EBEA2F4A5B241B996BA77AE6C772E367408C633EA3E438B68563EA8BE7667F3A4C4FDEEA52ABD78A2820F44
310
3B7914A15F180018D231E64519C56A12F6CA7C8DAE18F06F6B769DBF92329EF6A5D18FBCE600F36BD8E8198DE5CDAA96181F3A756EBA5501CEE58F497EA4F418A2B82565B9BCC611713C0B708CCA1F398B78C5F7D03B3437CC18F13061F55C7BEDADD5ACB1DB0E36D3CE47FF6EA1A563A57E9649EA5D14D1A50EAA45746338
310
1C073777EF1600607BAF6428A7DDC079D47A204EF1E1F1F0589FB054D45E02CE623B3823C317C601E589E22B1E88B448524B86A82828E32345EC18AE17214B42F8C41C6D428016D9BA31DDCB47572561E5A402E5BA4FCE55F78AF7268524AA04130F3A20BA5D1E9F9948EA48FC8F5314FDB35E21898198060034ACE5E3E2BB
310
CA34092518F275190AF65F45867FF0900AA4B81F25427414C372BF51DC29AA855C5428EE1EEDD6B849AD60F6E73475C2D2523F8A2772C840A478DED18A8C5C91B085F255DC4F54EA7AA8947354FD17ECF8FB3B4A0DE7B483CAF3A1165EE05BBA413E5C1FEF3DE1D6B8F2F3F3251C17D9FCAB48A9AAF63AC773A0E413BBC46A
310
9ADF84A566FC920E4D8C52C9769EE3301CADEEEDD92B312E02E2A7E35B7F1E7D203FE5A7D75578B06E99D0E46FFADB8FDA17ED8880390DA29094202D6F645F76F6F96409CDA05495A96E84B04A00D1A6C6C81D7F3DE9376E828CCF144EE50E364ACCE7237EA0BFB5607ED1AC3CFE73794E5B61739D14DF1743441B1AC98F00
310
ECEDE9E7301FA29755FBEFA68C91EF2B314CF510537EF1ABFC9A762496280B546F5EDAAF8A5B387D469FC9A878A92828C88608453ACEC6094DCA54111E7AD5B2663DFE2DD151B7F123B9F4FEF8EE36AB125FD7AD52A59B1B765B3E3F73E3F73DEA93875004D2AFFE3CDE9493B87A9904DD052028949041A91DC0E1BA47BA71
310
4343FD5B25E0A6A09503AFC17C790058A836A324FE31D7893512E28230332F153181C1E018E1124EBE1BA262AA428A518237D1EA7275E48C5C561BD19ED6912EDD8367DA0F31E40EEAE9683DA9257525AEA7B632B97119E17145A90231768A4F3B9120FF32E8319B015E3CBE26F1A754177D8185345817C096B0CE443A955D
310
13AC15E1FB5DEEA0239EC32A3C92241A237B0B02FFCB4F93CF2B02570C8D192E2F2A68CEEB42F12E6F8CEEFF46C251E22B4341C56FB08CCE550E7A9D6F4D6564B9EA52A83D5BF2C6E03FA19D2775E15A8A7ACF30A13C259EE7F5EF2AC3BA354F1500E1A07FC63FB4686E2F12EC69719F9ECF5FE3F35598DF2CE944008CE78F
310
0911BA5BE5D0A34E0098FF038669C26030BA9B300303039852A8F6F496341737CA7E0D2E3AAA36DE0A70AA7D9CA0D54D9AD84B18A44C9E625475E1C97B93BEBB38DCE7D227E67A2D00F531436136355F243D1FC0D712C5765754FA22FCFFAE97919161F46D6E61ACB37D83777B385889770B50765B127768443A5C4D3A4E35
310
A3151111F146B7CA116F918A049F1C272F2CD7976C69A0068773451659A97E0F4A08FE604C3FF6CE7385DB19F4D3ABC8A0D80DA8A42096AC377DB49382B36E270B6FA7570188B4B7D1DDDDA82ACA487CCA5D38BD3BD039ADBAFA4ACFF27809239B722081E2EB9F145320553D183F28471C388BC8814E5045676767AB58A8E7
310
2D1CED2CA731379515D2E533E4CF0B39DFC625F97AC4836831A4DE330E87A8126FA17EBE583D614E71E22A8DBF2825599743E0640037303E8E1B1E8EA4E1ABFA4F62907B5E4E0E5DCFDAB417C36C6848A2B8D15F1E505434C0707E16B1CFC2A1C36A42BBF55734F8F4301DDC2A5110CEE8C0747F69519265012A2174BF4E95
310
5ECD4FDE095A3ABC70536B7AD0B9D7892F81287D667C108703C9B66A221E9A0929D030008F77FF6F5D2108EF5706FC87A3069B976F7C9FC3239D13D283CDEA83597461079FEEE049B0F392889898B7D87D31F8D60ED7B56B91823A8E4EDDB36C6172ECEE42BD42B12CD67994FA0F0DFAE9389356F4CD4425A4B8AA55CBF7EC
310
D585C6A2C2316791E43D5C06841ADBB226A87FD61515FFBB0167B74E56BD7F3E90A57A97FEDCBDF483A0D6699A8C0849CAEB4947FAA90D8E332D9DEBD9F4738C37DA0CAF9CF3DAA68BCB67C420459C7A64498D6E848E5CADE92BB6901F607AA331104A67F7CD650EE169B1DAE94D2C31C2F993632259B6957E246EFE4C5481
310
107B07118607700040E5812A2A2A38DA0076875258C753F60E0F2662C748EDD5F3F3686B8FC3BD6FE631ECCAA1E8B1C1E565AD117E54893E79F4672E32F9E46B2A183DFDCF3EECB4D4D077DBEA0DA254D256045109670050129E9B9B1A9E4A11344D61497A992778095151510C4BB7EF2009B63AA4360635312E4CF668B7E0
310
D3D85A8688E2BD83B569439892ADB63461930D428E0DE42E4AC57CE48DA5CC1449530D8BD3D6A0F08DF20C8E8F570F2CFFFCEA286E30969B4654D498A58D9DA782E19FE3F002181838925592C4A1EF0B332D88B61A92C644547BED490D3A42CFFAB70E36D961F694F6307F72FF15A1C79D5B1B5CEFD353D9E2B52566DEC8F8
310
F09CB3E8359C0F68EBBB7898243E34E12A015B2685AB303C04D3A9E00671FF3DFF0A184E4A2ABEB2B666AF5B3A209C73D8EF29DCDB069C9F391EEE9DD0F74C7BCDE16F8F02E3B8816122BBEB50665775B600549D8BB33A54A6BF940C028118BC6878C79958D6784F9DEAA6E26748386FFAF8D0D0101E2847B6563F5D8DC1D7
310
8F787BE00E2C941AE12148D4A81599FE8F68D4DA5CDED75530ADE138240300EE13B0FC13A1687FED6774662C05A2B7DFB186732F0D7A93545D8B0A6390AE5054D9CB582DA846D7A061B3358B45E2B52DDE63E114397EDB7E09233A579155D795BE76102CF277F4DF8B188C4F2879BEAE3C08347124BF9ED23B128259FE107D
310
31E34A652F090B30B39E0D9AF917B76A2806135621A8A60681F16AF216514BBD02711585B5B1AE823F4B2D0369EA5B6BCB863072727FFC871CA6C9AB79A814D989057E9470A3D238BC87CBB4A0EA49AFE2B86F22E499793CAA9047080450166BDC357524561E258C77CB697F1ABB32562CF87C3B7AA12F911EF19FB3E5C022
310
22E887D08202A60A17151F5E053A86B437771088B4FEE14D652C43E8D939995D34545E12E2FF93D4E366EAD25F10CB7DED141563C3D0C447AF06078A91135FD4B9611583CB4BF3BD167F2399CEAB0E0100F8FFC305F00F1711717173138B4B48C83022295DE657EFEDD97F238ECA80F528AFB4F8D67AD4E2594B9A3AA86D74
310
87EFC313BA95745C186F0CDD84CC12DC9CB0424B42203D351FD9C0A3AF10CC7F388E0329279087386421F194F4A29464C1DEF7EF8BE515E4A199DCD5B909342598D8FE6A231F71336248D5CEC5454455C7BE383B3BC7B260FED27F703FDC39A170F3827239102F59D4DEE7FEF82EAA1A5E4BA94DCC4CC44E7E2EDE20F24244
310
E4454369D2E87C3F823F193FD4FD27E1C23984B01898D15ABC20711A8A558054951A6AE280096BA36CBA439603B7B0B4C45F248C14B2383B4B5CD8ECECE4FF859AD4A6CA2326D020EF090F4041D28DB66E5256B56232CC52829DE8060BAE6BBF37D4B7469B822454FE93210A3E8D15E69FFCF01123222611C51C4FD0A041A0
310
CFA2471CF6BE38D2B20FA4C3525B5B8B586759475CF80ADFE67A284AC24651E52B8E683D24C2622642F27E7C3C22783BCF63648BC398BD6CD0D9C97E7E7E3EACB6126DB7A6C1FD9F1031302EE67ED96F22B77C7CA0239BB324207559B105E4693EB26EC46182A92C9C0DBD24F29B31C5C5AC1F84300E0E17CEEAC15F5736FA
310
4A98971E2F1423BFCD68D4BBD5F86E74B40A369F39507C88FCDB35D2DD8DEBEA4AF999E23CF2816D204200DF6E611781B9884C1AC8888B4DE397320472959434323A5A36B22A8E1F721A270DF3BD65E4A31C11FF048AFB0D8B7B6881423793963A23CFCE935FC189ED36FAE35C46DA3574C979E4394BE52084F3081837BE03
310
3396D2EBD80F1F691B273F660D2B32FA27A33B1DE4ADA5F0FA4651511102DFA410DDA86E065272CA314D5249DF91B06BB92807B28EFD54F08F7B525252782CD276DD02E6B0319B13DF87B1F6361AD6B28FC0D711CF445429B9E5A433CD493051C49A9E03DDB1B147D880253514A5DED88009018620EE229101C041950E2D8A
310
A8E1F5F5438E0C0C0C60EEDEE9E3E0C051948C69F84BB7B2A48A1F3C8EB9E6864687F4F4F6F6E2FA87608ADAF9C5E117B7C1A737E710769DA1D15ECE6A84502AA855398712D5FB51BE92E4EF824969CE18278798AC303C2C7980DD2500ADF8FB1E6D6C2FAAFF9987178923334A244758BAA01A9A1B70FA5097D01E1CC2A58D
310
AD0EC94CE6430AA9B0C10D75E3C6BAC670EFBADEE1607739CE0FC18A2587E3EC3058562014C64219C69BC269082D5C2F4A659278D585755912176D78A1B641719C2A394CED495A1AC5D583FD2F5EDD93308EA7EAE8A6DD396598BDBD3D4CFED62D18A5BDFDE0DD5C80D1A89BA62697B131AE7CE9A6594138582F1B37D68F17
310
49AC7CB67A70695D48A4A056AC1FBD4E82358CEAE38F54B95A9016F9000F9879C0D9D131768635CA798895F27D6F1614F11F2838A83611AA51C9A3DDB539D42979C29F10465655C17BEC3E2760B80DCBF609198C7B171A531905F3EC218D696025975E986C6B4C666666787271F202805577DD5A3EF0CAFAF91B62DC4B2DB4
310
217A7606282F31D8DDBC290593BAA93EA6353AFA9939B877978481E15CFC9F2755CDC00C538F63A4BA3E80AE009B73CA0185687D339A507D165B74290D6EE46D5C58148F020C3668ABE9EF2F7549170DC80DB41FFC1D678FF19AEB10C7133832B104B80F691B3138F97A92D26E551F1F110400D45AC71A9B9AC41A1A1B1DAE
310
ED0B0810638EFFB511D46B121C6FEA0F38CD00E03CFFEB9713FE1F9C263E4DDEC160D0497FA9A132BA608584057FB15380825DE6C7FC3C667EE947D488A09898D8E939C4953BF4EC9836344D2CC6B2971B2A21A572B06096F4982D2CC7232D46E8EA69DC83722E267754D777F97F96D5DA74E1E75178084D0E70F12AD33E5F
310
71EF2AFA599B2BEBF60A5BE475F444F240CBFE8143C334E7ED9150FEEFEF7EB020C4DBED388DD1D6A167A76F3CBF119B578AE8CFA7736ACAFA4440A1C47185638A0D2F3EB5BDDEFDA958FB13CE4AA4923D5BF840392D45544329525749734866684BF7F8D9D54D892E19BCA9F829A0F8BFCBEEA6CFDFC61D74EA1A645ED7A1
310
FF241739F15694BD835B66FEC5677E40FE69BD3F91AE402F036537218A401CB0828604AD189E575015C6F3F6BBC8AC79CF6C70653847254B31551EFCBEB5978B9DB85D58D0FA41A9DFE9C624834AA04949D24B5AE6D299E072D152D12097920F14AA92C31C3B97E28B6C2E6E9C23D63043ECBBC0A60FDF5BD0C33C127EA8A3
310
308B8B6AFFEB28B4455BF6E7AF4FC6222728357EB8E46E85053E6A8843AB23295BF838ABDA94658FEF3F832F147046B4ACD6F7D48E8FCC9618582961C898D1C7A253C91BFECBDA6BA18A1FCF70755DCCEE2222F41B76D23CA98D0CB3D95F0CF66D57FFF65E2A90F5DF40FC3187621E981BD0BC1D992787212688976B94A8F0
310
C6EF646624B570B78E068826F87CE27041A95C9A4871FF65CC17FCB1639629AD6A9517000D63AC231F3D741CB8430777E7ECF80CE7A3F73C0F162F7E56AA71F4DA80A33CD6ACEE78E2C11FAC03DAFCE929B106F8F6B3ED2DC71FF994BD9CEF4E9A94896EF1B6E2B7B4978168BCF0847A3D2A4F1B0500B926E634B174548E9F
310
BAD27153FB5FC36799B1E6C7C38A94E1F9E996796D7B485E635D5287A2AE76FBD11A341DB3F8F810385BB7296391973DC6C37C452A9305AEBBE0CDB6C566DB59FE60C8E94B1FD090354BF51439FFD1B48D725228FFA88C84F686F547107A7A235665A4593B7C34D748C1AC8D56DD5DA861EEFBADDECBBD65117E65851F9035
310
1AEB65F0EFCFF4BCFEF24CB7A5879699FAC437A7AF9099186CF006BB923A59E37D7A36A29FD8D2CBB914A5E9D0A8FD212FBF796AE9A67958FF1D5D8B85F78F96219D4714EB919929241B6C018AAE0C02069F8D919961EC5DDFBFB7573E3AC8E08BFB7C8534BE6DE045B3CD63DBD71F7638BA2309CAE398EA3A7D8F98BBBC7A
310
EB367EFA5CFA27A9F8F2F52FE878058E6209C026453F8E7E8A237DFC389E9590F6059B397CFD65183BBF936E86896612A5B5FEE49DAC8455D026218AFEBEC12B3523A45B57B82C9C97E02ACFA1184DB18E48CF615DBF39C3CC6F0B4AE6BBEEA2E39D944E290302FA3DE33FA7E40296E2EF7BF1CD855BBECFAD0FD622BEE974
310
6FC4FDFDE545AE6E3BC234CADF83A0FB76DFB145BF3828AE3436368AC24989454F8FF70A177672C711CAA1A76107218CF948CA01F873520E7A2B118EBB161ABAD432932029628B6761590C98AB590C8C8C79798CE9F715BA696E839E9131A4BB68BE923F1747FBFF165331FFDD4D05997ACD168F12CA75348DAC04C7F509FE
310
83898A8B421181AF492861CE81E4A2DD0A30850CFA95E05F097FF70F9E777310D584A75BA7018922E271DAB1D785671157685B7D383D3E074DDB4F1E44EF04B07BAAC75A062077C54B9752C738C9D804D402E02851F3F89605AF189738C18C021D2139EAF72513824E10DDD3047BACC8521ED7E98B257D1166903B1B08FA6F
310
918FD7E162913FEC7D0EF4787E29C35FBA8C6E2C9C20E9AB30AE42CA2A01A090E7D010C1B5BF9CEE2A304BF3A987FB40D836979B79E18D70F257DA61E808472DD85B82761825779D6B90CAEB0F23360C6F80A7D7D77545E95B3DFF0CF96A827F9B5BCECD2C9698718417EF80FEEDEE938AFF55859D0D540B7FE09435583A6F
310
04874A0C7E8CF234DF4879722000167F5872CEC6BF3EF7E5A8CC8121E6A359227C8A29C95212F9F735BC72A887D56B8F309FC525BFB4FD767AAEC4AEFF249CFBBD2DE1AB9969A6155C7D8DABC307E47324C1F916C7BCFF40ABA5644E9FFB9238D19ADADA49D9610F01ABBA57E4DFCBDCCBB2B93C8953206C91DE01B0E2651A
310
6D6C31721915B31F7B7CBCE55466F6D70402788FA91D73BE4ADCBA99A35F17D6B83383704917D6833F0FA3CD45C926ADB8BC17999A4A0AFBCE2541F7B8CF4C2F5FBA611B3E626D64407CB32C122DFF4EF8674D6EDBB86C8F7C6A16D50FA685E2CCA34F8F7D1D8265BB0042E9D7F1F666F7BE5FAA5184DF58E12122A42EF02F
310
461B3F369AC746F96528AD208512AB56844CF75B97F352DF7995024FB02855385854F3798670D01CAC771AC3E1889EC25F61A20C1F8CAB46898817F9C47E2CDA1F286BF2F358298709FE567C91133E2638C8B53975E753EA8BFD3578B5F7186B7BF084EBA3F77BAC3132A5779902EC22AF2D2E79F42D324E083386DAEE9810
310
D1B44A5DAA54513C7A71E52A4AB9257D975B621308FE4D2141CC3DCFE946C154A3C1DFCCA7629EC69ACFA831634ADDA93C0388D2A9A2DDAFCF957C6995BCE7FBB6DC4EBAE79E63EB08E9A25F52F67076F7093CA545CA3053B5BF576DEAD4E0017143C5F759F32B2D6F145B52B67B48909B7C7FCA6586EE385A2189C16932CB
310
6DDFD9152AE317C430492A578ED27B72D85D40C7C93C097939E1B50F4D67F05334FE9DC362C30B7FF561B95259138ECFD9274C8D695C31B14D4EAA9F3D7FA8DDF652F8C5DEFA23284C799B7D94416DEE81E05A866302DC70192A5368EA65E1CED8BF107A1E2D3119A71E85DC1A7B0C1E93274CE04DD0F2ABC8AC7C987FDB00
310
2B6F81757B43502EF7A0D92E416494FAEEA4C9C090CD9557AA4D532F4996A272B94355C5A0E4974EEA9627476F30809B94D8D8D860062E02204643BEC7D0438AF800FC7E2B26955D595421E83C69E1A07E0E3122285835F014AD538188CF9737CE76D464A353FA55A001AB2526B84E985083693BC76FE211CA1D000679C889
310
E3C009832C87E1AC2EDD05C302557422DF0800E316FCAC86978A371F025A6C7DAA9F333E7BD160403A1A06EA75AA9888FF01504B03041400060808002249EE5251464CB48900000043010000360000006662782F37393734364338322D443732332D343845322D393730462D3733424132303635393837312F646972656374
310
6F72792E786D6C9D8F310EC2300C45AF127987122606C71DD918B841D4B851A43646695A717C52A85029031293A5A76FBF6FACEF7DA7264E43906840EF0FA03836E242F406C6DCEE4EA06AC22492573150D1F66C60C640E8938CB705396EEDD86DE9B5042FE27813D640EA63BB001C722AF6E55CB61E4863F58284D5D3F53D
310
D715CE1C3985E63FD7F1B7EBDD617E9F1E504B03041400060808002249EE52BA6A0EA03E070000541C0000340000006662782F37393734364338322D443732332D343845322D393730462D3733424132303635393837312F6F626A656374732E786D6CDD59DB6EDB3810FD1542FBB2FB605D7D2D141789DD144691B6A8D1C5
310
BE09B44439DCE8064A4A9CFDFA1D52A42C29B2AD645BA0D804481C861ACE9C9939331CB9EF0F71841E09CB699A5C69966E6A88247E1AD0647FA59545389A6BE8FD12B92C4D8BC63E0D253826571A5FD696EE9EA56526970212E232EAAEDEDEFC85729F2444437E84F3FC4ACBFD7B12631D97451A90FC410F7081F57D78D02D
310
BDDAD816BB6738BBEF1C95614692025485F504A4480DACF69F6092B1740DBEA1B5CD1EB6CD39B3CD1086B715A5495EE0C47FA155478E3D4C2BC71AAF3FD893C568321E3BA3F1D4B64637B737EB913573CCD574B55A5C7F586868E9EED234AA1D909124002F3E6B4BCB35F87F6AF3250A7D7AFB6992105FA2D9B72120522E25
310
79179316B09630ADE190CAD6C68233D0F813DB0681D252A985B6324EFD6E466FBAFB1B40C8874429CB098FF2BC60E06B897D950FA66B54AB2DBFD01CC5B8208CE2084574C7300307C1D6CA412D313C5BB828C431135E54F29ABA42605FCEA53E2DC3328A78FE6A4B91691EE4232972A119FD87B0A3F6CDD34027B0B6A44931
310
97C616CF198858B88658ACFEE7D8F29F1590288CF01EA205CCE49B1CBB83D78A73C166AD2D3FDDEE0E5BCE0FFD87672CCD082B78E489649679A73CD8082D08BE01A054B8B67D7744E51B40FF1990AF75412E788ED1C3F83056B6339CE461CA62F00E32D1C8841F26E21F5F7C728DFAE125422DAE3C8529A4ED0FC2B46546EB
310
EC06A44BF711823E658E346EEBE30862FA8E263CCF21505094C212F07DB83B68CB0D90292CC2533802EBE1DB35F84704BF2A39C0371D0FF5D1EF0047A984E9E6D9D1571F216618F56B57B56C3C85EFE487E07BBDDE7EDA962CC43EB99389BD26214D6801C5B45FA116E8AD94FFBEF92C32F2853DAD5D3E9CB34F3971F4F865
310
2BFD82846340155E872BD788953B0AE91E4538216999CBF53EA2F2D32865DEEED9AB72B8F7AC3F55105487417EF308E82533A8EE3EA31907455B4AF36A26D48F38711E9401B8AF9CEAEDB0FFC0E1F57C60ACB7E801518B59576819671E8ED332E1F4FD32BCBBA6E98E29BE2C6B619B0B7BBE984C64C083EEE200953F8A1C6A
310
F5F94931CE4E1CB36AF94BF28602B2CAA431F0659F0D3E744D65E1A519F669D11F0D1D3306AA1CD0302C73A0F55E603A1AEB8E35A9B0513F6D1B99AF58AD953A6FAD54CAA331DE132FC4BC26F6EAD702B416AE9CD48BE43E4AF39C2624173DCD0BAEEBA068EA401D55A42BA93D614B732F26057E4BC48A22D9095846C2C883
310
EEABE0FDEFE578550ACA7A7B4A22EFF5D2C413F63F7B398EB3A8EAEB2E6160D99D137A71E54AF3231E213E3D5C786640449B7E497ACD240ADF41D2176F167F021E867F3A3CEA080ACD3A54D5CB9EB5F489B5E05F73A0A1E9C472A6B3DA1597D0528715BC6F894AE8B4FC67EF89D0FDFD3012542E3F7B4E4EA2D0A35154C65E
310
55430A1243DB868B920DCAD829B049F720C90C9D94689C14D2089AEAC1342BFA15D5B1C061A2613945B38D63C0289AC0BD6E90212FACE80D62E10B7187E557B5CBFE7FBDD4FFCC98CDBBCD03797E4A59D0AB69BBF5505D9B6A323861CA9A58BB57485EBACDF48BC565E7320E632544325C75B39011C2C823E5C30C716BEABD
310
73E44FB8F0814AB7E2F7E806322220C1B10F698993A3116D09872A69AAB76DDE8E80EE780169356B1B4EA9314C283067DA3BFE21FA86C1D5D02DE686EC848C6A7DC34B9B0EC398A31E67647DF9B8ED488195C14F7FE51891A78E04B9BAE2CDDF1951DF37C71EB723415AF47D73E6F1E2BE8C7709A6BC36F2B0C041F6EEBDB8
310
7F5E1970B930668BD978BA9ADBA3F5CC8679C7FC833D5ACCCCDBD1CCB9B9B6CDE964319F590623795A329FE4866D989EEAB6B264AF02A3826EC82D04261197AF8B2A9EBB0EFE1FDF42A274874FC5E2AF7A09A91B3EDE92757271E825A497A877AFBB31582F88BABF88BDAAD7AEE60B2AC0CF972D202355EF8737174AB4AAF0
310
FD3A372AE22B0BEFC9FBCD4FAF312D42EFAD0FAD1D7D94DFE6629857F55429752316BCB69ACDA7F66C658DECC5C41E8DED8939BA5E5BC06863C759ADA66B676A3935E2B2160EAD2BBF04872A651BA3379820E7694461904F02B42729DC81605231805F594C7271B78106409671F51661C0D38FD51CB6C0BB483DEDDF631866
310
47B222973E0C52E1DE71A5C975F41B8C4EF9F4520CB4F407283C32DA3554327AA541081414EA8BBE83119818380AE99D1127B80D277B7E6BAA9EAAFF3E3EC6D1815839DA55EF19828BB4AC159D304EC8C4BB05603BD590BCDD74A50EC2057CDC95456DCC71E1688D0441BD44A88C8349E18384F700C473DE2E4B177B5A900C
310
9AE69F8D834AEAA8C06C2F46F20DBCAFD75F0D3E4DDF7C415954EEB93BCFD5FB96A411EF33A2B21A5CB91018D2CC0CF39BF8EA9DF195A5F05A2A46B7148200FD7E984FFF3056691CA749B5645CCB975B687B0FAFAA02438D09A17131ADB921FA1EF92A00665D39D171903FC002B896513E4FAD206E05404D4F8D00501EE1BE
310
80C75AFB376B248B40A3856DB6AE1C1EF11E004122F1F73F3C6D9A1B1A434BC805D0AA9AEDD61FD4826B30189C2FFF05504B03041400060808002249EE520CF9957FDF000000550100003C0000006662782F37393734364338322D443732332D343845322D393730462D3733424132303635393837312F7265736F75726365
310
732F322F636E782E786D6C4D90DB6A042110447F45843C8E3A43422E38EE4FE4292F8BD15E23ABF6E025247F1FDD1808082D5587A6BAE4E92B06F209B9784C3B5D99A0049241EB93DB69AB97E58992939219B1FEC328493AC24E874C957419DB31250B17DDC250834FD7298AB38304D99BF3911C2526E852765ACC0744CD74
310
AB68A15C99D555B3956528D8B281BEA2FA087385C9A02B58AA36B1AD8B785CD6FB57F1FC32DEC39BE48354F21D314CDEA70A198FBB4D18ECDFD41309C907A064CB7E52E38C6EFCC5633D9EE4DD56B2D4DC3B9858FD3E3AE6A376C06FC8AFAB241F47F6716BA0CF5188FA01504B03041400060808002249EE52FF15A4A45D00
310
0000800000003A0000006662782F37393734364338322D443732332D343845322D393730462D3733424132303635393837312F7265736F75726365732F636E782E786D6C4D8B3B0E80201005AF42B6F75B59F0390B113044D83508C6E30BC6C26AF226F3B8BA6360974DA7271430F523308B2B198F9B80925DB700539227A2
310
FCCB80A18E5640D320F996A81C9F32D6E9129A0D1EF74FCE750E6D57BC7165FBCA07504B03041400060808002249EE526B05C63D4101000056050000300000006662782F37393734364338322D443732332D343845322D393730462D3733424132303635393837312F636E782E786D6CCD94CD6A032114855F6510BA1C9D09
310
2DFDC131D0459FA08BD29DE3DC4E6D1C1DF45A9AB7AFA6266929A15D04127021D74F38E77ABC7CF93199EA1D7CD0CE76A4A50DA9C02A37683B7624E24B7D43AAA5E0DE39FC8691CACA093A92CB44F0D1BB3897D2002F329A5C35DAAE4A51227ADD4784402A6564081D09EA1526496544374058D141A2A42DF5105CF40AD27D
310
D41394FBCA8344188858348BB66EAEEBF6F2B1B9BDCBEBEA99B34C0ADE3B670AAF2D8277F3C5A2512E6D6D92D3709601C1A3D785CA1E88D86BA3BDB69CA573C143D26BC7C2E17ACEDC3C1BAD24A64631A710B04E10C889B32F5870961DFFF0FD70FFB4D7907683F6A0D0F9F5C9DAD01E6AC34E1A4D89F85F1736E05FE65DFF
310
962C9FEEDD0F1A2EC28E66779BDC90A2FB3B09294FD28EE61C3FC04EDAF1F39F060B6A758EA6B7CA8EE4996D46607AF83C11C527504B03041400060808002249EE52E3EDAD237F000000A30000000B0000006662782F636E782E786D6C4D8CCB0E832014057F85DC3D2DA2F56202983EFFC35434A4080D95A69F5F685C7475
310
92C99991FD6771E46DE2CB06AFA0DA3120C6DFC368FDAC20AD1315407A2D6308EBDF0D881F16A3A060D0728E213D37349A6948AE5067FD6383D861D39E05A717E4356DC495D30ED98D627D3A72D61E3A815536F645C9F3EBE52D79FD05504B03041400060808002249EE52A6D797065F0000008200000007000000636E782E
310
786D6C4DCB3B0E80201045D1AD90E9FD7516806B51190811670C8A61F982B1B0BAC9C97B72CA7B1037C6D3332918DA1E04D2CAC69353902EDB8C20262D23F3F59B81A079470595414B17391D1F19B4730A5583A7ED43BBE4025D9592775E5ADFFA01504B03041400060808002249EE52ECFD112DA800000026010000130000
310
005B436F6E74656E745F54797065735D2E786D6C7D4F4B0EC22010BD0A61DF525D18634ABB506FE00510A79458060253536F2FD89D5197F3FED3F68B9BD80362B21E25DFD40D6780DADF2C1AC9671AAA3D677DD75E9E0112CB5A4C928F44E12044D22338956A1F003333F8E814E5331A1194BE2B0362DB343BA13D12205554
310
3278D79E6050F344ECBC6478EDCD76CE8EABAE5449AE4298AC56946789C28AAFBEABC53F3EAF09A84A1441B91F0101CD4780756578C173A578FFDDBD00504B03041400060808002249EE523DEE336E64000000790000001B0000006175746F6465736B2D64657369676E2D7061636B6167652E786D6C35CBC10E83200C00D0
310
5F21DCA56CA76D41FC96062B120735B69A7DBE268BB7777961F8D5AF396893C2ADB70FE7ADA196782C2DF776D7A97B5933C430F15651E5469C55D70F80A4992A3ADC954792C525AE70A1E4D6AD9816CC044FEFDF01FE3FDE907802504B03041400060808002249EE52216C69D6F40000008E0100003D0000006662782F3739
310
3734364338322D443732332D343845322D393730462D3733424132303635393837312F7265736F75726365732F322F636F72652E786D6C8550CB6EC32010FC156BEFD8063B8E5D61A2B471BFA0A7DE10101725068B47D5CF2FC4AED49E2AADB4AB6166961D7AFA5AEEC5A7725E5B33022E6B289411566A338F10C315F5509C
310
1875D6865F34280C5FD4081906466767E3BA43C29AA04C468D956A07B9F72A4021EE6918C18B0FB5F092C79018FE56AE5CDCF8AC4A5C6E3C4663D472976A99DCF4552B076CE82E1DA95F7B743976136A87F68086EEA5416742DA7E9A9E277C6E6895C58C06BDFC6C174EF1A0243052138CEA23C2ED5B3D3CE53ABCD32A3319
310
F5C1A59BF7A5F9BA44A7D586FE718BABFCDF2D6A131AB2BB6D0A0F0CA7CF3D1E18AD723AA93DA24B3D27C9BE01504B03041400060808002249EE520F457FADF9000000960100003B0000006662782F37393734364338322D443732332D343845322D393730462D3733424132303635393837312F7265736F75726365732F63
310
6F72652E786D6C8550CB6E833010FC15B477F3308440651CA50DFD829E7AB3CC865A0936F2A3EAE7D70E546A4F952CAD353B33BB3BECF4B5DCB34FB44E193D40959790A19666527A1E20F82BE9203B71668DF1BF689069B1E0000906CE666BC2BA43D2688F3AA1DA4CB883C239F490C97BFC0CE0E4072E2217C14786BBE5AB
310
903731635EE51B8FB310D4B44BD514DDD455A105DEB7979696AF1DB91CDB91347D73207DFB529333A54D378ECF6375AE5991C49C79B5FC4C971685C709382D6945CA23A99AB7B27F4AEFF0CE8AC4E4CC791B6FDE87A6EB805B742658898E155BF78F6B58A7FF5D83D2BEA6BBEBA670C0ABB8E4A3C15991528AE51161AC2951
310
FE0D504B03041400060808002249EE5204FF1050EF000000B1010000310000006662782F37393734364338322D443732332D343845322D393730462D3733424132303635393837312F636F72652E786D6C8D504B6EC32014BC8AF5F6D8183BC1AE3051BF27E8AA3B04C44589C1E253F5F885D895DA5D24A487861966DEB0D3
310
F772ADBEB40FC6D909DA1A43A5AD74CAD8798214CF6880EAC499772EFEA14165C5A227283070367B97D61D92CE466D0B6A9DD23B2842D0112A79CD970982FCD48BA8458A99112EF52AE445CCBA6EEB8DC75934CBAF547A2DA256C009262DC214B5FD3B1E1FCA397CB0A630394BC9A8DDCAA8EC6ECE467BE074A4FDF17920E8
310
85920EF5C32B4123C56F88764F8F041F0FE3405BD614316721FABCF3FE49D9EE5EF926FC9739ADEA8ECCC6C68EEC869B22002F796E0F9C35A5C03C6EEDE659CAE63F504B03041400060808002249EE52DD88B87753010000DD0200000C0000006662782F636F72652E786D6C8D52CB6E833010FC15E4BB7985905019476943
310
BFA0A7DE1CDBA156C046C646F9FCDA3C443934AD40D89ADD99DD19814E8FB60906AE7BA164099230060197543121EB1258738347109C30D24A991F6D2090A4E525F030C0A8D6CA76334495345C7A542AC66790F43D3720A08DBB94A0A75FBC2521B1C675F4F7B023F44E6A1E26E1D48791B582CD54C19C9AB809AE012EF24B
310
9EC6EF477839E415CC8A6C0F8BFC6D07CF699A1DABEAB54ACE3B1479324646B4CB74AA39319C019CC66902E3034CB28FB878F1EFFE1345BE13A3DE68E7791EEADD017CBB3E5034E11B3DDBB1BFF5AC906697CE7A13A3073871EB8D058C229F8F3BC6F0B619BAC12E3F43AECD62E1EEA08153A374E62A4CD9B53490C672271D
310
07E383A2A9EA944781DF74D2273ACF355C5044D66E3562DCF56A8D9FBEDDA9E31A0EE61148A55BD2ACCB4D2BAEDF75D0C6D242A7AA51FA3FECC5EA1266E47F4CFC0D504B03041400060808002249EE52359598C008010000B201000008000000636F72652E786D6C8D50416EC32010FC0ADA3BB6C18E134798286DDC17F4D4
310
1B05E2A2D860191CB5BF2FC4AED4DE2A212D9A99DD995D76FA1C0774D7B337CEB640B20290B6D22963FB169670C5074027CE66E7C22F19202B46DD428281B37E76CBB441D2D9A06D42AD537A0385F73A009243FCB4E0E5871E4526961015FE964D42DE44AF3392AD3ACE82197F5AE5AC45D00A382D28C1C51E93EAB5688EE9
310
EDDE589E949C2D8B519B9551D1DD5C8D9E8137F5A5A6C5CB015FF67587ABA6DAE1A67E2EF199D2EAD0754F1D39972C4FCD9CF930C79DB7213167405EDC932FCB578AB377E7864D104329E4ECF005BC607922FE845E26F58FD0C686926E03D70E0F9CC4400F221AA70BC6F2386FACE9DAFC1B504B0102140014000608080022
310
49EE520000000000000000000000003700000000000000000000000000000000006662782F37393734364338322D443732332D343845322D393730462D3733424132303635393837312F617474726962757465732E62696E504B010214001400060808002249EE520000000000000000000000003500000000000000000000
310
000000550000006662782F37393734364338322D443732332D343845322D393730462D3733424132303635393837312F76657274696365732E62696E504B010214001400060808002249EE52F270F13306000000040000003600000000000000000000000000A80000006662782F37393734364338322D443732332D343845
310
322D393730462D3733424132303635393837312F747269616E676C65732E62696E504B010214001400060808002249EE5288E57597CD3F0000904100004200000000000000000000000000020100006662782F37393734364338322D443732332D343845322D393730462D3733424132303635393837312F7265736F757263
310
65732F322F305F67656E657269632E706E67504B010214001400060808002249EE5251464CB4890000004301000036000000000000000000000000002F4100006662782F37393734364338322D443732332D343845322D393730462D3733424132303635393837312F6469726563746F72792E786D6C504B01021400140006
310
0808002249EE52BA6A0EA03E070000541C000034000000000000000000000000000C4200006662782F37393734364338322D443732332D343845322D393730462D3733424132303635393837312F6F626A656374732E786D6C504B010214001400060808002249EE520CF9957FDF000000550100003C000000000000000000
310
000000009C4900006662782F37393734364338322D443732332D343845322D393730462D3733424132303635393837312F7265736F75726365732F322F636E782E786D6C504B010214001400060808002249EE52FF15A4A45D000000800000003A00000000000000000000000000D54A00006662782F37393734364338322D
310
443732332D343845322D393730462D3733424132303635393837312F7265736F75726365732F636E782E786D6C504B010214001400060808002249EE526B05C63D410100005605000030000000000000000000000000008A4B00006662782F37393734364338322D443732332D343845322D393730462D3733424132303635
310
393837312F636E782E786D6C504B010214001400060808002249EE52E3EDAD237F000000A30000000B00000000000000000000000000194D00006662782F636E782E786D6C504B010214001400060808002249EE52A6D797065F000000820000000700000000000000000000000000C14D0000636E782E786D6C504B010214
310
001400060808002249EE52ECFD112DA8000000260100001300000000000000000000000000454E00005B436F6E74656E745F54797065735D2E786D6C504B010214001400060808002249EE523DEE336E64000000790000001B000000000000000000000000001E4F00006175746F6465736B2D64657369676E2D7061636B61
310
67652E786D6C504B010214001400060808002249EE52216C69D6F40000008E0100003D00000000000000000000000000BB4F00006662782F37393734364338322D443732332D343845322D393730462D3733424132303635393837312F7265736F75726365732F322F636F72652E786D6C504B010214001400060808002249
310
EE520F457FADF9000000960100003B000000000000000000000000000A5100006662782F37393734364338322D443732332D343845322D393730462D3733424132303635393837312F7265736F75726365732F636F72652E786D6C504B010214001400060808002249EE5204FF1050EF000000B10100003100000000000000
310
0000000000005C5200006662782F37393734364338322D443732332D343845322D393730462D3733424132303635393837312F636F72652E786D6C504B010214001400060808002249EE52DD88B87753010000DD0200000C000000000000000000000000009A5300006662782F636F72652E786D6C504B0102140014000608
310
08002249EE52359598C008010000B2010000080000000000000000000000000017550000636F72652E786D6C504B050600000000120012002D060000455600000000
  0
XRECORD
  5
1E5
102
{ACAD_REACTORS
330
1E0
102
}
330
1E0
100
AcDbXrecord
280
     1
270
     1
271
     1
  0
XRECORD
  5
1E4
102
{ACAD_REACTORS
330
1E0
102
}
330
1E0
100
AcDbXrecord
280
     1
270
     1
271
     1
  0
XRECORD
  5
1E6
102
{ACAD_REACTORS
330
1E0
102
}
330
1E0
100
AcDbXrecord
280
     1
270
     1
271
     1
  0
XRECORD
  5
1E3
102
{ACAD_REACTORS
330
1E0
102
}
330
1E0
100
AcDbXrecord
280
     1
270
     1
271
     1
  0
XRECORD
  5
296F4
102
{ACAD_REACTORS
330
296F3
102
}
330
296F3
100
AcDbXrecord
280
     1
102
DISPLAYNAME
  1
Imperial24
102
FLAGS
 90
        0
  0
CELLSTYLEMAP
  5
296E9
102
{ACAD_REACTORS
330
1580D
102
}
330
1580D
100
AcDbCellStyleMap
 90
        3
300
CELLSTYLE
  1
TABLEFORMAT_BEGIN
 90
        5
170
     1
 91
        0
 92
    32768
 62
   257
 93
        1
300
CONTENTFORMAT
  1
CONTENTFORMAT_BEGIN
 90
        0
 91
        0
 92
      512
 93
        0
300

 40
0.0
140
1.0
 94
        5
 62
     0
340
A
144
0.25
309
CONTENTFORMAT_END
171
     1
301
MARGIN
  1
CELLMARGIN_BEGIN
 40
0.06
 40
0.06
 40
0.06
 40
0.06
 40
0.18
 40
0.18
309
CELLMARGIN_END
 94
        6
 95
        1
302
GRIDFORMAT
  1
GRIDFORMAT_BEGIN
 90
        0
 91
        1
 62
     0
 92
       -2
340
0
 93
        0
 40
0.045
309
GRIDFORMAT_END
 95
        2
302
GRIDFORMAT
  1
GRIDFORMAT_BEGIN
 90
        0
 91
        1
 62
     0
 92
       -2
340
0
 93
        0
 40
0.045
309
GRIDFORMAT_END
 95
        4
302
GRIDFORMAT
  1
GRIDFORMAT_BEGIN
 90
        0
 91
        1
 62
     0
 92
       -2
340
0
 93
        0
 40
0.045
309
GRIDFORMAT_END
 95
        8
302
GRIDFORMAT
  1
GRIDFORMAT_BEGIN
 90
        0
 91
        1
 62
     0
 92
       -2
340
0
 93
        0
 40
0.045
309
GRIDFORMAT_END
 95
       16
302
GRIDFORMAT
  1
GRIDFORMAT_BEGIN
 90
        0
 91
        1
 62
     0
 92
       -2
340
0
 93
        0
 40
0.045
309
GRIDFORMAT_END
 95
       32
302
GRIDFORMAT
  1
GRIDFORMAT_BEGIN
 90
        0
 91
        1
 62
     0
 92
       -2
340
0
 93
        0
 40
0.045
309
GRIDFORMAT_END
309
TABLEFORMAT_END
  1
CELLSTYLE_BEGIN
 90
        1
 91
        1
300
_TITLE
309
CELLSTYLE_END
300
CELLSTYLE
  1
TABLEFORMAT_BEGIN
 90
        5
170
     1
 91
        0
 92
        0
 62
   257
 93
        1
300
CONTENTFORMAT
  1
CONTENTFORMAT_BEGIN
 90
        0
 91
        0
 92
      512
 93
        0
300

 40
0.0
140
1.0
 94
        5
 62
     0
340
A
144
0.18
309
CONTENTFORMAT_END
171
     1
301
MARGIN
  1
CELLMARGIN_BEGIN
 40
0.06
 40
0.06
 40
0.06
 40
0.06
 40
0.18
 40
0.18
309
CELLMARGIN_END
 94
        6
 95
        1
302
GRIDFORMAT
  1
GRIDFORMAT_BEGIN
 90
        0
 91
        1
 62
     0
 92
       -2
340
0
 93
        0
 40
0.045
309
GRIDFORMAT_END
 95
        2
302
GRIDFORMAT
  1
GRIDFORMAT_BEGIN
 90
        0
 91
        1
 62
     0
 92
       -2
340
0
 93
        0
 40
0.045
309
GRIDFORMAT_END
 95
        4
302
GRIDFORMAT
  1
GRIDFORMAT_BEGIN
 90
        0
 91
        1
 62
     0
 92
       -2
340
0
 93
        0
 40
0.045
309
GRIDFORMAT_END
 95
        8
302
GRIDFORMAT
  1
GRIDFORMAT_BEGIN
 90
        0
 91
        1
 62
     0
 92
       -2
340
0
 93
        0
 40
0.045
309
GRIDFORMAT_END
 95
       16
302
GRIDFORMAT
  1
GRIDFORMAT_BEGIN
 90
        0
 91
        1
 62
     0
 92
       -2
340
0
 93
        0
 40
0.045
309
GRIDFORMAT_END
 95
       32
302
GRIDFORMAT
  1
GRIDFORMAT_BEGIN
 90
        0
 91
        1
 62
     0
 92
       -2
340
0
 93
        0
 40
0.045
309
GRIDFORMAT_END
309
TABLEFORMAT_END
  1
CELLSTYLE_BEGIN
 90
        2
 91
        1
300
_HEADER
309
CELLSTYLE_END
300
CELLSTYLE
  1
TABLEFORMAT_BEGIN
 90
        5
170
     1
 91
        0
 92
        0
 62
   257
 93
        1
300
CONTENTFORMAT
  1
CONTENTFORMAT_BEGIN
 90
        0
 91
        0
 92
      512
 93
        0
300

 40
0.0
140
1.0
 94
        2
 62
     0
340
A
144
0.18
309
CONTENTFORMAT_END
171
     1
301
MARGIN
  1
CELLMARGIN_BEGIN
 40
0.06
 40
0.06
 40
0.06
 40
0.06
 40
0.18
 40
0.18
309
CELLMARGIN_END
 94
        6
 95
        1
302
GRIDFORMAT
  1
GRIDFORMAT_BEGIN
 90
        0
 91
        1
 62
     0
 92
       -2
340
0
 93
        0
 40
0.045
309
GRIDFORMAT_END
 95
        2
302
GRIDFORMAT
  1
GRIDFORMAT_BEGIN
 90
        0
 91
        1
 62
     0
 92
       -2
340
0
 93
        0
 40
0.045
309
GRIDFORMAT_END
 95
        4
302
GRIDFORMAT
  1
GRIDFORMAT_BEGIN
 90
        0
 91
        1
 62
     0
 92
       -2
340
0
 93
        0
 40
0.045
309
GRIDFORMAT_END
 95
        8
302
GRIDFORMAT
  1
GRIDFORMAT_BEGIN
 90
        0
 91
        1
 62
     0
 92
       -2
340
0
 93
        0
 40
0.045
309
GRIDFORMAT_END
 95
       16
302
GRIDFORMAT
  1
GRIDFORMAT_BEGIN
 90
        0
 91
        1
 62
     0
 92
       -2
340
0
 93
        0
 40
0.045
309
GRIDFORMAT_END
 95
       32
302
GRIDFORMAT
  1
GRIDFORMAT_BEGIN
 90
        0
 91
        1
 62
     0
 92
       -2
340
0
 93
        0
 40
0.045
309
GRIDFORMAT_END
309
TABLEFORMAT_END
  1
CELLSTYLE_BEGIN
 90
        3
 91
        2
300
_DATA
309
CELLSTYLE_END
  0
ENDSEC
  0
SECTION
  2
ACDSDATA
 70
     2
 71
     8
  0
ACDSSCHEMA
 90
        0
  1
AcDb_Thumbnail_Schema
  2
AcDbDs::ID
280
    10
 91
        8
  2
Thumbnail_Data
280
    15
 91
        0
101
ACDSRECORD
 95
        0
 90
        1
  2
AcDbDs::TreatedAsObjectData
280
     1
291
     1
101
ACDSRECORD
 95
        0
 90
        2
  2
AcDbDs::Legacy
280
     1
291
     1
101
ACDSRECORD
  1
AcDbDs::ID
 90
        3
  2
AcDs:Indexable
280
     1
291
     1
101
ACDSRECORD
  1
AcDbDs::ID
 90
        4
  2
AcDbDs::HandleAttribute
280
     7
282
     1
  0
ACDSSCHEMA
 90
        1
  1
AcDbDs::TreatedAsObjectDataSchema
  2
AcDbDs::TreatedAsObjectData
280
     1
 91
        0
  0
ACDSSCHEMA
 90
        2
  1
AcDbDs::LegacySchema
  2
AcDbDs::Legacy
280
     1
 91
        0
  0
ACDSSCHEMA
 90
        3
  1
AcDbDs::IndexedPropertySchema
  2
AcDs:Indexable
280
     1
 91
        0
  0
ACDSSCHEMA
 90
        4
  1
AcDbDs::HandleAttributeSchema
  2
AcDbDs::HandleAttribute
280
     7
 91
        1
284
     1
  0
ACDSRECORD
 90
        0
  2
AcDbDs::ID
280
    10
320
21E
  2
Thumbnail_Data
280
    15
 94
     2633
310
89504E470D0A1A0A0000000D49484452000000B40000010008030000002D3FACD700000300504C5445FFFFFFFFFFFFFFFFFF0000000000000000000000000000000000000000000000000000330000660000990000CC0000FF0033000033330033660033990033CC0033FF0066000066330066660066990066CC0066FF0099
310
000099330099660099990099CC0099FF00CC0000CC3300CC6600CC9900CCCC00CCFF00FF0000FF3300FF6600FF9900FFCC00FFFF3300003300333300663300993300CC3300FF3333003333333333663333993333CC3333FF3366003366333366663366993366CC3366FF3399003399333399663399993399CC3399FF33CC00
310
33CC3333CC6633CC9933CCCC33CCFF33FF0033FF3333FF6633FF9933FFCC33FFFF6600006600336600666600996600CC6600FF6633006633336633666633996633CC6633FF6666006666336666666666996666CC6666FF6699006699336699666699996699CC6699FF66CC0066CC3366CC6666CC9966CCCC66CCFF66FF0066
310
FF3366FF6666FF9966FFCC66FFFF9900009900339900669900999900CC9900FF9933009933339933669933999933CC9933FF9966009966339966669966999966CC9966FF9999009999339999669999999999CC9999FF99CC0099CC3399CC6699CC9999CCCC99CCFF99FF0099FF3399FF6699FF9999FFCC99FFFFCC0000CC00
310
33CC0066CC0099CC00CCCC00FFCC3300CC3333CC3366CC3399CC33CCCC33FFCC6600CC6633CC6666CC6699CC66CCCC66FFCC9900CC9933CC9966CC9999CC99CCCC99FFCCCC00CCCC33CCCC66CCCC99CCCCCCCCCCFFCCFF00CCFF33CCFF66CCFF99CCFFCCCCFFFFFF0000FF0033FF0066FF0099FF00CCFF00FFFF3300FF3333
310
FF3366FF3399FF33CCFF33FFFF6600FF6633FF6666FF6699FF66CCFF66FFFF9900FF9933FF9966FF9999FF99CCFF99FFFFCC00FFCC33FFCC66FFCC99FFCCCCFFCCFFFFFF00FFFF33FFFF66FFFF99FFFFCCFFFFFF0000000D0D0D1A1A1A2828283535354343435050505D5D5D6B6B6B787878868686939393A1A1A1AEAEAEBB
310
BBBBC9C9C9D6D6D6E4E4E4F1F1F1FFFFFF000000000000000000000000000000000000000000000000000000000000AD4AB4E4000007044944415478DAEDDDED6EE42A0C0660DFFF65BE3FF72A56BB6D2610ECF80B4246F2484767D5769A6718628C6128E10B1F843FDFF720D0173E0A5DE84217BAD0852E74A10B5DE84217
310
BAD0852E74A10B5DE84217BAD085FE06F4B986F035E8C6BAD38DC40F6F6B70B8BBC6F0B557A37F7903FCF90647E427C1BD096F44437BD2830D8EB899897D0FB99130B3D027DC089BE59EB1BCA3C07B0F4278DE930D6EF8D580D835343776A19B919BA03D898BE1781EFD0911309887F4E4F79978168DF1AD863DA7FAF7E660
310
7E5781FBDBB0BEC87F662CC90BE1FEEEEDA5D1FD7F557A057FC22F5F19B8FE562C19ED4D81C0E80617702C31661A5A4BF8C70B83B915C54C3CE586E716BC4DA465F3F42C05BEAFCB0D8EB16B2CCB52E0BF41D951CF669ED4E088856F48D98710FCE6BA6368E94AE3B009E3D35D6EA4A606630481D1CC8C52F60E9E425F9392
310
FFFFE67BB87168059E40B70D7E24834601D8F7CBC29E81EE1BD98A6E83381BF09DE858D08761D494A79AF677682A9A7ED267939B1F781209730ACD4401C6CD4F35CDEA05687D8E0B396F351116A1F9D15E19DFF994DC3A37A11968BEA300802DEBC126F45D0451E38AE12796A125B7A121B1137D3BCF89A81F42DB22A155BD
310
2E7AA4F251F8B38C6568CE6D1BE5F7A2C7B4CEDFD4613453C881630547CB8F96A08F3C83BA94DFB72A79C75E813E7C682F8AC4A2B5A15A350BDD67C3086C0F900A5A341F0DBAA07F8AD181CA0B9B2069F318AD7CA1A02F973AE64E917A80D4B8E61440B92E8EFF3084AFE3890E38EEEF3D075A1DAFC02DA9A09F6547D49624
310
450AED9FE9B5D83B8EE50934EDDAA3DD6BD8ECDBE3407F4600F0095A33B2340D7E418756DE0DDF540677764D0DC4D56CCFEA47F76379B51BDDD661BADE31D69987A2185C65C13C9AB83596AE3F80A9443775A661B44CA8A3E8CFC59BC5C1F3358CC1B27955086C749886662370D7859B1A41B398877407C9A109FD9D76C91E
310
302C8B333F1F5027D1632C05D4841BD88FEE8B45B699422E5A4F421F0DAE14A0BDE9D372B4A11D21ED3E74AAE7A209FC56CE611EF810FAB60CDBE7556AC74532EACD46037A474176309F8BE6F20F29617C0B9A5BFA64B64864D18E8AAB8E16F7E6A1BF032FD995178D99687D2CE4D7DB9C6A3C85666A6641B4707B47D1FADE
310
0AC75E3EE9D74A3D2B8686BA3AF9D39B9B7C368006093962080D7513249A692DB3AFD08416CD21B4BEBB0097B9386E2B12FC65FB579E459BCCC3F5CE8D9C363486579E41EB8BED10AB1E522585A95DB0AF3C8A369AE5EBDD96DCFA8D2BA0296818363568E8BB921B8606CAA361D93BADA29B990FB81269379B73A0A5D9B8E5
310
D637A1DB1E3E56DC681EDABA91CA8A6E1ABCBB25404A09D385B68558DCCD57C0E7446729ED32F667D1D661016D9830A0DB0607E268D3644B1ECA6E5B034A420B8AA2E13333EBC66EF4B53618E81EAE6D89B0CF0AA156FD132D8DBE0CEACADC27A141BE0D9AE816007CE654F73035F4FD572D7999B4ACBD0DED0ACF2F427BC2
310
C65E346261E325E888793FDAB4116D1A1A34077D93DEDDA7E29BD1420C51E679413468C28D28C53EB5D7BC03DD75147D01FE35E8332DA1EF425B0361000D5A88A637A2D50FCA7C257A519F1ED09EADF973D088A087E5B2A75B5AA87BC1D8D04EB47A239A5B9AAB7B59D137AB62EBD0C41EDF60469F75D347D1CDA5012FBADB
310
BCF5309AC62D6426346EABE1DA66C23921EF9CDA9BD05A8EF30CBAA9A5D0FDC744B81DB7DE02E4DCC1E5FE64159C1597589B193FC9E61F1149768FB55E6F9B61159A485A7361E6762F4233D5C206EDE8BCF26DB106CD3438D3FAEE5BEA6E8632057DAD16C26AD63E8CB71A7D5CE666812E98CF2F4693B8DBECDD683E0107BD
310
1E7DDDA042EE7A5C0A7D93545A2F862DE8DC4934D06B7ED3D1E4D8D4C66569DA3ACF9A3E9D3AA8487FCD4BD0B153A160352F40874F3C8352A259887EC0BC044D71B42D584E4627CE66833AA62C42678EC183D93C178D24DAFAE9A3101A73631D31D3F0A7D0C8060F4CF9A068F07C8D90DBF1E1D66968C7595762DFA287D1C8
310
DE95AE2309E6A0F32781BA5EE21434D216EFDB92476B5382F418B7006D2BCB605A3BC70E7923441A09F2119DFE4893437B0FF7640E028CCF7182E8D814C5BC4D3188366E6209CA33A9B75EC590A7A03B1ED62397A429E86BD1438363AFD9F7F75C902D6D3C8F26D312E6FBD04783EFFD6350D1404BDF87DEFD2874A10B5DE8
310
4217BAD0852E74A10B5DE842177A02FAB36ED89D9B08B4DF694E096A8E6A45B2D893AA7B5ECD68F602F55F3BCF0D3D4F53C64674B393FBFC138EDD9663A039FCF9DCB1BE0B0D118D0EFDD9510AFAA0E9056874E7245FFBCD79A40488B0B57B60443377E7D9D0E209E1BBD0BFBF0CDD779A40D14696AD7D1A34A2D17EA73DE6
310
EFD2D2BBFA3431E8E3BC7515BDAB4F77E87E7019D0684F69DA88AEDCA3D0852E74A10B5DE84217BAD0852E74A10B5DE84217BAD0852E74A10B5DE84217FA40FFF9BE87B01CFCEEC75FA8699B19389BF6C80000000049454E44AE426082
  0
ACDSRECORD
 90
        0
  2
AcDbDs::ID
280
    10
320
21D
  2
Thumbnail_Data
280
    15
 94
     1661
310
89504E470D0A1A0A0000000D49484452000001000000007F080300000037AFECF400000300504C5445212830FFFFFF2128300000000000000000000000000000000000000000000000000000330000660000990000CC0000FF0033000033330033660033990033CC0033FF0066000066330066660066990066CC0066FF0099
310
000099330099660099990099CC0099FF00CC0000CC3300CC6600CC9900CCCC00CCFF00FF0000FF3300FF6600FF9900FFCC00FFFF3300003300333300663300993300CC3300FF3333003333333333663333993333CC3333FF3366003366333366663366993366CC3366FF3399003399333399663399993399CC3399FF33CC00
310
33CC3333CC6633CC9933CCCC33CCFF33FF0033FF3333FF6633FF9933FFCC33FFFF6600006600336600666600996600CC6600FF6633006633336633666633996633CC6633FF6666006666336666666666996666CC6666FF6699006699336699666699996699CC6699FF66CC0066CC3366CC6666CC9966CCCC66CCFF66FF0066
310
FF3366FF6666FF9966FFCC66FFFF9900009900339900669900999900CC9900FF9933009933339933669933999933CC9933FF9966009966339966669966999966CC9966FF9999009999339999669999999999CC9999FF99CC0099CC3399CC6699CC9999CCCC99CCFF99FF0099FF3399FF6699FF9999FFCC99FFFFCC0000CC00
310
33CC0066CC0099CC00CCCC00FFCC3300CC3333CC3366CC3399CC33CCCC33FFCC6600CC6633CC6666CC6699CC66CCCC66FFCC9900CC9933CC9966CC9999CC99CCCC99FFCCCC00CCCC33CCCC66CCCC99CCCCCCCCCCFFCCFF00CCFF33CCFF66CCFF99CCFFCCCCFFFFFF0000FF0033FF0066FF0099FF00CCFF00FFFF3300FF3333
310
FF3366FF3399FF33CCFF33FFFF6600FF6633FF6666FF6699FF66CCFF66FFFF9900FF9933FF9966FF9999FF99CCFF99FFFFCC00FFCC33FFCC66FFCC99FFCCCCFFCCFFFFFF00FFFF33FFFF66FFFF99FFFFCCFFFFFF0000000D0D0D1A1A1A2828283535354343435050505D5D5D6B6B6B787878868686939393A1A1A1AEAEAEBB
310
BBBBC9C9C9D6D6D6E4E4E4F1F1F1FFFFFF0000000000000000000000000000000000000000000000000000000000002E4550F1000003384944415478DAEDDDD16EC330080550FEFF7FEFFBA44D71C0809DAEED03F8F6619B362D9A4F0306C7C9443EFFC2D75E52E38572072600010840000210800004200001084000021080
310
0004F8CEDFF9FEAA4E698031FA37102A035C63BF35CE02C0F834C2E01F087501D4F8CD19F022425500607C82FBAEBC605014002A017A975766869A006A7C4EE6A27988501240CFFE669CE394783E3354047013DFC87F7710DC71B03128091005C318AE498D7FDF5D9D08D501A6B718E9D490191404405C13DBDA585621D30F
310
406546E45383C6280CB0F88B755694606A4870FA0008FCCCA0867EA588D6006E7A84FF65740708A786391EBA03A41941F028A57600B0F3A39D139A019884172F1C896D9FD009E0B7F5F3C1ED09C244D8026054C0EB8A5F9F259501FCDA88984A18F902EA54115405B063C4BD8BF4CA6FC88E10ACA3540C01FB46E36E79D74B
310
0071FD53B5191A8B5E6A495C23A03B808978FC4D02D0064F052AB7C36AB147CFF5CF04BA00840B1DA701B80B0140B0F29105523D0095048260C8CA85AC9C6A0100CC4D415616A22500E05A835D0CA0134096011700E804E0AF12DCF54072181D1FE56781E02A896D8DA286A01100829511C0178B6A3508D20800C1D28889F0
310
A97582C07685C50190F4FC73ADA45B27E904102F7C79802B3AC695B3DA00588C5FE24D433666CA03441D3FE65D6321520F8068CD07AAB9390160B969AA3900E2F2FF1900A40B80EE7EE74B7F7912944600BAF0935301C26AE83480683FD016009D00FC9617E07800248B45E237D4B70430978B1C00D02B07489204712D0E4E
310
00A8BE4142F00C40FC7D036323C5290073C0AB7EB832C03CC635804680F8BD44556F987809C06584EA00CF0BA1B4656E0CB0B83B02616DD010607590E84A413780D541507FBBFC1A60798B14FCF81B022C8FE17FDC0B6077875C8F7B867200407611D01A009B2CB0DF3E591B009B4800A4350036D5409F1B27630084E53FB0
310
CB8F5D00F2EA6FF3A099AA0098EADB4F1DB80A80BD4FE8E8E708BDF5F64B834769BDFB74703E4B8C000420000108400002108000850182FF9D73DF34B279A05A3B00715F1C0230F64E4E67821C06603E1E09801301380D128000042000010840000210800004200001084000027404A8F4DFE77F006BAC1851075585F70000
310
000049454E44AE426082
  0
ENDSEC
  0
EOF
