  0
SECTION
  2
HEADER
  9
$ACADVER
  1
AC1027
  9
$ACADMAINTVER
 70
   125
  9
$DWGCODEPAGE
  3
ANSI_1252
  9
$LASTSAVEDBY
  1
723610
  9
$REQUIREDVERSIONS
160
                 0
  9
$INSBASE
 10
0.0
 20
0.0
 30
0.0
  9
$EXTMIN
 10
-1189.150853756011
 20
-445.4770438282095
 30
0.0
  9
$EXTMAX
 10
-32.85270238809952
 20
1188.582030898915
 30
0.0
  9
$LIMMIN
 10
0.0
 20
0.0
  9
$LIMMAX
 10
12.0
 20
9.0
  9
$ORTHOMODE
 70
     1
  9
$REGENMODE
 70
     1
  9
$FILLMODE
 70
     1
  9
$QTEXTMODE
 70
     0
  9
$MIRRTEXT
 70
     1
  9
$LTSCALE
 40
1.0
  9
$ATTMODE
 70
     1
  9
$TEXTSIZE
 40
0.25
  9
$TRACEWID
 40
0.05
  9
$TEXTSTYLE
  7
STANDARD
  9
$CLAYER
  8
0
  9
$CELTYPE
  6
BYLAYER
  9
$CECOLOR
 62
   256
  9
$CELTSCALE
 40
1.0
  9
$DISPSILH
 70
     0
  9
$DIMSCALE
 40
1.0
  9
$DIMASZ
 40
3.5
  9
$DIMEXO
 40
2.0
  9
$DIMDLI
 40
12.0
  9
$DIMRND
 40
0.0
  9
$DIMDLE
 40
0.0
  9
$DIMEXE
 40
1.5
  9
$DIMTP
 40
0.0
  9
$DIMTM
 40
0.0
  9
$DIMTXT
 40
3.0
  9
$DIMCEN
 40
4.0
  9
$DIMTSZ
 40
0.0
  9
$DIMTOL
 70
     0
  9
$DIMLIM
 70
     0
  9
$DIMTIH
 70
     1
  9
$DIMTOH
 70
     1
  9
$DIMSE1
 70
     0
  9
$DIMSE2
 70
     0
  9
$DIMTAD
 70
     0
  9
$DIMZIN
 70
     3
  9
$DIMBLK
  1
Closed
  9
$DIMASO
 70
     1
  9
$DIMSHO
 70
     1
  9
$DIMPOST
  1

  9
$DIMAPOST
  1

  9
$DIMALT
 70
     0
  9
$DIMALTD
 70
     2
  9
$DIMALTF
 40
25.4
  9
$DIMLFAC
 40
0.039370078
  9
$DIMTOFL
 70
     1
  9
$DIMTVP
 40
0.0
  9
$DIMTIX
 70
     0
  9
$DIMSOXD
 70
     0
  9
$DIMSAH
 70
     0
  9
$DIMBLK1
  1
Closed
  9
$DIMBLK2
  1
Dot
  9
$DIMSTYLE
  2
new 1
  9
$DIMCLRD
 70
     0
  9
$DIMCLRE
 70
     0
  9
$DIMCLRT
 70
     0
  9
$DIMTFAC
 40
0.8
  9
$DIMGAP
 40
1.5
  9
$DIMJUST
 70
     0
  9
$DIMSD1
 70
     0
  9
$DIMSD2
 70
     0
  9
$DIMTOLJ
 70
     1
  9
$DIMTZIN
 70
     0
  9
$DIMALTZ
 70
     0
  9
$DIMALTTZ
 70
     0
  9
$DIMUPT
 70
     0
  9
$DIMDEC
 70
     4
  9
$DIMTDEC
 70
     4
  9
$DIMALTU
 70
     2
  9
$DIMALTTD
 70
     2
  9
$DIMTXSTY
  7
STANDARD
  9
$DIMAUNIT
 70
     0
  9
$DIMADEC
 70
     2
  9
$DIMALTRND
 40
0.0
  9
$DIMAZIN
 70
     3
  9
$DIMDSEP
 70
    46
  9
$DIMATFIT
 70
     3
  9
$DIMFRAC
 70
     0
  9
$DIMLDRBLK
  1
Closed
  9
$DIMLUNIT
 70
     4
  9
$DIMLWD
 70
    -2
  9
$DIMLWE
 70
    -1
  9
$DIMTMOVE
 70
     2
  9
$DIMFXL
 40
1.0
  9
$DIMFXLON
 70
     0
  9
$DIMJOGANG
 40
1.570796326794896
  9
$DIMTFILL
 70
     1
  9
$DIMTFILLCLR
 70
     0
  9
$DIMARCSYM
 70
     0
  9
$DIMLTYPE
  6

  9
$DIMLTEX1
  6
BYLAYER
  9
$DIMLTEX2
  6
BYLAYER
  9
$DIMTXTDIRECTION
 70
     0
  9
$LUNITS
 70
     2
  9
$LUPREC
 70
     0
  9
$SKETCHINC
 40
0.1
  9
$FILLETRAD
 40
0.0
  9
$AUNITS
 70
     0
  9
$AUPREC
 70
     0
  9
$MENU
  1
.
  9
$ELEVATION
 40
0.0
  9
$PELEVATION
 40
0.0
  9
$THICKNESS
 40
0.0
  9
$LIMCHECK
 70
     0
  9
$CHAMFERA
 40
0.5
  9
$CHAMFERB
 40
0.5
  9
$CHAMFERC
 40
1.0
  9
$CHAMFERD
 40
0.0
  9
$SKPOLY
 70
     0
  9
$TDCREATE
 40
2451667.537939815
  9
$TDUCREATE
 40
2451667.246273149
  9
$TDUPDATE
 40
2460396.567118056
  9
$TDUUPDATE
 40
2460396.275451389
  9
$TDINDWG
 40
2.2243051968
  9
$TDUSRTIMER
 40
2.2243051968
  9
$USRTIMER
 70
     1
  9
$ANGBASE
 50
0.0
  9
$ANGDIR
 70
     0
  9
$PDMODE
 70
     0
  9
$PDSIZE
 40
0.0
  9
$PLINEWID
 40
0.0
  9
$SPLFRAME
 70
     0
  9
$SPLINETYPE
 70
     6
  9
$SPLINESEGS
 70
     8
  9
$HANDSEED
  5
271AB
  9
$SURFTAB1
 70
     6
  9
$SURFTAB2
 70
     6
  9
$SURFTYPE
 70
     6
  9
$SURFU
 70
     6
  9
$SURFV
 70
     6
  9
$UCSBASE
  2

  9
$UCSNAME
  2

  9
$UCSORG
 10
0.0
 20
0.0
 30
0.0
  9
$UCSXDIR
 10
1.0
 20
0.0
 30
0.0
  9
$UCSYDIR
 10
0.0
 20
1.0
 30
0.0
  9
$UCSORTHOREF
  2

  9
$UCSORTHOVIEW
 70
     0
  9
$UCSORGTOP
 10
0.0
 20
0.0
 30
0.0
  9
$UCSORGBOTTOM
 10
0.0
 20
0.0
 30
0.0
  9
$UCSORGLEFT
 10
0.0
 20
0.0
 30
0.0
  9
$UCSORGRIGHT
 10
0.0
 20
0.0
 30
0.0
  9
$UCSORGFRONT
 10
0.0
 20
0.0
 30
0.0
  9
$UCSORGBACK
 10
0.0
 20
0.0
 30
0.0
  9
$PUCSBASE
  2

  9
$PUCSNAME
  2

  9
$PUCSORG
 10
0.0
 20
0.0
 30
0.0
  9
$PUCSXDIR
 10
1.0
 20
0.0
 30
0.0
  9
$PUCSYDIR
 10
0.0
 20
1.0
 30
0.0
  9
$PUCSORTHOREF
  2

  9
$PUCSORTHOVIEW
 70
     0
  9
$PUCSORGTOP
 10
0.0
 20
0.0
 30
0.0
  9
$PUCSORGBOTTOM
 10
0.0
 20
0.0
 30
0.0
  9
$PUCSORGLEFT
 10
0.0
 20
0.0
 30
0.0
  9
$PUCSORGRIGHT
 10
0.0
 20
0.0
 30
0.0
  9
$PUCSORGFRONT
 10
0.0
 20
0.0
 30
0.0
  9
$PUCSORGBACK
 10
0.0
 20
0.0
 30
0.0
  9
$USERI1
 70
     0
  9
$USERI2
 70
     0
  9
$USERI3
 70
     0
  9
$USERI4
 70
     0
  9
$USERI5
 70
     0
  9
$USERR1
 40
0.0
  9
$USERR2
 40
0.0
  9
$USERR3
 40
0.0
  9
$USERR4
 40
0.0
  9
$USERR5
 40
0.0
  9
$WORLDVIEW
 70
     1
  9
$SHADEDGE
 70
     3
  9
$SHADEDIF
 70
    70
  9
$TILEMODE
 70
     0
  9
$MAXACTVP
 70
    48
  9
$PINSBASE
 10
0.0
 20
0.0
 30
0.0
  9
$PLIMCHECK
 70
     0
  9
$PEXTMIN
 10
-7.314369446621242
 20
-4.94030657662256
 30
-0.0015258207003583
  9
$PEXTMAX
 10
217.1793238819542
 20
298.4079798798715
 30
0.0000000349246037
  9
$PLIMMIN
 10
0.0
 20
0.0
  9
$PLIMMAX
 10
210.0
 20
297.0
  9
$UNITMODE
 70
     0
  9
$VISRETAIN
 70
     1
  9
$PLINEGEN
 70
     0
  9
$PSLTSCALE
 70
     1
  9
$TREEDEPTH
 70
  3020
  9
$CMLSTYLE
  2
STANDARD
  9
$CMLJUST
 70
     0
  9
$CMLSCALE
 40
1.0
  9
$PROXYGRAPHICS
 70
     1
  9
$MEASUREMENT
 70
     0
  9
$CELWEIGHT
370
     9
  9
$ENDCAPS
280
     0
  9
$JOINSTYLE
280
     0
  9
$LWDISPLAY
290
     0
  9
$INSUNITS
 70
     4
  9
$HYPERLINKBASE
  1

  9
$STYLESHEET
  1

  9
$XEDIT
290
     1
  9
$CEPSNTYPE
380
     0
  9
$PSTYLEMODE
290
     1
  9
$FINGERPRINTGUID
  2
{F1C9EDB5-A23C-6A47-A128-A2D269DD3D0B}
  9
$VERSIONGUID
  2
{E25096A8-A71F-FC4A-A544-E3BF55354A15}
  9
$EXTNAMES
290
     1
  9
$PSVPSCALE
 40
0.0
  9
$OLESTARTUP
290
     0
  9
$SORTENTS
280
   127
  9
$INDEXCTL
280
     0
  9
$HIDETEXT
280
     0
  9
$XCLIPFRAME
280
     2
  9
$HALOGAP
280
     0
  9
$OBSCOLOR
 70
   257
  9
$OBSLTYPE
280
     0
  9
$INTERSECTIONDISPLAY
280
     0
  9
$INTERSECTIONCOLOR
 70
   257
  9
$DIMASSOC
280
     1
  9
$PROJECTNAME
  1

  9
$CAMERADISPLAY
290
     0
  9
$LENSLENGTH
 40
50.0
  9
$CAMERAHEIGHT
 40
0.0
  9
$STEPSPERSEC
 40
2.0
  9
$STEPSIZE
 40
6.0
  9
$3DDWFPREC
 40
2.0
  9
$PSOLWIDTH
 40
0.25
  9
$PSOLHEIGHT
 40
4.0
  9
$LOFTANG1
 40
1.570796326794896
  9
$LOFTANG2
 40
1.570796326794896
  9
$LOFTMAG1
 40
0.0
  9
$LOFTMAG2
 40
0.0
  9
$LOFTPARAM
 70
     7
  9
$LOFTNORMALS
280
     1
  9
$LATITUDE
 40
37.795
  9
$LONGITUDE
 40
-122.394
  9
$NORTHDIRECTION
 40
0.0
  9
$TIMEZONE
 70
 -8000
  9
$LIGHTGLYPHDISPLAY
280
     1
  9
$TILEMODELIGHTSYNCH
280
     1
  9
$CMATERIAL
347
1CF
  9
$SOLIDHIST
280
     0
  9
$SHOWHIST
280
     1
  9
$DWFFRAME
280
     2
  9
$DGNFRAME
280
     0
  9
$REALWORLDSCALE
290
     1
  9
$INTERFERECOLOR
 62
     1
  9
$INTERFEREOBJVS
345
1F1
  9
$INTERFEREVPVS
346
1EE
  9
$CSHADOW
280
     0
  9
$SHADOWPLANELOCATION
 40
0.0
  0
ENDSEC
  0
SECTION
  2
CLASSES
  0
CLASS
  1
ACDBDICTIONARYWDFLT
  2
AcDbDictionaryWithDefault
  3
ObjectDBX Classes
 90
        0
 91
        1
280
     1
281
     0
  0
CLASS
  1
DICTIONARYVAR
  2
AcDbDictionaryVar
  3
ObjectDBX Classes
 90
        0
 91
       10
280
     0
281
     0
  0
CLASS
  1
MATERIAL
  2
AcDbMaterial
  3
ObjectDBX Classes
 90
     1153
 91
        3
280
     0
281
     0
  0
CLASS
  1
VISUALSTYLE
  2
AcDbVisualStyle
  3
ObjectDBX Classes
 90
     4095
 91
       24
280
     0
281
     0
  0
CLASS
  1
TABLESTYLE
  2
AcDbTableStyle
  3
ObjectDBX Classes
 90
     4095
 91
        1
280
     0
281
     0
  0
CLASS
  1
SCALE
  2
AcDbScale
  3
ObjectDBX Classes
 90
     1153
 91
       29
280
     0
281
     0
  0
CLASS
  1
MLEADERSTYLE
  2
AcDbMLeaderStyle
  3
ACDB_MLEADERSTYLE_CLASS
 90
     4095
 91
        1
280
     0
281
     0
  0
CLASS
  1
ACDBSECTIONVIEWSTYLE
  2
AcDbSectionViewStyle
  3
ObjectDBX Classes
 90
     1025
 91
        1
280
     0
281
     0
  0
CLASS
  1
ACDBDETAILVIEWSTYLE
  2
AcDbDetailViewStyle
  3
ObjectDBX Classes
 90
     1025
 91
        1
280
     0
281
     0
  0
CLASS
  1
SORTENTSTABLE
  2
AcDbSortentsTable
  3
ObjectDBX Classes
 90
        0
 91
        1
280
     0
281
     0
  0
CLASS
  1
PLOTSETTINGS
  2
AcDbPlotSettings
  3
ObjectDBX Classes
 90
        0
 91
        1
280
     0
281
     0
  0
CLASS
  1
CELLSTYLEMAP
  2
AcDbCellStyleMap
  3
ObjectDBX Classes
 90
     1152
 91
        2
280
     0
281
     0
  0
CLASS
  1
ACDB_ALDIMOBJECTCONTEXTDATA_CLASS
  2
AcDbAlignedDimensionObjectContextData
  3
ObjectDBX Classes
 90
     1153
 91
        0
280
     0
281
     0
  0
CLASS
  1
EXACXREFPANELOBJECT
  2
ExAcXREFPanelObject
  3
EXAC_ESW
 90
     1025
 91
        0
280
     0
281
     0
  0
CLASS
  1
NPOCOLLECTION
  2
AcDbImpNonPersistentObjectsCollection
  3
ObjectDBX Classes
 90
     1153
 91
        0
280
     0
281
     0
  0
CLASS
  1
ACDB_DMDIMOBJECTCONTEXTDATA_CLASS
  2
AcDbDiametricDimensionObjectContextData
  3
ObjectDBX Classes
 90
     1153
 91
        0
280
     0
281
     0
  0
CLASS
  1
ACDB_ANGDIMOBJECTCONTEXTDATA_CLASS
  2
AcDbAngularDimensionObjectContextData
  3
ObjectDBX Classes
 90
     1153
 91
        0
280
     0
281
     0
  0
ENDSEC
  0
SECTION
  2
TABLES
  0
TABLE
  2
VPORT
  5
1AE
330
0
100
AcDbSymbolTable
 70
     1
1001
ACAD
1000
DbSaveVer
1071
      298
  0
VPORT
  5
1CA
330
1AE
100
AcDbSymbolTableRecord
100
AcDbViewportTableRecord
  2
*ACTIVE
 70
     0
 10
0.0
 20
0.0
 11
1.0
 21
1.0
 12
-610.9815355380573
 22
371.5524973399426
 13
0.0
 23
0.0
 14
0.5
 24
0.5
 15
0.5
 25
0.5
 16
0.0
 26
0.0
 36
1.0
 17
0.0
 27
0.0
 37
0.0
 40
1646.043601122029
 41
1.91504854368932
 42
50.0
 43
0.0
 44
0.0
 50
0.0
 51
0.0
 71
     0
 72
     0
 73
     1
 74
     3
 75
     0
 76
     0
 77
     0
 78
     0
281
     0
 65
     1
110
592.4002916125872
120
0.0
130
0.0
111
1.0
121
0.0
131
0.0
112
0.0
122
1.0
132
0.0
 79
     0
146
0.0
348
1ED
 60
     3
 61
     5
292
     1
282
     1
141
0.0
142
0.0
 63
   250
421
  3355443
1001
ACAD_NAV_VCDISPLAY
1070
     3
  0
ENDTAB
  0
TABLE
  2
LTYPE
  5
1A7
330
0
100
AcDbSymbolTable
 70
     1
  0
LTYPE
  5
1A8
102
{ACAD_XDICTIONARY
360
1A9
102
}
330
1A7
100
AcDbSymbolTableRecord
100
AcDbLinetypeTableRecord
  2
BYBLOCK
 70
     0
  3

 72
    65
 73
     0
 40
0.0
  0
LTYPE
  5
1AA
102
{ACAD_XDICTIONARY
360
1AB
102
}
330
1A7
100
AcDbSymbolTableRecord
100
AcDbLinetypeTableRecord
  2
BYLAYER
 70
     0
  3

 72
    65
 73
     0
 40
0.0
  0
LTYPE
  5
5
102
{ACAD_XDICTIONARY
360
6
102
}
330
1A7
100
AcDbSymbolTableRecord
100
AcDbLinetypeTableRecord
  2
CONTINUOUS
 70
     0
  3
Solid line
 72
    65
 73
     0
 40
0.0
  0
ENDTAB
  0
TABLE
  2
LAYER
  5
1A5
102
{ACAD_XDICTIONARY
360
22C
102
}
330
0
100
AcDbSymbolTable
 70
     3
  0
LAYER
  5
61
102
{ACAD_XDICTIONARY
360
686
102
}
330
1A5
100
AcDbSymbolTableRecord
100
AcDbLayerTableRecord
  2
0
 70
     0
 62
     7
  6
CONTINUOUS
370
    15
390
1CD
347
1DF
348
0
  0
LAYER
  5
85C
330
1A5
100
AcDbSymbolTableRecord
100
AcDbLayerTableRecord
  2
Defpoints
 70
     0
 62
     7
  6
CONTINUOUS
290
     0
370
    -3
390
1CD
347
1DF
348
0
  0
LAYER
  5
F68
102
{ACAD_XDICTIONARY
360
F69
102
}
330
1A5
100
AcDbSymbolTableRecord
100
AcDbLayerTableRecord
  2
OBJ
 70
     0
 62
   179
  6
CONTINUOUS
370
    -3
390
1CD
347
1DF
348
0
  0
ENDTAB
  0
TABLE
  2
STYLE
  5
1A6
330
0
100
AcDbSymbolTable
 70
     2
  0
STYLE
  5
A
102
{ACAD_XDICTIONARY
360
B
102
}
330
1A6
100
AcDbSymbolTableRecord
100
AcDbTextStyleTableRecord
  2
STANDARD
 70
     0
 40
0.0
 41
1.0
 50
0.0
 71
     0
 42
0.25
  3
txt
  4

  0
STYLE
  5
F6A
330
1A6
100
AcDbSymbolTableRecord
100
AcDbTextStyleTableRecord
  2
SLDTEXTSTYLE0
 70
     0
 40
0.0
 41
0.605
 50
0.0
 71
     0
 42
0.125
  3
TXT
  4

  0
ENDTAB
  0
TABLE
  2
VIEW
  5
1AC
330
0
100
AcDbSymbolTable
 70
     2
  0
ENDTAB
  0
TABLE
  2
UCS
  5
1AD
330
0
100
AcDbSymbolTable
 70
     0
  0
ENDTAB
  0
TABLE
  2
APPID
  5
1B0
330
0
100
AcDbSymbolTable
 70
    13
  0
APPID
  5
1B1
330
1B0
100
AcDbSymbolTableRecord
100
AcDbRegAppTableRecord
  2
ACAD
 70
     0
  0
APPID
  5
222
330
1B0
100
AcDbSymbolTableRecord
100
AcDbRegAppTableRecord
  2
ACAD_EXEMPT_FROM_CAD_STANDARDS
 70
     0
  0
APPID
  5
232
330
1B0
100
AcDbSymbolTableRecord
100
AcDbRegAppTableRecord
  2
ACAD_NAV_VCDISPLAY
 70
     0
  0
APPID
  5
238
330
1B0
100
AcDbSymbolTableRecord
100
AcDbRegAppTableRecord
  2
ACAD_PSEXT
 70
     0
  0
APPID
  5
19B9
330
1B0
100
AcDbSymbolTableRecord
100
AcDbRegAppTableRecord
  2
PLOTTRANSPARENCY
 70
     0
  0
APPID
  5
1B92
330
1B0
100
AcDbSymbolTableRecord
100
AcDbRegAppTableRecord
  2
AcadAnnoMonitorAlertIconDisabled
 70
     0
  0
APPID
  5
1BD0
330
1B0
100
AcDbSymbolTableRecord
100
AcDbRegAppTableRecord
  2
ACAD_DSTYLE_DIMJAG
 70
     0
  0
APPID
  5
1BD1
330
1B0
100
AcDbSymbolTableRecord
100
AcDbRegAppTableRecord
  2
ACAD_DSTYLE_DIMBREAK
 70
     0
  0
APPID
  5
1BD2
330
1B0
100
AcDbSymbolTableRecord
100
AcDbRegAppTableRecord
  2
ACAD_DSTYLE_DIMTALN
 70
     0
  0
APPID
  5
1C03
330
1B0
100
AcDbSymbolTableRecord
100
AcDbRegAppTableRecord
  2
AcadAnnotative
 70
     0
  0
APPID
  5
1FB1
330
1B0
100
AcDbSymbolTableRecord
100
AcDbRegAppTableRecord
  2
ACAD_DSTYLE_DIMRADIAL_EXTENSION
 70
     0
  0
APPID
  5
237A6
330
1B0
100
AcDbSymbolTableRecord
100
AcDbRegAppTableRecord
  2
ACAD_MLEADERVER
 70
     0
  0
APPID
  5
24F7A
330
1B0
100
AcDbSymbolTableRecord
100
AcDbRegAppTableRecord
  2
AcadAnnotativeDecomposition
 70
     0
  0
ENDTAB
  0
TABLE
  2
DIMSTYLE
  5
1B2
330
0
100
AcDbSymbolTable
 70
     2
100
AcDbDimStyleTable
 71
     2
340
1BD3
340
1BB
  0
DIMSTYLE
105
1BB
102
{ACAD_XDICTIONARY
360
1BC
102
}
330
1B2
100
AcDbSymbolTableRecord
100
AcDbDimStyleTableRecord
  2
STANDARD
 70
     0
340
A
  0
DIMSTYLE
105
1BD3
330
1B2
100
AcDbSymbolTableRecord
100
AcDbDimStyleTableRecord
  2
new 1
 70
     0
 41
3.5
 42
2.0
 43
12.0
 44
1.5
 50
90.0
 69
     1
 78
     3
 79
     3
140
3.0
141
4.0
144
0.039370078
146
0.8
147
1.5
172
     1
179
     2
277
     4
279
     2
340
A
341
1BF7
342
1BF7
343
1BF7
344
1BFE
346
1AA
347
1AA
372
    -1
1001
AcadAnnotative
1000
AnnotativeData
1002
{
1070
     1
1070
     1
1002
}
1001
ACAD_DSTYLE_DIMJAG
1070
   388
1040
1.5
1001
ACAD_DSTYLE_DIMBREAK
1070
   391
1040
0.13
1001
ACAD_DSTYLE_DIMTALN
1070
   392
1070
     0
  0
ENDTAB
  0
TABLE
  2
BLOCK_RECORD
  5
1
330
0
100
AcDbSymbolTable
 70
     2
  0
BLOCK_RECORD
  5
2
102
{ACAD_XDICTIONARY
360
19C
102
}
330
1
100
AcDbSymbolTableRecord
100
AcDbBlockTableRecord
  2
*MODEL_SPACE
340
21D
 70
     0
280
     1
281
     0
  0
BLOCK_RECORD
  5
1A0
102
{ACAD_XDICTIONARY
360
1A1
102
}
330
1
100
AcDbSymbolTableRecord
100
AcDbBlockTableRecord
  2
*PAPER_SPACE
340
21E
 70
     0
280
     1
281
     0
  0
BLOCK_RECORD
  5
1BF7
330
1
100
AcDbSymbolTableRecord
100
AcDbBlockTableRecord
  2
_Closed
340
0
 70
     0
280
     1
281
     0
  0
BLOCK_RECORD
  5
1BFE
330
1
100
AcDbSymbolTableRecord
100
AcDbBlockTableRecord
  2
_Dot
340
0
 70
     0
280
     1
281
     0
  0
ENDTAB
  0
ENDSEC
  0
SECTION
  2
BLOCKS
  0
BLOCK
  5
19E
330
2
100
AcDbEntity
  8
0
100
AcDbBlockBegin
  2
*MODEL_SPACE
 70
     0
 10
0.0
 20
0.0
 30
0.0
  3
*MODEL_SPACE
  1

  0
ENDBLK
  5
19F
330
2
100
AcDbEntity
  8
0
100
AcDbBlockEnd
  0
BLOCK
  5
1A3
330
1A0
100
AcDbEntity
 67
     1
  8
0
100
AcDbBlockBegin
  2
*PAPER_SPACE
 70
     0
 10
0.0
 20
0.0
 30
0.0
  3
*PAPER_SPACE
  1

  0
ENDBLK
  5
1A4
330
1A0
100
AcDbEntity
 67
     1
  8
0
100
AcDbBlockEnd
  0
BLOCK
  5
1BFC
330
1BF7
100
AcDbEntity
  8
0
100
AcDbBlockBegin
  2
_Closed
 70
     0
 10
0.0
 20
0.0
 30
0.0
  3
_Closed
  1

  0
LINE
  5
1BF8
330
1BF7
100
AcDbEntity
  8
0
  6
ByBlock
 62
     0
370
    -2
100
AcDbLine
 10
-1.0
 20
0.1666666666666666
 30
0.0
 11
0.0
 21
0.0
 31
0.0
  0
LINE
  5
1BF9
330
1BF7
100
AcDbEntity
  8
0
  6
ByBlock
 62
     0
370
    -2
100
AcDbLine
 10
0.0
 20
0.0
 30
0.0
 11
-1.0
 21
-0.1666666666666666
 31
0.0
  0
LINE
  5
1BFA
330
1BF7
100
AcDbEntity
  8
0
  6
ByBlock
 62
     0
370
    -2
100
AcDbLine
 10
-1.0
 20
0.1666666666666666
 30
0.0
 11
-1.0
 21
-0.1666666666666666
 31
0.0
  0
LINE
  5
1BFB
330
1BF7
100
AcDbEntity
  8
0
  6
ByBlock
 62
     0
370
    -2
100
AcDbLine
 10
0.0
 20
0.0
 30
0.0
 11
-1.0
 21
0.0
 31
0.0
  0
ENDBLK
  5
1BFD
330
1BF7
100
AcDbEntity
  8
0
100
AcDbBlockEnd
  0
BLOCK
  5
1C01
330
1BFE
100
AcDbEntity
  8
0
100
AcDbBlockBegin
  2
_Dot
 70
     0
 10
0.0
 20
0.0
 30
0.0
  3
_Dot
  1

  0
LWPOLYLINE
  5
1BFF
330
1BFE
100
AcDbEntity
  8
0
  6
ByBlock
 62
     0
100
AcDbPolyline
 90
        2
 70
     1
 43
0.5
 10
-0.25
 20
0.0
 42
1.0
 10
0.25
 20
0.0
 42
1.0
  0
LINE
  5
1C00
330
1BFE
100
AcDbEntity
  8
0
  6
ByBlock
 62
     0
370
    -2
100
AcDbLine
 10
-0.5
 20
0.0
 30
0.0
 11
-1.0
 21
0.0
 31
0.0
  0
ENDBLK
  5
1C02
330
1BFE
100
AcDbEntity
  8
0
100
AcDbBlockEnd
  0
ENDSEC
  0
SECTION
  2
ENTITIES
  0
LWPOLYLINE
  5
3272
330
2
100
AcDbEntity
  8
Defpoints
100
AcDbPolyline
 90
        4
 70
     1
 43
0.0
 10
-32.85270238809952
 20
1188.582030898915
 10
-1189.150853756011
 20
1188.582030898915
 10
-1189.150853756011
 20
-445.3910702436569
 10
-33.94370445643657
 20
-445.4770438282095
  0
MTEXT
  5
4AE9
330
2
100
AcDbEntity
  8
OBJ
 62
     7
100
AcDbMText
 10
-605.8356668190723
 20
-171.8472013092283
 30
0.0
 40
59.71428571428571
 41
0.0
 46
0.0
 71
     8
 72
     1
  1
{\fArial|b0|i0|c0|p34;MITEK MPH610}
  7
SLDTEXTSTYLE0
 73
     1
 44
1.0
  0
LINE
  5
26EF0
330
2
100
AcDbEntity
  8
0
  6
Continuous
 62
     7
370
    25
100
AcDbLine
 10
-685.1110299261782
 20
771.8619002378773
 30
0.0
 11
-685.1110299261782
 21
771.2433532000532
 31
0.0
  0
LINE
  5
26EF1
330
2
100
AcDbEntity
  8
0
  6
Continuous
 62
     7
370
    25
100
AcDbLine
 10
-672.813651054132
 20
790.7646331391696
 30
0.0
 11
-672.813651054132
 21
789.4170650478014
 31
0.0
  0
LINE
  5
26EF2
330
2
100
AcDbEntity
  8
0
  6
Continuous
 62
     7
370
    25
100
AcDbLine
 10
-598.4072771667966
 20
846.9495527309559
 30
0.0
 11
-598.4072771667966
 21
846.3310056931199
 31
0.0
  0
LINE
  5
26EF3
330
2
100
AcDbEntity
  8
0
  6
Continuous
 62
     7
370
    25
100
AcDbLine
 10
-265.8845077581
 20
680.2425348576514
 30
0.0
 11
-265.8845077581
 21
680.2844824998957
 31
0.0
  0
LINE
  5
26EF4
330
2
100
AcDbEntity
  8
0
  6
Continuous
 62
     7
370
    25
100
AcDbLine
 10
-876.0881870127002
 20
880.7904806471627
 30
0.0
 11
-939.8409463945988
 21
825.578971461085
 31
0.0
  0
LINE
  5
26EF5
330
2
100
AcDbEntity
  8
0
  6
Continuous
 62
     7
370
    25
100
AcDbLine
 10
-939.8409463945988
 20
825.578971461085
 30
0.0
 11
-962.7919397720821
 21
805.7028281540963
 31
0.0
  0
LINE
  5
26EF6
330
2
100
AcDbEntity
  8
0
  6
Continuous
 62
     7
370
    25
100
AcDbLine
 10
-853.1371936352291
 20
900.6666239541512
 30
0.0
 11
-876.0881870127002
 21
880.7904806471627
 31
0.0
  0
LINE
  5
26EF7
330
2
100
AcDbEntity
  8
0
  6
Continuous
 62
     7
370
    25
100
AcDbLine
 10
-352.6114652605635
 20
155.6819648620483
 30
0.0
 11
-288.8587058786651
 21
210.8934740481386
 31
0.0
  0
LINE
  5
26EF8
330
2
100
AcDbEntity
  8
0
  6
Continuous
 62
     7
370
    25
100
AcDbLine
 10
-265.8845077581
 20
253.7167264635631
 30
0.0
 11
-265.8845077581
 21
253.7324253731344
 31
0.0
  0
LINE
  5
26EF9
330
2
100
AcDbEntity
  8
0
  6
Continuous
 62
     7
370
    25
100
AcDbLine
 10
-288.8587058786651
 20
210.8934740481386
 30
0.0
 11
-265.9077125011817
 21
230.7696173551148
 31
0.0
  0
LINE
  5
26EFA
330
2
100
AcDbEntity
  8
0
  6
Continuous
 62
     7
370
    25
100
AcDbLine
 10
-375.562458638047
 20
135.8058215550597
 30
0.0
 11
-352.6114652605635
 21
155.6819648620483
 31
0.0
  0
LINE
  5
26EFB
330
2
100
AcDbEntity
  8
0
  6
Continuous
 62
     7
370
    25
100
AcDbLine
 10
-748.8264354842377
 20
583.978989693352
 30
0.0
 11
-935.4941926382476
 21
422.3199699305242
 31
0.0
  0
LINE
  5
26EFC
330
2
100
AcDbEntity
  8
0
  6
Continuous
 62
     7
370
    25
100
AcDbLine
 10
-810.3173828383344
 20
145.6184049303727
 30
0.0
 11
-649.2649823494647
 21
285.0938750941909
 31
0.0
  0
LINE
  5
26EFD
330
2
100
AcDbEntity
  8
0
  6
Continuous
 62
     7
370
    25
100
AcDbLine
 10
-647.916215878099
 20
281.0560129827629
 30
0.0
 11
-612.4980162214845
 21
311.7290736417061
 31
0.0
  0
SPLINE
  5
26EFE
330
2
100
AcDbEntity
  8
0
  6
Continuous
 62
     7
370
    25
100
AcDbSpline
210
0.0
220
0.0
230
1.0
 70
     8
 71
     3
 72
     9
 73
     5
 74
     0
 42
0.00000001
 43
0.0000000001
 40
0.0
 40
0.0
 40
0.0
 40
0.0
 40
0.3392281480509728
 40
1.0
 40
1.0
 40
1.0
 40
1.0
 10
-637.8272663275281
 20
335.297889242093
 30
0.0
 10
-637.8695720270322
 20
335.4451086102685
 30
0.0
 10
-637.9942836694689
 20
335.8790919604572
 30
0.0
 10
-638.2775525707724
 20
336.132584019435
 30
0.0
 10
-638.4647286872926
 20
336.3000844366955
 30
0.0
  0
SPLINE
  5
26EFF
330
2
100
AcDbEntity
  8
0
  6
Continuous
 62
     7
370
    25
100
AcDbSpline
210
0.0
220
0.0
230
1.0
 70
     8
 71
     3
 72
    18
 73
    14
 74
     0
 42
0.00000001
 43
0.0000000001
 40
0.0
 40
0.0
 40
0.0
 40
0.0
 40
0.0246737045000118
 40
0.1166311116132735
 40
0.2077672666520107
 40
0.3088338830148236
 40
0.4157245826645787
 40
0.5215738440306917
 40
0.6265849338544784
 40
0.7314392786696798
 40
0.8366614987315449
 40
0.9429500401782799
 40
0.9999999999999998
 40
0.9999999999999998
 40
0.9999999999999998
 40
0.9999999999999998
 10
-641.6899391476714
 20
327.2097794342406
 30
0.0
 10
-641.6376747081415
 20
327.1786065284806
 30
0.0
 10
-641.3906238576275
 20
327.0312540848445
 30
0.0
 10
-640.8420672926951
 20
327.0975023905769
 30
0.0
 10
-640.1788405169715
 20
327.4064589227211
 30
0.0
 10
-639.5144268023109
 20
328.0205525238902
 30
0.0
 10
-638.8764386383522
 20
328.9195473063182
 30
0.0
 10
-638.3202664332947
 20
330.0428964238231
 30
0.0
 10
-637.8953450646092
 20
331.2851577319396
 30
0.0
 10
-637.6251722587705
 20
332.5629921262707
 30
0.0
 10
-637.542426296986
 20
333.7757205993184
 30
0.0
 10
-637.5986747581405
 20
334.7195276768919
 30
0.0
 10
-637.7680929035461
 20
335.1481740351581
 30
0.0
 10
-637.8272663275281
 20
335.297889242093
 30
0.0
  0
LINE
  5
26F00
330
2
100
AcDbEntity
  8
0
  6
Continuous
 62
     7
370
    25
100
AcDbLine
 10
-642.3439800295933
 20
327.3584176193017
 30
0.0
 11
-641.5771535131157
 21
327.1370538714561
 31
0.0
  0
LINE
  5
26F01
330
2
100
AcDbEntity
  8
0
  6
Continuous
 62
     7
370
    25
100
AcDbLine
 10
-638.8737975486976
 20
336.5017536340381
 30
0.0
 11
-639.6406240651753
 21
336.723117381896
 31
0.0
  0
SPLINE
  5
26F02
330
2
100
AcDbEntity
  8
0
  6
Continuous
 62
     7
370
    25
100
AcDbSpline
210
0.0
220
0.0
230
1.0
 70
     8
 71
     3
 72
    15
 73
    11
 74
     0
 42
0.00000001
 43
0.0000000001
 40
0.0
 40
0.0
 40
0.0
 40
0.0
 40
0.0118381086898487
 40
0.1809485484808284
 40
0.350564020206514
 40
0.5217292885945522
 40
0.6961917845498512
 40
0.8483493704959411
 40
0.989193881055055
 40
1.0
 40
1.0
 40
1.0
 40
1.0
 10
-643.2250941055692
 20
332.7993745257171
 30
0.0
 10
-643.2353476560116
 20
332.7711151840162
 30
0.0
 10
-643.3920758223973
 20
332.3391638481002
 30
0.0
 10
-643.5586211063561
 20
331.4417478060756
 30
0.0
 10
-643.6835622857824
 20
330.2155317145131
 30
0.0
 10
-643.6040037888319
 20
329.1070830183772
 30
0.0
 10
-643.3434671526656
 20
328.2238899098014
 30
0.0
 10
-642.904556339975
 20
327.6420888377575
 30
0.0
 10
-642.4955901239165
 20
327.3393148247473
 30
0.0
 10
-642.264443078209
 20
327.3460405438916
 30
0.0
 10
-642.2479723093147
 20
327.346519796243
 30
0.0
  0
SPLINE
  5
26F03
330
2
100
AcDbEntity
  8
0
  6
Continuous
 62
     7
370
    25
100
AcDbSpline
210
0.0
220
0.0
230
1.0
 70
     8
 71
     3
 72
    14
 73
    10
 74
     0
 42
0.00000001
 43
0.0000000001
 40
0.0
 40
0.0
 40
0.0
 40
0.0
 40
0.0299934554865842
 40
0.1799251640625261
 40
0.3283136035724451
 40
0.4916644837031738
 40
0.6664928627803763
 40
0.8400033229866712
 40
1.0
 40
1.0
 40
1.0
 40
1.0
 10
-639.4948720941547
 20
336.6546650148292
 30
0.0
 10
-639.5344369822647
 20
336.6762073958371
 30
0.0
 10
-639.7717793914556
 20
336.8054361350423
 30
0.0
 10
-640.2949111020243
 20
336.786232622038
 30
0.0
 10
-640.9616278619827
 20
336.5047762588334
 30
0.0
 10
-641.6266213945556
 20
335.9268665309258
 30
0.0
 10
-642.2676842693643
 20
335.0583775835357
 30
0.0
 10
-642.8331935660325
 20
333.9849059243413
 30
0.0
 10
-643.098037774423
 20
333.18373038844
 30
0.0
 10
-643.2250941055692
 20
332.7993745257171
 30
0.0
  0
LINE
  5
26F04
330
2
100
AcDbEntity
  8
0
  6
Continuous
 62
     7
370
    25
100
AcDbLine
 10
-685.2808573332754
 20
761.563879391864
 30
0.0
 11
-677.2055078115557
 21
768.557337222108
 31
0.0
  0
LINE
  5
26F05
330
2
100
AcDbEntity
  8
0
  6
Continuous
 62
     7
370
    25
100
AcDbLine
 10
-677.2055078115557
 20
768.557337222108
 30
0.0
 11
-683.340119943352
 21
770.3282472049344
 31
0.0
  0
LWPOLYLINE
  5
26F06
330
2
100
AcDbEntity
  8
0
  6
Continuous
 62
     7
370
    25
100
AcDbPolyline
 90
        9
 70
   128
 43
0.0
 10
-684.6365160264111
 20
772.7473552292965
 10
-684.9230659992339
 20
772.4311405958622
 10
-685.0807291653767
 20
772.0930503747021
 10
-685.1034466177554
 20
771.7460771834192
 10
-684.9903453374086
 20
771.4035550071574
 10
-684.7457717431293
 20
771.07864678108
 10
-684.379124660982
 20
770.7838385460869
 10
-683.9044941327184
 20
770.5304596173288
 10
-683.340119943352
 20
770.3282472049344
  0
LINE
  5
26F07
330
2
100
AcDbEntity
  8
0
  6
Continuous
 62
     7
370
    25
100
AcDbLine
 10
-684.6365160264111
 20
772.7473552292965
 30
0.0
 11
-681.0946960607461
 21
775.8146612951821
 31
0.0
  0
ARC
  5
26F08
330
2
100
AcDbEntity
  8
0
  6
Continuous
 62
     7
370
    25
100
AcDbCircle
 10
-677.9878678767044
 20
771.0055471613586
 30
0.0
 40
5.725378600341754
100
AcDbArc
 50
72.39783972970116
 51
122.8636406951508
  0
LINE
  5
26F09
330
2
100
AcDbEntity
  8
0
  6
Continuous
 62
     7
370
    25
100
AcDbLine
 10
-676.2564800120216
 20
776.4628593367181
 30
0.0
 11
-670.1218678802256
 21
774.6919493538915
 31
0.0
  0
LINE
  5
26F0A
330
2
100
AcDbEntity
  8
0
  6
Continuous
 62
     7
370
    25
100
AcDbLine
 10
-670.1218678802256
 20
774.6919493538915
 30
0.0
 11
-662.1881911571492
 21
781.5627149414879
 31
0.0
  0
LWPOLYLINE
  5
26F0B
330
2
100
AcDbEntity
  8
0
  6
Continuous
 62
     7
370
    25
100
AcDbPolyline
 90
       12
 70
   128
 43
0.0
 10
-669.966567655517
 20
796.0773630876736
 10
-671.2914037439972
 20
794.7137176570098
 10
-672.2146209534624
 20
793.2696802537861
 10
-672.7174252439234
 20
791.7746473152675
 10
-672.7895809699512
 20
790.2590534007604
 10
-672.4296192490909
 20
788.7537516317648
 10
-671.6448678639149
 20
787.2893856113591
 10
-670.4513020895737
 20
785.8957656088185
 10
-668.873219483285
 20
784.6012617085582
 10
-666.9427452561085
 20
783.4322262769208
 10
-664.6991782962667
 20
782.4124575040804
 10
-662.1881911571492
 20
781.5627149414879
  0
LINE
  5
26F0C
330
2
100
AcDbEntity
  8
0
  6
Continuous
 62
     7
370
    25
100
AcDbLine
 10
-669.966567655517
 20
796.0773630876736
 30
0.0
 11
-627.4647280675846
 21
832.885035878388
 31
0.0
  0
LWPOLYLINE
  5
26F0D
330
2
100
AcDbEntity
  8
0
  6
Continuous
 62
     7
370
    25
100
AcDbPolyline
 90
       12
 70
   128
 43
0.0
 10
-598.4354317752505
 20
836.774224127566
 10
-601.1627226365781
 20
837.4366421718061
 10
-604.0507974430132
 20
837.8982507765325
 10
-607.0408633200501
 20
838.1496529217629
 10
-610.0720511490522
 20
838.1857307847829
 10
-613.0826546870437
 20
838.0057499243527
 10
-616.0113867278798
 20
837.6133742317586
 10
-618.798626732948
 20
837.0165913446003
 10
-621.3876345334688
 20
836.2275500414437
 10
-623.7257053967436
 20
835.2623129278553
 10
-625.7652429424121
 20
834.1405294479407
 10
-627.4647280675846
 20
832.885035878388
  0
LINE
  5
26F0E
330
2
100
AcDbEntity
  8
0
  6
Continuous
 62
     7
370
    25
100
AcDbLine
 10
-598.4354317752505
 20
836.774224127566
 30
0.0
 11
-590.5017550521863
 21
843.6449897151742
 31
0.0
  0
LINE
  5
26F0F
330
2
100
AcDbEntity
  8
0
  6
Continuous
 62
     7
370
    25
100
AcDbLine
 10
-596.6363671839576
 20
845.4158996980131
 30
0.0
 11
-590.5017550521863
 21
843.6449897151742
 31
0.0
  0
LWPOLYLINE
  5
26F10
330
2
100
AcDbEntity
  8
0
  6
Continuous
 62
     7
370
    25
100
AcDbPolyline
 90
        9
 70
   128
 43
0.0
 10
-597.9327632670292
 20
847.835007722363
 10
-598.2193132398519
 20
847.5187930889287
 10
-598.3769764059948
 20
847.1807028677684
 10
-598.3996938583736
 20
846.8337296764856
 10
-598.2865925780392
 20
846.4912075002239
 10
-598.0420189837473
 20
846.1662992741462
 10
-597.6753719016
 20
845.8714910391536
 10
-597.2007413733366
 20
845.6181121103952
 10
-596.6363671839576
 20
845.4158996980131
  0
LINE
  5
26F11
330
2
100
AcDbEntity
  8
0
  6
Continuous
 62
     7
370
    25
100
AcDbLine
 10
-594.3909433013641
 20
850.9023137882611
 30
0.0
 11
-597.9327632670292
 21
847.835007722363
 31
0.0
  0
ARC
  5
26F12
330
2
100
AcDbEntity
  8
0
  6
Continuous
 62
     7
370
    25
100
AcDbCircle
 10
-591.2841151173226
 20
846.0931996544374
 30
0.0
 40
5.725378600339019
100
AcDbArc
 50
72.39783972969691
 51
122.8636406951644
  0
LINE
  5
26F13
330
2
100
AcDbEntity
  8
0
  6
Continuous
 62
     7
370
    25
100
AcDbLine
 10
-583.4181151208438
 20
849.7796018469706
 30
0.0
 11
-589.5527272526399
 21
851.5505118297845
 31
0.0
  0
LINE
  5
26F14
330
2
100
AcDbEntity
  8
0
  6
Continuous
 62
     7
370
    25
100
AcDbLine
 10
-583.4181151208438
 20
849.7796018469706
 30
0.0
 11
-575.4844383977795
 21
856.6503674345666
 31
0.0
  0
LWPOLYLINE
  5
26F15
330
2
100
AcDbEntity
  8
0
  6
Continuous
 62
     7
370
    25
100
AcDbPolyline
 90
       12
 70
   128
 43
0.0
 10
-566.2825202000978
 20
853.9940024603211
 10
-567.2172758678018
 20
853.3996831979543
 10
-568.4490455337632
 20
852.9611135937679
 10
-569.8780385452298
 20
852.7138239488206
 10
-571.3884863869751
 20
852.6778481994741
 10
-572.8580215578525
 20
852.8561008869665
 10
-574.1675910579547
 20
853.2341410386592
 10
-575.2111013547122
 20
853.7813420897817
 10
-575.9040134498698
 20
854.453373065488
 10
-576.1901917263818
 20
855.1957900128323
 10
-576.0464517222565
 20
855.9484467260885
 10
-575.4844383977795
 20
856.6503674345666
  0
LINE
  5
26F16
330
2
100
AcDbEntity
  8
0
  6
Continuous
 62
     7
370
    25
100
AcDbLine
 10
-574.2161969231743
 20
847.1232368727248
 30
0.0
 11
-566.2825202000978
 21
853.9940024603211
 31
0.0
  0
LINE
  5
26F17
330
2
100
AcDbEntity
  8
0
  6
Continuous
 62
     7
370
    25
100
AcDbLine
 10
-574.2161969231743
 20
847.1232368727248
 30
0.0
 11
-568.0815847913781
 21
845.3523268898859
 31
0.0
  0
LWPOLYLINE
  5
26F18
330
2
100
AcDbEntity
  8
0
  6
Continuous
 62
     7
370
    25
100
AcDbPolyline
 90
        9
 70
   128
 43
0.0
 10
-566.785188708319
 20
842.9332188655237
 10
-566.4986387354717
 20
843.2494334989581
 10
-566.3409755693534
 20
843.5875237201059
 10
-566.3182581169747
 20
843.9344969114012
 10
-566.4313593973217
 20
844.2770190876506
 10
-566.6759329916009
 20
844.6019273137405
 10
-567.0425800737482
 20
844.8967355487331
 10
-567.5172106020242
 20
845.1501144774915
 10
-568.0815847913781
 20
845.3523268898859
  0
LINE
  5
26F19
330
2
100
AcDbEntity
  8
0
  6
Continuous
 62
     7
370
    25
100
AcDbLine
 10
-566.785188708319
 20
842.9332188655237
 30
0.0
 11
-570.327008673984
 21
839.8659127996257
 31
0.0
  0
ARC
  5
26F1A
330
2
100
AcDbEntity
  8
0
  6
Continuous
 62
     7
370
    25
100
AcDbCircle
 10
-573.4338368580134
 20
844.6750269334494
 30
0.0
 40
5.725378600338587
100
AcDbArc
 50
252.3978397296964
 51
302.8636406951688
  0
LINE
  5
26F1B
330
2
100
AcDbEntity
  8
0
  6
Continuous
 62
     7
370
    25
100
AcDbLine
 10
-575.1652247227211
 20
839.21771475809
 30
0.0
 11
-581.2998368544923
 21
840.9886247409287
 31
0.0
  0
LINE
  5
26F1C
330
2
100
AcDbEntity
  8
0
  6
Continuous
 62
     7
370
    25
100
AcDbLine
 10
-589.2335135775812
 20
834.1178591533202
 30
0.0
 11
-581.2998368544923
 21
840.9886247409287
 31
0.0
  0
LWPOLYLINE
  5
26F1D
330
2
100
AcDbEntity
  8
0
  6
Continuous
 62
     7
370
    25
100
AcDbPolyline
 90
       12
 70
   128
 43
0.0
 10
-581.4551370791885
 20
819.6032110071591
 10
-580.130300990733
 20
820.9668564378105
 10
-579.2070837812677
 20
822.4108938410342
 10
-578.7042794908067
 20
823.9059267795528
 10
-578.6321237647542
 20
825.4215206940477
 10
-578.9920854856394
 20
826.9268224630433
 10
-579.7768368708152
 20
828.3911884834614
 10
-580.9704026451566
 20
829.7848084860017
 10
-582.5484852514453
 20
831.0793123862621
 10
-584.4789594786217
 20
832.2483478178995
 10
-586.7225264384635
 20
833.2681165907276
 10
-589.2335135775812
 20
834.1178591533202
  0
LINE
  5
26F1E
330
2
100
AcDbEntity
  8
0
  6
Continuous
 62
     7
370
    25
100
AcDbLine
 10
-623.9569766671209
 20
782.7955382164447
 30
0.0
 11
-581.4551370791885
 21
819.6032110071591
 31
0.0
  0
LWPOLYLINE
  5
26F1F
330
2
100
AcDbEntity
  8
0
  6
Continuous
 62
     7
370
    25
100
AcDbPolyline
 90
       12
 70
   128
 43
0.0
 10
-652.9862729594798
 20
778.9063499672421
 10
-650.258982098152
 20
778.2439319230144
 10
-647.370907291717
 20
777.782323318288
 10
-644.3808414146799
 20
777.5309211730574
 10
-641.3496535856779
 20
777.494843310025
 10
-638.3390500476865
 20
777.6748241704675
 10
-635.4103180068505
 20
778.0671998630617
 10
-632.6230780017946
 20
778.6639827502324
 10
-630.0340702012738
 20
779.4530240533644
 10
-627.6959993379866
 20
780.4182611669648
 10
-625.6564617923181
 20
781.5400446468795
 10
-623.9569766671209
 20
782.7955382164447
  0
LINE
  5
26F20
330
2
100
AcDbEntity
  8
0
  6
Continuous
 62
     7
370
    25
100
AcDbLine
 10
-660.9199496825563
 20
772.0355843796458
 30
0.0
 11
-652.9862729594798
 21
778.9063499672421
 31
0.0
  0
LINE
  5
26F21
330
2
100
AcDbEntity
  8
0
  6
Continuous
 62
     7
370
    25
100
AcDbLine
 10
-654.7853375507602
 20
770.2646743968072
 30
0.0
 11
-660.9199496825563
 21
772.0355843796458
 31
0.0
  0
LWPOLYLINE
  5
26F22
330
2
100
AcDbEntity
  8
0
  6
Continuous
 62
     7
370
    25
100
AcDbPolyline
 90
        9
 70
   128
 43
0.0
 10
-653.4889414677008
 20
767.8455663724449
 10
-653.2023914948783
 20
768.1617810058794
 10
-653.0447283287355
 20
768.4998712270395
 10
-653.0220108763566
 20
768.8468444183349
 10
-653.1351121567033
 20
769.1893665945841
 10
-653.3796857509827
 20
769.5142748206614
 10
-653.74633283313
 20
769.8090830556544
 10
-654.220963361406
 20
770.0624619844252
 10
-654.7853375507602
 20
770.2646743968072
  0
LINE
  5
26F23
330
2
100
AcDbEntity
  8
0
  6
Continuous
 62
     7
370
    25
100
AcDbLine
 10
-657.0307614333661
 20
764.7782603065592
 30
0.0
 11
-653.4889414677008
 21
767.8455663724449
 31
0.0
  0
ARC
  5
26F24
330
2
100
AcDbEntity
  8
0
  6
Continuous
 62
     7
370
    25
100
AcDbCircle
 10
-660.1375896173952
 20
769.5873744403706
 30
0.0
 40
5.725378600340458
100
AcDbArc
 50
252.3978397297008
 51
302.8636406951591
  0
LINE
  5
26F25
330
2
100
AcDbEntity
  8
0
  6
Continuous
 62
     7
370
    25
100
AcDbLine
 10
-668.0035896138864
 20
765.9009722478621
 30
0.0
 11
-661.8689774820905
 21
764.1300622650235
 31
0.0
  0
LINE
  5
26F26
330
2
100
AcDbEntity
  8
0
  6
Continuous
 62
     7
370
    25
100
AcDbLine
 10
-676.0789391355813
 20
758.9075144176182
 30
0.0
 11
-668.0035896138864
 21
765.9009722478621
 31
0.0
  0
LWPOLYLINE
  5
26F27
330
2
100
AcDbEntity
  8
0
  6
Continuous
 62
     7
370
    25
100
AcDbPolyline
 90
       12
 70
   128
 43
0.0
 10
-676.0789391355813
 20
758.9075144176182
 10
-675.5169258110917
 20
759.6094351260963
 10
-675.373185806979
 20
760.3620918393402
 10
-675.6593640834786
 20
761.1045087866969
 10
-676.3522761786486
 20
761.7765397624032
 10
-677.3957864753938
 20
762.3237408135132
 10
-678.7053559754959
 20
762.7017809652183
 10
-680.1748911463731
 20
762.8800336527108
 10
-681.6853389881186
 20
762.8440579033643
 10
-683.1143319996099
 20
762.5967682584168
 10
-684.3461016655465
 20
762.1581986542432
 10
-685.2808573332754
 20
761.563879391864
  0
LINE
  5
26F28
330
2
100
AcDbEntity
  8
0
  6
Continuous
 62
     7
370
    25
100
AcDbLine
 10
-676.0789391355813
 20
661.9908940844344
 30
0.0
 11
-676.0789391355813
 21
758.9075144176182
 31
0.0
  0
SPLINE
  5
26F29
330
2
100
AcDbEntity
  8
0
  6
Continuous
 62
     7
370
    25
100
AcDbSpline
210
0.0
220
0.0
230
1.0
 70
     8
 71
     3
 72
    14
 73
    10
 74
     0
 42
0.00000001
 43
0.0000000001
 40
0.0
 40
0.0
 40
0.0
 40
0.0
 40
0.1595000390649293
 40
0.3189999009482711
 40
0.4785025384798324
 40
0.6379859450987662
 40
0.7974366740080389
 40
0.9569113641081909
 40
1.0
 40
1.0
 40
1.0
 40
1.0
 10
-685.2808573332754
 20
664.4561057074731
 30
0.0
 10
-684.9313300389521
 20
664.6996037948407
 30
0.0
 10
-684.2322758385896
 20
665.186599699089
 30
0.0
 10
-682.6434789015089
 20
665.6410600899262
 30
0.0
 10
-680.8735330025983
 20
665.8260773733756
 30
0.0
 10
-679.0609720111583
 20
665.7178933754216
 30
0.0
 10
-677.475052892271
 20
665.3261613263591
 30
0.0
 10
-676.4315685599316
 20
664.8852778252539
 30
0.0
 10
-676.1407921765878
 20
664.5563195357834
 30
0.0
 10
-676.0789391355813
 20
664.4863445593837
 30
0.0
  0
LINE
  5
26F2A
330
2
100
AcDbEntity
  8
0
  6
Continuous
 62
     7
370
    25
100
AcDbLine
 10
-685.2808573332754
 20
664.4561057074731
 30
0.0
 11
-685.2808573332754
 21
761.563879391864
 31
0.0
  0
LINE
  5
26F2B
330
2
100
AcDbEntity
  8
0
  6
Continuous
 62
     7
370
    25
100
AcDbLine
 10
-668.0035896138864
 20
765.7373825910025
 30
0.0
 11
-668.0035896138864
 21
765.9009722478621
 31
0.0
  0
LINE
  5
26F2C
330
2
100
AcDbEntity
  8
0
  6
Continuous
 62
     7
370
    25
100
AcDbLine
 10
-652.9862729594798
 20
778.7431222415117
 30
0.0
 11
-652.9862729594798
 21
778.9063499672421
 31
0.0
  0
LINE
  5
26F2D
330
2
100
AcDbEntity
  8
0
  6
Continuous
 62
     7
370
    25
100
AcDbLine
 10
-601.0059832896375
 20
651.5083135568252
 30
0.0
 11
-601.0059832896375
 21
612.4987054380277
 31
0.0
  0
LINE
  5
26F2E
330
2
100
AcDbEntity
  8
0
  6
Continuous
 62
     7
370
    25
100
AcDbLine
 10
-647.0155742780459
 20
625.7805303092565
 30
0.0
 11
-601.0059832896375
 21
612.4987054380277
 31
0.0
  0
LINE
  5
26F2F
330
2
100
AcDbEntity
  8
0
  6
Continuous
 62
     7
370
    25
100
AcDbLine
 10
-647.0155742780459
 20
660.8529628709669
 30
0.0
 11
-647.0155742780459
 21
625.7805303092565
 31
0.0
  0
LINE
  5
26F30
330
2
100
AcDbEntity
  8
0
  6
Continuous
 62
     7
370
    25
100
AcDbLine
 10
-581.2998368544923
 20
840.8250350840816
 30
0.0
 11
-581.2998368544923
 21
840.9886247409287
 31
0.0
  0
LINE
  5
26F31
330
2
100
AcDbEntity
  8
0
  6
Continuous
 62
     7
370
    25
100
AcDbLine
 10
-566.2825202000978
 20
853.8304128034612
 30
0.0
 11
-566.2825202000978
 21
853.9940024603211
 31
0.0
  0
LINE
  5
26F32
330
2
100
AcDbEntity
  8
0
  6
Continuous
 62
     7
370
    25
100
AcDbLine
 10
-575.4844383977795
 20
853.9940024603211
 30
0.0
 11
-575.4844383977795
 21
856.6503674345666
 31
0.0
  0
LWPOLYLINE
  5
26F33
330
2
100
AcDbEntity
  8
0
  6
Continuous
 62
     7
370
    25
100
AcDbPolyline
 90
       12
 70
   128
 43
0.0
 10
-729.8105974054248
 20
800.9200325099923
 10
-727.0833065441221
 20
800.2576144657647
 10
-724.1952317376744
 20
799.7960058610256
 10
-721.2051658606498
 20
799.5446037157952
 10
-718.1739780316356
 20
799.5085258527751
 10
-715.1633744936442
 20
799.6885067132053
 10
-712.2346424528205
 20
800.0808824057994
 10
-709.4474024477646
 20
800.6776652929701
 10
-706.8583946472188
 20
801.4667065961143
 10
-704.5203237839567
 20
802.4319437097027
 10
-702.4807862382632
 20
803.5537271896297
 10
-700.7813011130909
 20
804.80922075917
  0
LINE
  5
26F34
330
2
100
AcDbEntity
  8
0
  6
Continuous
 62
     7
370
    25
100
AcDbLine
 10
-784.0390102267796
 20
877.9205481979307
 30
0.0
 11
-826.540849814712
 21
841.1128754072038
 31
0.0
  0
LWPOLYLINE
  5
26F35
330
2
100
AcDbEntity
  8
0
  6
Continuous
 62
     7
370
    25
100
AcDbPolyline
 90
       12
 70
   128
 43
0.0
 10
-755.0097139344456
 20
881.8097364471086
 10
-757.737004795773
 20
882.4721544913362
 10
-760.625079602196
 20
882.9337630960873
 10
-763.6151454792452
 20
883.1851652413055
 10
-766.6463333082471
 20
883.2212431043258
 10
-769.6569368462387
 20
883.0412622438954
 10
-772.5856688870499
 20
882.6488865513013
 10
-775.3729088921305
 20
882.0521036641306
 10
-777.9619166926516
 20
881.2630623609985
 10
-780.2999875559383
 20
880.2978252474105
 10
-782.3395251016072
 20
879.176041767471
 10
-784.0390102267796
 20
877.9205481979307
  0
LINE
  5
26F36
330
2
100
AcDbEntity
  8
0
  6
Continuous
 62
     7
370
    25
100
AcDbLine
 10
-666.0578380235264
 20
856.1315416960701
 30
0.0
 11
-755.0097139344456
 21
881.8097364471086
 31
0.0
  0
LWPOLYLINE
  5
26F37
330
2
100
AcDbEntity
  8
0
  6
Continuous
 62
     7
370
    25
100
AcDbPolyline
 90
       12
 70
   128
 43
0.0
 10
-658.2794615251583
 20
841.6168935498969
 10
-656.9546254367029
 20
842.9805389805608
 10
-656.0314082272252
 20
844.424576383772
 10
-655.5286039367765
 20
845.9196093223029
 10
-655.4564482107243
 20
847.4352032367978
 10
-655.816409931597
 20
848.9405050057936
 10
-656.6011613167852
 20
850.4048710262116
 10
-657.7947270911265
 20
851.7984910287394
 10
-659.372809697403
 20
853.0929949289998
 10
-661.3032839245918
 20
854.2620303606495
 10
-663.5468508844333
 20
855.2817991334777
 10
-666.0578380235264
 20
856.1315416960701
  0
LINE
  5
26F38
330
2
100
AcDbEntity
  8
0
  6
Continuous
 62
     7
370
    25
100
AcDbLine
 10
-700.7813011130909
 20
804.80922075917
 30
0.0
 11
-658.2794615251583
 21
841.6168935498969
 31
0.0
  0
LINE
  5
26F39
330
2
100
AcDbEntity
  8
0
  6
Continuous
 62
     7
370
    25
100
AcDbLine
 10
-818.762473316344
 20
826.5982272610429
 30
0.0
 11
-729.8105974054248
 21
800.9200325099923
 31
0.0
  0
LWPOLYLINE
  5
26F3A
330
2
100
AcDbEntity
  8
0
  6
Continuous
 62
     7
370
    25
100
AcDbPolyline
 90
       12
 70
   128
 43
0.0
 10
-826.540849814712
 20
841.1128754072038
 10
-827.8656859031675
 20
839.7492299765399
 10
-828.7889031126576
 20
838.3051925733287
 10
-829.2917074031185
 20
836.81015963481
 10
-829.3638631291461
 20
835.2945657203029
 10
-829.0039014082733
 20
833.7892639513071
 10
-828.21915002311
 20
832.3248979309017
 10
-827.0255842487438
 20
830.9312779283613
 10
-825.4475016424798
 20
829.6367740281008
 10
-823.5170274153032
 20
828.4677385964636
 10
-821.2734604554619
 20
827.447969823623
 10
-818.762473316344
 20
826.5982272610429
  0
SPLINE
  5
26F3B
330
2
100
AcDbEntity
  8
0
  6
Continuous
 62
     7
370
    25
100
AcDbSpline
210
0.0
220
0.0
230
1.0
 70
     8
 71
     3
 72
    14
 73
    10
 74
     0
 42
0.00000001
 43
0.0000000001
 40
0.0
 40
0.0
 40
0.0
 40
0.0
 40
0.1536266313134422
 40
0.3157169822075549
 40
0.4819155425260232
 40
0.6478195788285498
 40
0.8092451511196138
 40
0.9244560100853041
 40
1.0
 40
1.0
 40
1.0
 40
1.0
 10
-798.0991818545982
 20
630.4602727317561
 30
0.0
 10
-797.6004077184335
 20
633.8091756544681
 30
0.0
 10
-796.5753805878799
 20
640.6914819019423
 30
0.0
 10
-795.4837229839187
 20
651.39129117875
 30
0.0
 10
-794.3496051898273
 20
662.3548216635655
 30
0.0
 10
-793.0342406499983
 20
673.2352246986588
 30
0.0
 10
-791.3915259549601
 20
682.7909418880437
 30
0.0
 10
-789.6909024486814
 20
690.2195475607917
 30
0.0
 10
-788.338087981883
 20
693.9975364948335
 30
0.0
 10
-787.8023374988178
 20
695.4937205216526
 30
0.0
  0
LINE
  5
26F3C
330
2
100
AcDbEntity
  8
0
  6
Continuous
 62
     7
370
    25
100
AcDbLine
 10
-677.6886349369767
 20
634.6350802234131
 30
0.0
 11
-677.6886349369767
 21
665.336758785789
 31
0.0
  0
SPLINE
  5
26F3D
330
2
100
AcDbEntity
  8
0
  6
Continuous
 62
     7
370
    25
100
AcDbSpline
210
0.0
220
0.0
230
1.0
 70
     8
 71
     3
 72
    11
 73
     7
 74
     0
 42
0.00000001
 43
0.0000000001
 40
0.0
 40
0.0
 40
0.0
 40
0.0
 40
0.0052436359187292
 40
0.3483059798127623
 40
0.6828882745918881
 40
1.0
 40
1.0
 40
1.0
 40
1.0
 10
-760.5788117790821
 20
691.7181899973768
 30
0.0
 10
-760.5858838597344
 20
691.6623254288106
 30
0.0
 10
-761.0556433958791
 20
687.9515484809802
 30
0.0
 10
-761.7436471126246
 20
680.5830663057918
 30
0.0
 10
-762.8623548057141
 20
669.8943219361113
 30
0.0
 10
-763.8839510842924
 20
663.0106122899923
 30
0.0
 10
-764.3810557815011
 20
659.6610264790617
 30
0.0
  0
LINE
  5
26F3E
330
2
100
AcDbEntity
  8
0
  6
Continuous
 62
     7
370
    25
100
AcDbLine
 10
-764.3810557815011
 20
659.6610264790617
 30
0.0
 11
-798.0991818545982
 21
630.4602727317561
 31
0.0
  0
LINE
  5
26F3F
330
2
100
AcDbEntity
  8
0
  6
Continuous
 62
     7
370
    25
100
AcDbLine
 10
-764.3810557815011
 20
659.6610264790617
 30
0.0
 11
-677.6886349369767
 21
634.6350802234131
 31
0.0
  0
LWPOLYLINE
  5
26F40
330
2
100
AcDbEntity
  8
0
  6
Continuous
 62
     7
370
    25
100
AcDbPolyline
 90
       12
 70
   128
 43
0.0
 10
-496.6953363975334
 20
733.6254531624409
 10
-493.9680455362181
 20
732.9630351182008
 10
-491.0799707297831
 20
732.5014265134621
 10
-488.0899048527338
 20
732.2500243682315
 10
-485.0587170237442
 20
732.213946505224
 10
-482.0481134857526
 20
732.3939273656542
 10
-479.1193814449167
 20
732.7863030582359
 10
-476.3321414398483
 20
733.3830859454065
 10
-473.7431336393274
 20
734.1721272485508
 10
-471.4050627760404
 20
735.137364362139
 10
-469.3655252303718
 20
736.259147842066
 10
-467.6660401051993
 20
737.514641411619
  0
LINE
  5
26F41
330
2
100
AcDbEntity
  8
0
  6
Continuous
 62
     7
370
    25
100
AcDbLine
 10
-550.9237492188881
 20
810.6259688503669
 30
0.0
 11
-593.4255888068206
 21
773.8182960596526
 31
0.0
  0
LWPOLYLINE
  5
26F42
330
2
100
AcDbEntity
  8
0
  6
Continuous
 62
     7
370
    25
100
AcDbPolyline
 90
       12
 70
   128
 43
0.0
 10
-521.8944529265541
 20
814.5151570995572
 10
-524.6217437878569
 20
815.1775751437849
 10
-527.5098185943168
 20
815.6391837485239
 10
-530.4998844713415
 20
815.8905858937542
 10
-533.5310723003557
 20
815.9266637567743
 10
-536.5416758383471
 20
815.7466828963441
 10
-539.4704078791585
 20
815.35430720375
 10
-542.2576478842268
 20
814.7575243165794
 10
-544.8466556847725
 20
813.9684830134227
 10
-547.1847265480346
 20
813.0032458998343
 10
-549.2242640937157
 20
811.8814624199197
 10
-550.9237492188881
 20
810.6259688503669
  0
LINE
  5
26F43
330
2
100
AcDbEntity
  8
0
  6
Continuous
 62
     7
370
    25
100
AcDbLine
 10
-432.942577015635
 20
788.8369623485066
 30
0.0
 11
-521.8944529265541
 21
814.5151570995572
 31
0.0
  0
LWPOLYLINE
  5
26F44
330
2
100
AcDbEntity
  8
0
  6
Continuous
 62
     7
370
    25
100
AcDbPolyline
 90
       12
 70
   128
 43
0.0
 10
-425.164200517267
 20
774.3223142023457
 10
-423.8393644287991
 20
775.685959632997
 10
-422.9161472193339
 20
777.1299970362207
 10
-422.4133429288728
 20
778.6250299747393
 10
-422.3411872028451
 20
780.1406238892464
 10
-422.7011489237055
 20
781.6459256582422
 10
-423.4859003088813
 20
783.1102916786478
 10
-424.6794660832103
 20
784.503911681176
 10
-426.2575486895114
 20
785.7984155814486
 10
-428.1880229166879
 20
786.967451013086
 10
-430.4315898765296
 20
787.9872197859265
 10
-432.942577015635
 20
788.8369623485066
  0
LINE
  5
26F45
330
2
100
AcDbEntity
  8
0
  6
Continuous
 62
     7
370
    25
100
AcDbLine
 10
-467.6660401051993
 20
737.514641411619
 30
0.0
 11
-425.164200517267
 21
774.3223142023457
 31
0.0
  0
LINE
  5
26F46
330
2
100
AcDbEntity
  8
0
  6
Continuous
 62
     7
370
    25
100
AcDbLine
 10
-585.6472123084525
 20
759.303647913467
 30
0.0
 11
-496.6953363975334
 21
733.6254531624409
 31
0.0
  0
LWPOLYLINE
  5
26F47
330
2
100
AcDbEntity
  8
0
  6
Continuous
 62
     7
370
    25
100
AcDbPolyline
 90
       12
 70
   128
 43
0.0
 10
-593.4255888068206
 20
773.8182960596526
 10
-594.7504248952761
 20
772.4546506289887
 10
-595.6736421047661
 20
771.0106132257649
 10
-596.1764463952024
 20
769.5155802872466
 10
-596.2486021212547
 20
767.9999863727519
 10
-595.8886404003943
 20
766.4946846037436
 10
-595.1038890151937
 20
765.0303185833381
 10
-593.9103232408648
 20
763.63669858081
 10
-592.3322406345883
 20
762.3421946805373
 10
-590.4017664073872
 20
761.1731592488998
 10
-588.1581994475457
 20
760.1533904760718
 10
-585.6472123084525
 20
759.303647913467
  0
LINE
  5
26F48
330
2
100
AcDbEntity
  8
0
  6
Continuous
 62
     7
370
    25
100
AcDbLine
 10
-570.3329226307064
 20
603.6441555238834
 30
0.0
 11
-549.0355787005413
 21
597.4961418983306
 31
0.0
  0
LINE
  5
26F49
330
2
100
AcDbEntity
  8
0
  6
Continuous
 62
     7
370
    25
100
AcDbLine
 10
-570.3329226307064
 20
627.2919172729741
 30
0.0
 11
-570.3329226307064
 21
603.6441555238834
 31
0.0
  0
SPLINE
  5
26F4A
330
2
100
AcDbEntity
  8
0
  6
Continuous
 62
     7
370
    25
100
AcDbSpline
210
0.0
220
0.0
230
1.0
 70
     8
 71
     3
 72
    16
 73
    12
 74
     0
 42
0.00000001
 43
0.0000000001
 40
0.0
 40
0.0
 40
0.0
 40
0.0
 40
0.107776340352052
 40
0.2155489240723629
 40
0.3233493600440429
 40
0.4311477879825862
 40
0.5384939184163122
 40
0.6458395379526087
 40
0.7529260961864898
 40
0.8600126490584653
 40
0.9999999999999998
 40
0.9999999999999998
 40
0.9999999999999998
 40
0.9999999999999998
 10
-429.2146029478757
 20
712.1923085183151
 30
0.0
 10
-430.2185883249838
 20
712.633845450931
 30
0.0
 10
-432.2265240844696
 20
713.5169039260379
 30
0.0
 10
-434.782490915086
 20
715.0898977810298
 30
0.0
 10
-436.8927692709546
 20
716.8012337628121
 30
0.0
 10
-438.4855571585393
 20
718.6233122909734
 30
0.0
 10
-439.4994345898531
 20
720.5094164328033
 30
0.0
 10
-439.9326335223069
 20
722.4134815778643
 30
0.0
 10
-439.736651336933
 20
724.2871736062355
 30
0.0
 10
-438.9191191423065
 20
726.2881988287777
 30
0.0
 10
-437.6896009506859
 20
727.5328581066174
 30
0.0
 10
-436.9929794462684
 20
728.2380582610553
 30
0.0
  0
LINE
  5
26F4B
330
2
100
AcDbEntity
  8
0
  6
Continuous
 62
     7
370
    25
100
AcDbLine
 10
-436.9929794462684
 20
728.2380582610553
 30
0.0
 11
-394.4911398583362
 21
765.0457310517698
 31
0.0
  0
SPLINE
  5
26F4C
330
2
100
AcDbEntity
  8
0
  6
Continuous
 62
     7
370
    25
100
AcDbSpline
210
0.0
220
0.0
230
1.0
 70
     8
 71
     3
 72
    16
 73
    12
 74
     0
 42
0.00000001
 43
0.0000000001
 40
0.0
 40
0.0
 40
0.0
 40
0.0
 40
0.1070429626626179
 40
0.2140858989982602
 40
0.3211288340374863
 40
0.4281718618036234
 40
0.5352140482233743
 40
0.6422571243456736
 40
0.7493809384196912
 40
0.8565073510346975
 40
1.0
 40
1.0
 40
1.0
 40
1.0
 10
-394.4911398583362
 20
765.0457310517698
 30
0.0
 10
-393.8431794045483
 20
765.5449468998916
 30
0.0
 10
-392.5472586563806
 20
766.5433784733663
 30
0.0
 10
-390.0046517010835
 20
767.7761269680427
 30
0.0
 10
-387.0986732982951
 20
768.7573497052661
 30
0.0
 10
-383.8782357007045
 20
769.4476585143402
 30
0.0
 10
-380.4378945377678
 20
769.8116744457707
 30
0.0
 10
-376.8766020126989
 20
769.8454195210084
 30
0.0
 10
-373.3017252781128
 20
769.5178220083552
 30
0.0
 10
-369.3863753633905
 20
768.802850728571
 30
0.0
 10
-366.8907314891015
 20
767.9131934708522
 30
0.0
 10
-365.4618435659773
 20
767.403817704393
 30
0.0
  0
SPLINE
  5
26F4D
330
2
100
AcDbEntity
  8
0
  6
Continuous
 62
     7
370
    25
100
AcDbSpline
210
0.0
220
0.0
230
1.0
 70
     8
 71
     3
 72
    16
 73
    12
 74
     0
 42
0.00000001
 43
0.0000000001
 40
0.0
 40
0.0
 40
0.0
 40
0.0
 40
0.1346933588364318
 40
0.2622175155968449
 40
0.3831820385037848
 40
0.4982121305699072
 40
0.6079448564985457
 40
0.711185056643989
 40
0.810544596910049
 40
0.9066227359290088
 40
0.9999999999999998
 40
0.9999999999999998
 40
0.9999999999999998
 40
0.9999999999999998
 10
-365.4618435659773
 20
767.403817704393
 30
0.0
 10
-361.1364444034231
 20
765.5839152953873
 30
0.0
 10
-352.7158702030805
 20
762.0409767834823
 30
0.0
 10
-340.5465756614827
 20
756.0514678804861
 30
0.0
 10
-329.1553310692356
 20
749.7683846841137
 30
0.0
 10
-318.5253744355788
 20
743.1579590012906
 30
0.0
 10
-308.6888077492114
 20
736.2887108913241
 30
0.0
 10
-299.6104798696732
 20
729.1874947522375
 30
0.0
 10
-291.2690916838787
 20
721.870376250038
 30
0.0
 10
-283.5411367487219
 20
714.347354253894
 30
0.0
 10
-278.8313095959379
 20
709.0514267915336
 30
0.0
 10
-276.5099676516071
 20
706.441212413436
 30
0.0
  0
SPLINE
  5
26F4E
330
2
100
AcDbEntity
  8
0
  6
Continuous
 62
     7
370
    25
100
AcDbSpline
210
0.0
220
0.0
230
1.0
 70
     8
 71
     3
 72
    17
 73
    13
 74
     0
 42
0.00000001
 43
0.0000000001
 40
0.0
 40
0.0
 40
0.0
 40
0.0
 40
0.1292694262043857
 40
0.2585869224051738
 40
0.4157558593906713
 40
0.5727517235964746
 40
0.660270247059423
 40
0.7476770070467734
 40
0.8143470313962067
 40
0.8809103909607857
 40
0.9404855167141541
 40
1.0
 40
1.0
 40
1.0
 40
1.0
 10
-276.5099676516071
 20
706.441212413436
 30
0.0
 10
-275.3892925740786
 20
705.0385808819839
 30
0.0
 10
-273.1475256859294
 20
702.2327962379375
 30
0.0
 10
-270.2641668999067
 20
697.2535135729848
 30
0.0
 10
-267.857836354322
 20
691.6845454621319
 30
0.0
 10
-266.4625529252365
 20
686.482005661371
 30
0.0
 10
-265.8964501648763
 20
682.2219934842585
 30
0.0
 10
-265.8453216533629
 20
679.2025397683321
 30
0.0
 10
-266.1472069424294
 20
676.5992716876893
 30
0.0
 10
-266.7182531746416
 20
674.5283872367338
 30
0.0
 10
-267.5674479039809
 20
672.7977366824713
 30
0.0
 10
-268.343675161854
 20
671.9958094496747
 30
0.0
 10
-268.7315911566904
 20
671.5950500108235
 30
0.0
  0
LINE
  5
26F4F
330
2
100
AcDbEntity
  8
0
  6
Continuous
 62
     7
370
    25
100
AcDbLine
 10
-268.7315911566904
 20
671.5950500108235
 30
0.0
 11
-311.2334307446225
 21
634.7873772200967
 31
0.0
  0
SPLINE
  5
26F50
330
2
100
AcDbEntity
  8
0
  6
Continuous
 62
     7
370
    25
100
AcDbSpline
210
0.0
220
0.0
230
1.0
 70
     8
 71
     3
 72
    17
 73
    13
 74
     0
 42
0.00000001
 43
0.0000000001
 40
0.0
 40
0.0
 40
0.0
 40
0.0
 40
0.0629929770310561
 40
0.1260645562974129
 40
0.1883383926973192
 40
0.2506929969304607
 40
0.3541462614227082
 40
0.4577982328023382
 40
0.6109535934641946
 40
0.7642276292948976
 40
0.8821317077696265
 40
1.0
 40
1.0
 40
1.0
 40
1.0
 10
-311.2334307446225
 20
634.7873772200967
 30
0.0
 10
-311.6992461188735
 20
634.4568894544972
 30
0.0
 10
-312.6314581088256
 20
633.7955015427573
 30
0.0
 10
-314.3016088284671
 20
633.4140265516915
 30
0.0
 10
-316.07764471454
 20
633.4450876271104
 30
0.0
 10
-318.3272482383535
 20
633.91964650781
 30
0.0
 10
-321.060805708405
 20
635.0176481280425
 30
0.0
 10
-324.7387365599861
 20
637.1191802242226
 30
0.0
 10
-328.9316885343502
 20
640.1446055689302
 30
0.0
 10
-333.1882553331862
 20
643.8461667191123
 30
0.0
 10
-336.9999761125914
 20
647.5637285799357
 30
0.0
 10
-339.1752534522474
 20
650.0078353388879
 30
0.0
 10
-340.2627270369815
 20
651.2297032314032
 30
0.0
  0
SPLINE
  5
26F51
330
2
100
AcDbEntity
  8
0
  6
Continuous
 62
     7
370
    25
100
AcDbSpline
210
0.0
220
0.0
230
1.0
 70
     8
 71
     3
 72
    16
 73
    12
 74
     0
 42
0.00000001
 43
0.0000000001
 40
0.0
 40
0.0
 40
0.0
 40
0.0
 40
0.0950975473416458
 40
0.1930058708147278
 40
0.2943383856362777
 40
0.3997282589045258
 40
0.509818141344558
 40
0.6231400339952549
 40
0.7422189359527768
 40
0.8676465680751766
 40
0.9999999999999998
 40
0.9999999999999998
 40
0.9999999999999998
 40
0.9999999999999998
 10
-340.2627270369815
 20
651.2297032314032
 30
0.0
 10
-342.6276848916251
 20
653.8873127362046
 30
0.0
 10
-347.4275011112336
 20
659.2810820930176
 30
0.0
 10
-355.3152141776059
 20
666.934791490746
 30
0.0
 10
-363.839678499345
 20
674.3743131562271
 30
0.0
 10
-373.0690557977194
 20
681.541647902825
 30
0.0
 10
-382.9492559360047
 20
688.3846954982908
 30
0.0
 10
-393.4934502191486
 20
694.8944371901508
 30
0.0
 10
-404.7140392955768
 20
701.0510699000008
 30
0.0
 10
-416.6859474387871
 20
706.9241026935734
 30
0.0
 10
-424.9642467985199
 20
710.4050655849427
 30
0.0
 10
-429.2146029478757
 20
712.1923085183151
 30
0.0
  0
SPLINE
  5
26F52
330
2
100
AcDbEntity
  8
0
  6
Continuous
 62
     7
370
    25
100
AcDbSpline
210
0.0
220
0.0
230
1.0
 70
     8
 71
     3
 72
    16
 73
    12
 74
     0
 42
0.00000001
 43
0.0000000001
 40
0.0
 40
0.0
 40
0.0
 40
0.0
 40
0.1086853948829852
 40
0.217354698245898
 40
0.3261403289723877
 40
0.434918229849994
 40
0.5418284112123648
 40
0.648737490092636
 40
0.7547963238119142
 40
0.8608555971322552
 40
1.0
 40
1.0
 40
1.0
 40
1.0
 10
-822.4904473841032
 20
897.6587890274448
 30
0.0
 10
-821.4920836734467
 20
897.5772465474141
 30
0.0
 10
-819.4955040658376
 20
897.4141736601938
 30
0.0
 10
-816.9338182733397
 20
896.7439528438754
 30
0.0
 10
-814.8105932948784
 20
895.77938584501
 30
0.0
 10
-813.2116306782272
 20
894.5517073647941
 30
0.0
 10
-812.1998801876522
 20
893.1188005155398
 30
0.0
 10
-811.7719772285877
 20
891.5542403703984
 30
0.0
 10
-811.9711758978645
 20
889.9135757477949
 30
0.0
 10
-812.7879131748786
 20
888.0768454680184
 30
0.0
 10
-814.0154737377415
 20
886.8551899922234
 30
0.0
 10
-814.7120708857105
 20
886.1619437720493
 30
0.0
  0
LINE
  5
26F53
330
2
100
AcDbEntity
  8
0
  6
Continuous
 62
     7
370
    25
100
AcDbLine
 10
-814.7120708857105
 20
886.1619437720493
 30
0.0
 11
-857.2139104736429
 21
849.354270981335
 31
0.0
  0
SPLINE
  5
26F54
330
2
100
AcDbEntity
  8
0
  6
Continuous
 62
     7
370
    25
100
AcDbSpline
210
0.0
220
0.0
230
1.0
 70
     8
 71
     3
 72
    16
 73
    12
 74
     0
 42
0.00000001
 43
0.0000000001
 40
0.0
 40
0.0
 40
0.0
 40
0.0
 40
0.1060685036205497
 40
0.2121367325372937
 40
0.3182079532820632
 40
0.4242788973454816
 40
0.5302854305203738
 40
0.636294461662637
 40
0.7424414604822402
 40
0.8485980884751761
 40
1.0
 40
1.0
 40
1.0
 40
1.0
 10
-857.2139104736429
 20
849.354270981335
 30
0.0
 10
-857.8596420956227
 20
848.8495411097741
 30
0.0
 10
-859.1511036671912
 20
847.840082673853
 30
0.0
 10
-861.6829272432211
 20
846.4925521199971
 30
0.0
 10
-864.5750582049972
 20
845.3141639093441
 30
0.0
 10
-867.7768971595892
 20
844.3251135940929
 30
0.0
 10
-871.1925142920341
 20
843.5430283896423
 30
0.0
 10
-874.7219762494943
 20
842.959888613827
 30
0.0
 10
-878.2569013090293
 20
842.5834093691696
 30
0.0
 10
-882.2205539370353
 20
842.3516959976732
 30
0.0
 10
-884.753973941283
 20
842.4118935916435
 30
0.0
 10
-886.2432067660018
 20
842.4472798413667
 30
0.0
  0
SPLINE
  5
26F55
330
2
100
AcDbEntity
  8
0
  6
Continuous
 62
     7
370
    25
100
AcDbSpline
210
0.0
220
0.0
230
1.0
 70
     8
 71
     3
 72
    14
 73
    10
 74
     0
 42
0.00000001
 43
0.0000000001
 40
0.0
 40
0.0
 40
0.0
 40
0.0
 40
0.1682982955897297
 40
0.3292638358869222
 40
0.4844597356687716
 40
0.6353146166784284
 40
0.7830840120067678
 40
0.9288217329567112
 40
1.0
 40
1.0
 40
1.0
 40
1.0
 10
-886.2432067660018
 20
842.4472798413667
 30
0.0
 10
-889.6908727094679
 20
842.5089849352252
 30
0.0
 10
-896.4359898208943
 20
842.6297066325149
 30
0.0
 10
-905.9757265944334
 20
841.5038301893098
 30
0.0
 10
-914.7744021186968
 20
839.4710763185051
 30
0.0
 10
-922.8480541695764
 20
836.5283780874682
 30
0.0
 10
-930.18387486986
 20
832.7186021962408
 30
0.0
 10
-935.8249651151758
 20
829.0263581025381
 30
0.0
 10
-938.792446581785
 20
826.3657517868326
 30
0.0
 10
-939.7661884909332
 20
825.4927071183139
 30
0.0
  0
SPLINE
  5
26F56
330
2
100
AcDbEntity
  8
0
  6
Continuous
 62
     7
370
    25
100
AcDbSpline
210
0.0
220
0.0
230
1.0
 70
     8
 71
     3
 72
    14
 73
    10
 74
     0
 42
0.00000001
 43
0.0000000001
 40
0.0
 40
0.0
 40
0.0
 40
0.0
 40
0.0711782670432821
 40
0.2169159879932264
 40
0.3646853833215653
 40
0.515540264331222
 40
0.6707361641130706
 40
0.8317017044102625
 40
1.0
 40
1.0
 40
1.0
 40
1.0
 10
-876.0134291090347
 20
880.7042163043918
 30
0.0
 10
-875.0396871998864
 20
881.5772609729231
 30
0.0
 10
-872.0722057332771
 20
884.2378672886157
 30
0.0
 10
-866.4311154879616
 20
887.9301113823188
 30
0.0
 10
-859.0952947876779
 20
891.7398872735585
 30
0.0
 10
-851.0216427367982
 20
894.6825855045828
 30
0.0
 10
-842.222967212535
 20
896.7153393753875
 30
0.0
 10
-832.6832304389959
 20
897.8412158185928
 30
0.0
 10
-825.9381133275693
 20
897.7204941213033
 30
0.0
 10
-822.4904473841032
 20
897.6587890274448
 30
0.0
  0
LINE
  5
26F57
330
2
100
AcDbEntity
  8
0
  6
Continuous
 62
     7
370
    25
100
AcDbLine
 10
-821.0501752320816
 20
610.5841294247674
 30
0.0
 11
-993.1558520131302
 21
660.2667588340697
 31
0.0
  0
SPLINE
  5
26F58
330
2
100
AcDbEntity
  8
0
  6
Continuous
 62
     7
370
    25
100
AcDbSpline
210
0.0
220
0.0
230
1.0
 70
     8
 71
     3
 72
    30
 73
    26
 74
     0
 42
0.00000001
 43
0.0000000001
 40
0.0
 40
0.0
 40
0.0
 40
0.0
 40
0.0531542981996883
 40
0.1062116185279296
 40
0.159404761947204
 40
0.2130311473306147
 40
0.2674614308919905
 40
0.3090611403200298
 40
0.3513626270102426
 40
0.3941330880440954
 40
0.4371621374587207
 40
0.4802895833660604
 40
0.5234171321630818
 40
0.5665217310768317
 40
0.6096698522352743
 40
0.6485078167981674
 40
0.6877155350234503
 40
0.7275690616349868
 40
0.7684192387144618
 40
0.8106846052404462
 40
0.8451994081592461
 40
0.8811277736298578
 40
0.9187279317467606
 40
0.9582636326190197
 40
1.0
 40
1.0
 40
1.0
 40
1.0
 10
-993.1558520131302
 20
660.2667588340697
 30
0.0
 10
-993.7626293155613
 20
664.9731623885359
 30
0.0
 10
-994.975076879715
 20
674.3773828541844
 30
0.0
 10
-996.2269507887924
 20
688.3950709476092
 30
0.0
 10
-996.8980940288293
 20
702.3270068903848
 30
0.0
 10
-996.8306855100422
 20
716.1826883679641
 30
0.0
 10
-995.9847145127467
 20
728.7905375697596
 30
0.0
 10
-994.5091079297604
 20
740.1744438603715
 30
0.0
 10
-992.5856923222346
 20
750.3476193784408
 30
0.0
 10
-990.0201958219144
 20
760.3277587613944
 30
0.0
 10
-986.7659789458908
 20
769.996275010143
 30
0.0
 10
-982.7758872690974
 20
779.2328121088602
 30
0.0
 10
-978.0020800441706
 20
787.9167223216766
 30
0.0
 10
-972.3960323381485
 20
795.9264644284139
 30
0.0
 10
-966.1342260837249
 20
802.8878556312019
 30
0.0
 10
-959.2813139011752
 20
808.782861000148
 30
0.0
 10
-951.9009384836122
 20
813.6296811707756
 30
0.0
 10
-943.7057646234626
 20
817.5549793324249
 30
0.0
 10
-934.6633560559398
 20
820.4676058158316
 30
0.0
 10
-925.4931209063752
 20
822.1401878259893
 30
0.0
 10
-916.3606163261574
 20
822.7834153133587
 30
0.0
 10
-907.3763734418664
 20
822.603784684459
 30
0.0
 10
-897.8040499923562
 20
821.5953341176605
 30
0.0
 10
-887.6284223643285
 20
819.7749430478634
 30
0.0
 10
-880.6372429883557
 20
817.8899921640349
 30
0.0
 10
-877.0470005208945
 20
816.9219965872832
 30
0.0
  0
LINE
  5
26F59
330
2
100
AcDbEntity
  8
0
  6
Continuous
 62
     7
370
    25
100
AcDbLine
 10
-685.2808573332754
 20
761.563879391864
 30
0.0
 11
-877.0470005208945
 21
816.9219965872832
 31
0.0
  0
SPLINE
  5
26F5A
330
2
100
AcDbEntity
  8
0
  6
Continuous
 62
     7
370
    25
100
AcDbSpline
210
0.0
220
0.0
230
1.0
 70
     8
 71
     3
 72
    29
 73
    25
 74
     0
 42
0.00000001
 43
0.0000000001
 40
0.0
 40
0.0
 40
0.0
 40
0.0
 40
0.0677933082637262
 40
0.1376231030557064
 40
0.2078986450748838
 40
0.2769328048758644
 40
0.3189559520572683
 40
0.3594818711140886
 40
0.3982125529857347
 40
0.4349493401911103
 40
0.4696449655631893
 40
0.5014109232661881
 40
0.5318689662507204
 40
0.5617940369795117
 40
0.592293258203211
 40
0.6243648163384116
 40
0.6584634654245677
 40
0.6946452010939919
 40
0.7327002175441669
 40
0.7860203026834002
 40
0.8408196582938167
 40
0.8957162974100803
 40
0.9492559639403546
 40
1.0
 40
1.0
 40
1.0
 40
1.0
 10
-685.2808573332754
 20
664.4561057074731
 30
0.0
 10
-689.9929359721514
 20
665.9662926144853
 30
0.0
 10
-699.5586423926709
 20
669.032031898488
 30
0.0
 10
-713.9513483390575
 20
674.5852041264209
 30
0.0
 10
-728.4060659349866
 20
680.3137216696324
 30
0.0
 10
-740.9529792124389
 20
685.1824632001433
 30
0.0
 10
-751.4694246722642
 20
688.9261244757477
 30
0.0
 10
-759.9002997193724
 20
691.6105879011779
 30
0.0
 10
-767.9675088219457
 20
693.7489841367169
 30
0.0
 10
-775.5997760447644
 20
695.2149785668331
 30
0.0
 10
-782.6554827671608
 20
695.8719874005042
 30
0.0
 10
-789.0773173831616
 20
695.6163326035755
 30
0.0
 10
-794.812511353077
 20
694.350584198496
 30
0.0
 10
-799.8589076034456
 20
691.935177721409
 30
0.0
 10
-804.0703721238939
 20
688.2345964436202
 30
0.0
 10
-807.4778766929815
 20
683.3942232028094
 30
0.0
 10
-810.2257596101903
 20
677.6067383908618
 30
0.0
 10
-812.4184557971284
 20
671.0243735564238
 30
0.0
 10
-814.3660852142787
 20
662.9291513380048
 30
0.0
 10
-815.9778309827441
 20
653.3545725809062
 30
0.0
 10
-817.3026103063817
 20
642.479903602568
 30
0.0
 10
-818.4341933415204
 20
631.5148293274737
 30
0.0
 10
-819.5264954951163
 20
620.8154126124341
 30
0.0
 10
-820.5514408753193
 20
613.9330565750608
 30
0.0
 10
-821.0501752320816
 20
610.5841294247674
 30
0.0
  0
LINE
  5
26F5B
330
2
100
AcDbEntity
  8
0
  6
Continuous
 62
     7
370
    25
100
AcDbLine
 10
-685.2808573332754
 20
761.563879391864
 30
0.0
 11
-677.3471806101739
 21
768.4346449794725
 31
0.0
  0
LWPOLYLINE
  5
26F5C
330
2
100
AcDbEntity
  8
0
  6
Continuous
 62
     7
370
    25
100
AcDbPolyline
 90
       12
 70
   128
 43
0.0
 10
-818.762473316344
 20
826.5982272610429
 10
-821.2734604554619
 20
827.447969823623
 10
-823.5170274153032
 20
828.4677385964636
 10
-825.4475016424798
 20
829.6367740281008
 10
-827.0255842487438
 20
830.9312779283613
 10
-828.21915002311
 20
832.3248979309017
 10
-829.0039014082733
 20
833.7892639513071
 10
-829.3638631291461
 20
835.2945657203029
 10
-829.2917074031185
 20
836.81015963481
 10
-828.7889031126576
 20
838.3051925733287
 10
-827.8656859031675
 20
839.7492299765399
 10
-826.540849814712
 20
841.1128754072038
  0
LWPOLYLINE
  5
26F5D
330
2
100
AcDbEntity
  8
0
  6
Continuous
 62
     7
370
    25
100
AcDbPolyline
 90
       12
 70
   128
 43
0.0
 10
-700.7813011130909
 20
804.80922075917
 10
-702.4807862382632
 20
803.5537271896297
 10
-704.5203237839567
 20
802.4319437097027
 10
-706.8583946472188
 20
801.4667065961143
 10
-709.4474024477646
 20
800.6776652929701
 10
-712.2346424528205
 20
800.0808824057994
 10
-715.1633744936442
 20
799.6885067132053
 10
-718.1739780316356
 20
799.5085258527751
 10
-721.2051658606498
 20
799.5446037157952
 10
-724.1952317376744
 20
799.7960058610256
 10
-727.0833065441221
 20
800.2576144657647
 10
-729.8105974054248
 20
800.9200325099923
  0
LWPOLYLINE
  5
26F5E
330
2
100
AcDbEntity
  8
0
  6
Continuous
 62
     7
370
    25
100
AcDbPolyline
 90
       12
 70
   128
 43
0.0
 10
-658.2794615251583
 20
841.6168935498969
 10
-656.9546254367029
 20
842.9805389805608
 10
-656.0314082272252
 20
844.424576383772
 10
-655.5286039367765
 20
845.9196093223029
 10
-655.4564482107243
 20
847.4352032367978
 10
-655.816409931597
 20
848.9405050057936
 10
-656.6011613167852
 20
850.4048710262116
 10
-657.7947270911265
 20
851.7984910287394
 10
-659.372809697403
 20
853.0929949289998
 10
-661.3032839245918
 20
854.2620303606495
 10
-663.5468508844333
 20
855.2817991334777
 10
-666.0578380235264
 20
856.1315416960701
  0
LWPOLYLINE
  5
26F5F
330
2
100
AcDbEntity
  8
0
  6
Continuous
 62
     7
370
    25
100
AcDbPolyline
 90
       12
 70
   128
 43
0.0
 10
-755.0097139344456
 20
881.8097364471086
 10
-757.737004795773
 20
882.4721544913362
 10
-760.625079602196
 20
882.9337630960873
 10
-763.6151454792452
 20
883.1851652413055
 10
-766.6463333082471
 20
883.2212431043258
 10
-769.6569368462387
 20
883.0412622438954
 10
-772.5856688870499
 20
882.6488865513013
 10
-775.3729088921305
 20
882.0521036641306
 10
-777.9619166926516
 20
881.2630623609985
 10
-780.2999875559383
 20
880.297825247398
 10
-782.3395251016072
 20
879.176041767471
 10
-784.0390102267796
 20
877.9205481979307
  0
LINE
  5
26F60
330
2
100
AcDbEntity
  8
0
  6
Continuous
 62
     7
370
    25
100
AcDbLine
 10
-575.6261111963852
 20
856.527675191919
 30
0.0
 11
-583.5597879194867
 21
849.6569096043227
 31
0.0
  0
LINE
  5
26F61
330
2
100
AcDbEntity
  8
0
  6
Continuous
 62
     7
370
    25
100
AcDbLine
 10
-583.5597879194867
 20
849.6569096043227
 30
0.0
 11
-589.6944000512704
 21
851.4278195871613
 31
0.0
  0
ARC
  5
26F62
330
2
100
AcDbEntity
  8
0
  6
Continuous
 62
     7
370
    25
100
AcDbCircle
 10
-591.4257879159531
 20
845.9705074118019
 30
0.0
 40
5.725378600340615
100
AcDbArc
 50
72.39783972970116
 51
122.8636406951591
  0
LINE
  5
26F63
330
2
100
AcDbEntity
  8
0
  6
Continuous
 62
     7
370
    25
100
AcDbLine
 10
-594.5326160999822
 20
850.7796215456258
 30
0.0
 11
-598.0744360656474
 21
847.7123154797277
 31
0.0
  0
LWPOLYLINE
  5
26F64
330
2
100
AcDbEntity
  8
0
  6
Continuous
 62
     7
370
    25
100
AcDbPolyline
 90
        9
 70
   128
 43
0.0
 10
-598.0744360656474
 20
847.7123154797277
 10
-598.3609860384948
 20
847.3961008462932
 10
-598.5186492046376
 20
847.0580106251453
 10
-598.5413666569918
 20
846.7110374338501
 10
-598.4282653766451
 20
846.3685152576006
 10
-598.1836917823656
 20
846.0436070315111
 10
-597.8170447002183
 20
845.7487987965182
 10
-597.3424141719548
 20
845.4954198677597
 10
-596.7780399825882
 20
845.2932074553654
  0
LINE
  5
26F65
330
2
100
AcDbEntity
  8
0
  6
Continuous
 62
     7
370
    25
100
AcDbLine
 10
-596.7780399825882
 20
845.2932074553654
 30
0.0
 11
-590.6434278507922
 21
843.5222974725391
 31
0.0
  0
LINE
  5
26F66
330
2
100
AcDbEntity
  8
0
  6
Continuous
 62
     7
370
    25
100
AcDbLine
 10
-590.6434278507922
 20
843.5222974725391
 30
0.0
 11
-598.5771045738934
 21
836.6515318849305
 31
0.0
  0
LWPOLYLINE
  5
26F67
330
2
100
AcDbEntity
  8
0
  6
Continuous
 62
     7
370
    25
100
AcDbPolyline
 90
       12
 70
   128
 43
0.0
 10
-598.5771045738934
 20
836.6515318849305
 10
-601.3043954351964
 20
837.3139499291582
 10
-604.1924702416438
 20
837.7755585339093
 10
-607.1825361186683
 20
838.0269606791275
 10
-610.2137239476828
 20
838.0630385421476
 10
-613.2243274856742
 20
837.8830576817174
 10
-616.1530595264979
 20
837.4906819891233
 10
-618.9402995315538
 20
836.8938991019525
 10
-621.5293073320993
 20
836.1048577988205
 10
-623.8673781953617
 20
835.13962068522
 10
-625.906915741055
 20
834.017837205293
 10
-627.6064008662276
 20
832.7623436357526
  0
LINE
  5
26F68
330
2
100
AcDbEntity
  8
0
  6
Continuous
 62
     7
370
    25
100
AcDbLine
 10
-627.6064008662276
 20
832.7623436357526
 30
0.0
 11
-670.1082404541598
 21
795.9546708450257
 31
0.0
  0
LWPOLYLINE
  5
26F69
330
2
100
AcDbEntity
  8
0
  6
Continuous
 62
     7
370
    25
100
AcDbPolyline
 90
       12
 70
   128
 43
0.0
 10
-662.329863955792
 20
781.4400226988648
 10
-664.840851094885
 20
782.2897652614449
 10
-667.0844180547267
 20
783.3095340342853
 10
-669.0148922819155
 20
784.4785694659227
 10
-670.5929748881918
 20
785.773073366183
 10
-671.7865406625332
 20
787.1666933687236
 10
-672.5712920477214
 20
788.6310593891293
 10
-672.9312537685942
 20
790.1363611581249
 10
-672.8590980425416
 20
791.651955072632
 10
-672.356293752093
 20
793.1469880111506
 10
-671.4330765426153
 20
794.591025414362
 10
-670.1082404541598
 20
795.9546708450257
  0
LINE
  5
26F6A
330
2
100
AcDbEntity
  8
0
  6
Continuous
 62
     7
370
    25
100
AcDbLine
 10
-670.2635406788685
 20
774.5692571112562
 30
0.0
 11
-662.329863955792
 21
781.4400226988648
 31
0.0
  0
LINE
  5
26F6B
330
2
100
AcDbEntity
  8
0
  6
Continuous
 62
     7
370
    25
100
AcDbLine
 10
-676.3981528106521
 20
776.3401670940826
 30
0.0
 11
-670.2635406788685
 21
774.5692571112562
 31
0.0
  0
ARC
  5
26F6C
330
2
100
AcDbEntity
  8
0
  6
Continuous
 62
     7
370
    25
100
AcDbCircle
 10
-678.129540675335
 20
770.8828549187355
 30
0.0
 40
5.725378600341628
100
AcDbArc
 50
72.3978397297127
 51
122.8636406951548
  0
LINE
  5
26F6D
330
2
100
AcDbEntity
  8
0
  6
Continuous
 62
     7
370
    25
100
AcDbLine
 10
-684.7781888250294
 20
772.6246629866611
 30
0.0
 11
-681.2363688593643
 21
775.6919690525591
 31
0.0
  0
LWPOLYLINE
  5
26F6E
330
2
100
AcDbEntity
  8
0
  6
Continuous
 62
     7
370
    25
100
AcDbPolyline
 90
        9
 70
   128
 43
0.0
 10
-683.4817927419702
 20
770.2055549622989
 10
-684.0461669313242
 20
770.4077673746933
 10
-684.5207974596002
 20
770.6611463034517
 10
-684.8874445417475
 20
770.9559545384445
 10
-685.1320181360269
 20
771.280862764522
 10
-685.245119416386
 20
771.6233849407837
 10
-685.2224019640073
 20
771.9703581320666
 10
-685.0647387978767
 20
772.3084483532267
 10
-684.7781888250294
 20
772.6246629866611
  0
LINE
  5
26F6F
330
2
100
AcDbEntity
  8
0
  6
Continuous
 62
     7
370
    25
100
AcDbLine
 10
-677.3471806101739
 20
768.4346449794725
 30
0.0
 11
-683.4817927419702
 21
770.2055549622989
 31
0.0
  0
LINE
  5
26F71
330
2
100
AcDbEntity
  8
0
  6
Continuous
 62
     7
370
    25
100
AcDbLine
 10
-575.6261111963852
 20
856.527675191919
 30
0.0
 11
-767.3922543840292
 21
911.8857923873381
 31
0.0
  0
SPLINE
  5
26F72
330
2
100
AcDbEntity
  8
0
  6
Continuous
 62
     7
370
    25
100
AcDbSpline
210
0.0
220
0.0
230
1.0
 70
     8
 71
     3
 72
    14
 73
    10
 74
     0
 42
0.00000001
 43
0.0000000001
 40
0.0
 40
0.0
 40
0.0
 40
0.0
 40
0.1536266313134418
 40
0.315716982207554
 40
0.4819155425260244
 40
0.6478195788285504
 40
0.8092451511196152
 40
0.9244560100853028
 40
1.0
 40
1.0
 40
1.0
 40
1.0
 10
-798.0991818545982
 20
630.4602727317437
 30
0.0
 10
-797.6004077184335
 20
633.8091756544681
 30
0.0
 10
-796.5753805878799
 20
640.6914819019423
 30
0.0
 10
-795.4837229839187
 20
651.39129117875
 30
0.0
 10
-794.3496051898273
 20
662.3548216635655
 30
0.0
 10
-793.0342406499983
 20
673.2352246986588
 30
0.0
 10
-791.3915259549601
 20
682.7909418880437
 30
0.0
 10
-789.6909024486814
 20
690.2195475607917
 30
0.0
 10
-788.338087981883
 20
693.9975364948335
 30
0.0
 10
-787.8023374988178
 20
695.4937205216526
 30
0.0
  0
LINE
  5
26F73
330
2
100
AcDbEntity
  8
0
  6
Continuous
 62
     7
370
    25
100
AcDbLine
 10
-821.0501752320816
 20
610.5841294247674
 30
0.0
 11
-798.0991818545982
 21
630.4602727317437
 31
0.0
  0
SPLINE
  5
26F74
330
2
100
AcDbEntity
  8
0
  6
Continuous
 62
     7
370
    25
100
AcDbSpline
210
0.0
220
0.0
230
1.0
 70
     8
 71
     3
 72
    17
 73
    13
 74
     0
 42
0.00000001
 43
0.0000000001
 40
0.0
 40
0.0
 40
0.0
 40
0.0
 40
0.0557406280853424
 40
0.1610694437886312
 40
0.2681331789306009
 40
0.3778743464305279
 40
0.4914173222259588
 40
0.5841389464424207
 40
0.6806580084146158
 40
0.7816682253814366
 40
0.8878781437181084
 40
0.9999999999999998
 40
0.9999999999999998
 40
0.9999999999999998
 40
0.9999999999999998
 10
-853.0489726815504
 20
900.5642208147484
 30
0.0
 10
-851.8949758088666
 20
901.5932942653874
 30
0.0
 10
-848.560359016708
 20
904.5669293679173
 30
0.0
 10
-842.2236892407308
 20
908.5674050127813
 30
0.0
 10
-834.0572548557988
 20
912.5260005508682
 30
0.0
 10
-825.0068449426649
 20
915.4293567252398
 30
0.0
 10
-815.8387570867841
 20
917.1044265764519
 30
0.0
 10
-806.7057724747407
 20
917.747097901938
 30
0.0
 10
-797.7216552524617
 20
917.5676128642603
 30
0.0
 10
-788.149295837215
 20
916.5591206277891
 30
0.0
 10
-777.9736784069236
 20
914.7387413730367
 30
0.0
 10
-770.9824975909859
 20
912.8537888208498
 30
0.0
 10
-767.3922543840292
 20
911.8857923873381
 30
0.0
  0
SPLINE
  5
26F75
330
2
100
AcDbEntity
  8
0
  6
Continuous
 62
     7
370
    25
100
AcDbSpline
210
0.0
220
0.0
230
1.0
 70
     8
 71
     3
 72
    14
 73
    10
 74
     0
 42
0.00000001
 43
0.0000000001
 40
0.0
 40
0.0
 40
0.0
 40
0.0
 40
0.1682982955897307
 40
0.3292638358869244
 40
0.4844597356687726
 40
0.6353146166784298
 40
0.7830840120067688
 40
0.9288217329567128
 40
1.0
 40
1.0
 40
1.0
 40
1.0
 10
-886.2432067660018
 20
842.4472798413667
 30
0.0
 10
-889.6908727094679
 20
842.5089849352252
 30
0.0
 10
-896.4359898208943
 20
842.6297066325149
 30
0.0
 10
-905.9757265944334
 20
841.5038301893098
 30
0.0
 10
-914.7744021186968
 20
839.4710763185051
 30
0.0
 10
-922.8480541695764
 20
836.5283780874682
 30
0.0
 10
-930.18387486986
 20
832.7186021962408
 30
0.0
 10
-935.8249651151758
 20
829.0263581025381
 30
0.0
 10
-938.792446581785
 20
826.3657517868326
 30
0.0
 10
-939.7661884909332
 20
825.4927071183139
 30
0.0
  0
SPLINE
  5
26F76
330
2
100
AcDbEntity
  8
0
  6
Continuous
 62
     7
370
    25
100
AcDbSpline
210
0.0
220
0.0
230
1.0
 70
     8
 71
     3
 72
    16
 73
    12
 74
     0
 42
0.00000001
 43
0.0000000001
 40
0.0
 40
0.0
 40
0.0
 40
0.0
 40
0.106068503620554
 40
0.2121367325373094
 40
0.3182079532820787
 40
0.4242788973455049
 40
0.5302854305204017
 40
0.6362944616626668
 40
0.7424414604822699
 40
0.8485980884752047
 40
1.0
 40
1.0
 40
1.0
 40
1.0
 10
-857.2139104736429
 20
849.354270981335
 30
0.0
 10
-857.8596420956227
 20
848.8495411097741
 30
0.0
 10
-859.1511036671912
 20
847.840082673853
 30
0.0
 10
-861.6829272432211
 20
846.4925521199971
 30
0.0
 10
-864.5750582049972
 20
845.3141639093441
 30
0.0
 10
-867.776897159614
 20
844.3251135940929
 30
0.0
 10
-871.1925142920341
 20
843.5430283896423
 30
0.0
 10
-874.7219762494943
 20
842.959888613827
 30
0.0
 10
-878.2569013090293
 20
842.5834093691696
 30
0.0
 10
-882.2205539370353
 20
842.3516959976732
 30
0.0
 10
-884.753973941283
 20
842.4118935916435
 30
0.0
 10
-886.2432067660018
 20
842.4472798413667
 30
0.0
  0
SPLINE
  5
26F77
330
2
100
AcDbEntity
  8
0
  6
Continuous
 62
     7
370
    25
100
AcDbSpline
210
0.0
220
0.0
230
1.0
 70
     8
 71
     3
 72
    16
 73
    12
 74
     0
 42
0.00000001
 43
0.0000000001
 40
0.0
 40
0.0
 40
0.0
 40
0.0
 40
0.1060685036205553
 40
0.2121367325373046
 40
0.3182079532820814
 40
0.4242788973455081
 40
0.5302854305204051
 40
0.6362944616626713
 40
0.7424414604822751
 40
0.8485980884752105
 40
1.0
 40
1.0
 40
1.0
 40
1.0
 10
-814.7120708857105
 20
886.1619437720493
 30
0.0
 10
-814.1685475376917
 20
886.6871389160829
 30
0.0
 10
-813.0815022493223
 20
887.7375278439446
 30
0.0
 10
-812.1446368796254
 20
889.3939700349198
 30
0.0
 10
-811.7720159689755
 20
891.0429398828274
 30
0.0
 10
-811.9957989003189
 20
892.6329617376453
 30
0.0
 10
-812.8193467231383
 20
894.095674403665
 30
0.0
 10
-814.191953872393
 20
895.3804256840529
 30
0.0
 10
-816.0986401721098
 20
896.4140425688238
 30
0.0
 10
-818.7612738178319
 20
897.3090446867704
 30
0.0
 10
-821.1098639929618
 20
897.5293096081307
 30
0.0
 10
-822.4904473841032
 20
897.6587890274448
 30
0.0
  0
SPLINE
  5
26F78
330
2
100
AcDbEntity
  8
0
  6
Continuous
 62
     7
370
    25
100
AcDbSpline
210
0.0
220
0.0
230
1.0
 70
     8
 71
     3
 72
    14
 73
    10
 74
     0
 42
0.00000001
 43
0.0000000001
 40
0.0
 40
0.0
 40
0.0
 40
0.0
 40
0.1682982955897302
 40
0.3292638358869222
 40
0.48445973566877
 40
0.6353146166784278
 40
0.7830840120067663
 40
0.9288217329567091
 40
1.0
 40
1.0
 40
1.0
 40
1.0
 10
-822.4904473841032
 20
897.6587890274448
 30
0.0
 10
-825.9381133275693
 20
897.7204941213033
 30
0.0
 10
-832.6832304389959
 20
897.8412158185928
 30
0.0
 10
-842.222967212535
 20
896.7153393753875
 30
0.0
 10
-851.0216427367982
 20
894.6825855045828
 30
0.0
 10
-859.0952947876779
 20
891.7398872735585
 30
0.0
 10
-866.4311154879616
 20
887.9301113823188
 30
0.0
 10
-872.0722057332771
 20
884.2378672886157
 30
0.0
 10
-875.0396871998864
 20
881.5772609729231
 30
0.0
 10
-876.0134291090347
 20
880.7042163043918
 30
0.0
  0
LINE
  5
26F79
330
2
100
AcDbEntity
  8
0
  6
Continuous
 62
     7
370
    25
100
AcDbLine
 10
-647.0155742780459
 20
625.7805303092688
 30
0.0
 11
-677.6886349369767
 21
634.6350802234131
 31
0.0
  0
SPLINE
  5
26F7A
330
2
100
AcDbEntity
  8
0
  6
Continuous
 62
     7
370
    25
100
AcDbSpline
210
0.0
220
0.0
230
1.0
 70
     8
 71
     3
 72
    30
 73
    26
 74
     0
 42
0.00000001
 43
0.0000000001
 40
0.0
 40
0.0
 40
0.0
 40
0.0
 40
0.0550508137426984
 40
0.1067708895365327
 40
0.1554022866314629
 40
0.2011959048390436
 40
0.2444110905501859
 40
0.2853145796679553
 40
0.324178590758739
 40
0.3648991100036854
 40
0.4038478509128515
 40
0.4413786112873852
 40
0.4778266189322381
 40
0.5134998020243421
 40
0.551959451183905
 40
0.5901197061515501
 40
0.628219804559631
 40
0.6664359715914676
 40
0.7048843801036639
 40
0.7436263555838082
 40
0.7826747094676011
 40
0.836801566795205
 40
0.891266603508618
 40
0.9457865736561876
 40
1.0
 40
1.0
 40
1.0
 40
1.0
 10
-377.844384015561
 20
799.4330084776087
 30
0.0
 10
-372.3757334716454
 20
797.7823919566899
 30
0.0
 10
-361.7693020051386
 20
794.5810261232151
 30
0.0
 10
-346.3689730311637
 20
788.9495687867803
 30
0.0
 10
-331.967680763735
 20
782.9166001409779
 30
0.0
 10
-318.5351856150457
 20
776.4449102357257
 30
0.0
 10
-306.0416789907224
 20
769.5725827193476
 30
0.0
 10
-294.4574623809903
 20
762.319293735583
 30
0.0
 10
-283.4219600678908
 20
754.474128439909
 30
0.0
 10
-272.9718541657812
 20
746.0012647235624
 30
0.0
 10
-263.1621172827987
 20
736.8722355906401
 30
0.0
 10
-254.3063450778008
 20
727.4058039370328
 30
0.0
 10
-246.3660388080918
 20
717.636171936127
 30
0.0
 10
-239.0855011819028
 20
707.2906374974244
 30
0.0
 10
-232.5075016004806
 20
696.3627549339012
 30
0.0
 10
-226.6799121228636
 20
684.8706170595126
 30
0.0
 10
-221.7458034835498
 20
673.187069597318
 30
0.0
 10
-217.6499425813895
 20
661.3545646319651
 30
0.0
 10
-214.3371670171859
 20
649.4145591692124
 30
0.0
 10
-211.7524729618582
 20
637.4077463574049
 30
0.0
 10
-209.6009637737247
 20
623.8547923225379
 30
0.0
 10
-208.1317882274796
 20
608.8267616701695
 30
0.0
 10
-207.5621605084777
 20
592.4630315035127
 30
0.0
 10
-207.8386982159106
 20
576.3256957260044
 30
0.0
 10
-208.6468911027529
 20
565.7874934429185
 30
0.0
 10
-209.0498483077821
 20
560.5332470778951
 30
0.0
  0
LINE
  5
26F7B
330
2
100
AcDbEntity
  8
0
  6
Continuous
 62
     7
370
    25
100
AcDbLine
 10
-318.7045944461194
 20
465.5694512614008
 30
0.0
 11
-209.0498483077821
 21
560.5332470778951
 31
0.0
  0
SPLINE
  5
26F7C
330
2
100
AcDbEntity
  8
0
  6
Continuous
 62
     7
370
    25
100
AcDbSpline
210
0.0
220
0.0
230
1.0
 70
     8
 71
     3
 72
    30
 73
    26
 74
     0
 42
0.00000001
 43
0.0000000001
 40
0.0
 40
0.0
 40
0.0
 40
0.0
 40
0.0550508137395742
 40
0.1067708895304719
 40
0.1554022866226409
 40
0.2011959048276211
 40
0.2444110905363101
 40
0.2853145796517566
 40
0.324178590740334
 40
0.3648991099829684
 40
0.403847850889923
 40
0.4413786112623254
 40
0.4778266189051094
 40
0.5134998019951872
 40
0.5519594511569972
 40
0.5901197061268668
 40
0.6282198045372088
 40
0.6664359715713766
 40
0.7048843800859844
 40
0.7436263555686124
 40
0.782674709454935
 40
0.8368015667860234
 40
0.8912666035028109
 40
0.9457865736534964
 40
1.0
 40
1.0
 40
1.0
 40
1.0
 10
-487.4991301524263
 20
704.4692126775537
 30
0.0
 10
-482.0304796085107
 20
702.8185961566349
 30
0.0
 10
-471.4240481420039
 20
699.6172303231603
 30
0.0
 10
-456.0237191680291
 20
693.9857729867129
 30
0.0
 10
-441.6224269006002
 20
687.9528043409229
 30
0.0
 10
-428.1899317519108
 20
681.4811144356706
 30
0.0
 10
-415.6964251275878
 20
674.6087869192926
 30
0.0
 10
-404.1122085178432
 20
667.3554979355157
 30
0.0
 10
-393.0767062047437
 20
659.5103326398542
 30
0.0
 10
-382.6266003026465
 20
651.0374689235074
 30
0.0
 10
-372.8168634196639
 20
641.908439790585
 30
0.0
 10
-363.9610912146537
 20
632.4420081369778
 30
0.0
 10
-356.0207849449448
 20
622.672376136072
 30
0.0
 10
-348.7402473184713
 20
612.3268416969614
 30
0.0
 10
-342.1622477365667
 20
601.3989591325476
 30
0.0
 10
-336.3346582584426
 20
589.9068212567859
 30
0.0
 10
-331.4005496188071
 20
578.2232737931685
 30
0.0
 10
-327.304688716523
 20
566.3907688263933
 30
0.0
 10
-323.9919131523071
 20
554.4507633622056
 30
0.0
 10
-321.4072190971279
 20
542.4439505489633
 30
0.0
 10
-319.2557099093158
 20
528.8909965125253
 30
0.0
 10
-317.7865343635532
 20
513.8629658584745
 30
0.0
 10
-317.2169066452193
 20
497.4992356900862
 30
0.0
 10
-317.4934443534191
 20
481.3618999109697
 30
0.0
 10
-318.3016372408181
 20
470.8236976268818
 30
0.0
 10
-318.7045944461194
 20
465.5694512614008
 30
0.0
  0
SPLINE
  5
26F7E
330
2
100
AcDbEntity
  8
0
  6
Continuous
 62
     7
370
    25
100
AcDbSpline
210
0.0
220
0.0
230
1.0
 70
     8
 71
     3
 72
    17
 73
    13
 74
     0
 42
0.00000001
 43
0.0000000001
 40
0.0
 40
0.0
 40
0.0
 40
0.0
 40
0.0629929770390968
 40
0.1260645563135049
 40
0.1883383927213611
 40
0.2506929969624627
 40
0.3541462614679171
 40
0.4577982328607812
 40
0.6109535935421865
 40
0.7642276293924566
 40
0.8821317078822341
 40
1.0
 40
1.0
 40
1.0
 40
1.0
 10
-268.7315911566904
 20
671.5950500108235
 30
0.0
 10
-268.3226353419973
 20
672.0221363173549
 30
0.0
 10
-267.5042134201235
 20
672.8768418459805
 30
0.0
 10
-266.6700976923149
 20
674.6641252162277
 30
0.0
 10
-266.1366708208078
 20
676.6952397088199
 30
0.0
 10
-265.8269779662207
 20
679.386214269027
 30
0.0
 10
-265.9194210198156
 20
682.7714880681976
 30
0.0
 10
-266.6625130202234
 20
687.4146651655431
 30
0.0
 10
-268.2374680878853
 20
692.7073423384525
 30
0.0
 10
-270.6598212628703
 20
697.9973790828535
 30
0.0
 10
-273.4325542774916
 20
702.6147307399038
 30
0.0
 10
-275.4842669989957
 20
705.1658475948054
 30
0.0
 10
-276.5099676516071
 20
706.4412124134486
 30
0.0
  0
SPLINE
  5
26F7F
330
2
100
AcDbEntity
  8
0
  6
Continuous
 62
     7
370
    25
100
AcDbSpline
210
0.0
220
0.0
230
1.0
 70
     8
 71
     3
 72
    16
 73
    12
 74
     0
 42
0.00000001
 43
0.0000000001
 40
0.0
 40
0.0
 40
0.0
 40
0.0
 40
0.0950975473413193
 40
0.1930058708139911
 40
0.2943383856351105
 40
0.3997282589029801
 40
0.5098181413427647
 40
0.6231400339934198
 40
0.7422189359511792
 40
0.8676465680741667
 40
1.0
 40
1.0
 40
1.0
 40
1.0
 10
-276.5099676516071
 20
706.4412124134486
 30
0.0
 10
-278.8749255062878
 20
709.0988219184356
 30
0.0
 10
-283.6747417259459
 20
714.492591275632
 30
0.0
 10
-291.5624547925038
 20
722.1463006738798
 30
0.0
 10
-300.0869191144778
 20
729.5858223398803
 30
0.0
 10
-309.3162964131491
 20
736.7531570869732
 30
0.0
 10
-319.1964965518179
 20
743.5962046828968
 30
0.0
 10
-329.740690835407
 20
750.1059463751771
 30
0.0
 10
-340.9612799123796
 20
756.2625790854354
 30
0.0
 10
-352.9331880562208
 20
762.1356118793544
 30
0.0
 10
-361.2114874163989
 20
765.6165747709216
 30
0.0
 10
-365.4618435659773
 20
767.403817704393
 30
0.0
  0
SPLINE
  5
26F80
330
2
100
AcDbEntity
  8
0
  6
Continuous
 62
     7
370
    25
100
AcDbSpline
210
0.0
220
0.0
230
1.0
 70
     8
 71
     3
 72
    16
 73
    12
 74
     0
 42
0.00000001
 43
0.0000000001
 40
0.0
 40
0.0
 40
0.0
 40
0.0
 40
0.1077763403520447
 40
0.2155489240723572
 40
0.3233493600440344
 40
0.4311477879825784
 40
0.5384939184163078
 40
0.6458395379525969
 40
0.7529260961864806
 40
0.8600126490584639
 40
0.9999999999999998
 40
0.9999999999999998
 40
0.9999999999999998
 40
0.9999999999999998
 10
-365.4618435659773
 20
767.403817704393
 30
0.0
 10
-366.5252064106633
 20
767.7939322416902
 30
0.0
 10
-368.6518950356129
 20
768.5741477185239
 30
0.0
 10
-372.1375172059183
 20
769.3420364325756
 30
0.0
 10
-375.7208382185997
 20
769.7776800527076
 30
0.0
 10
-379.3198812966273
 20
769.8622906194604
 30
0.0
 10
-382.820370886844
 20
769.5949254623391
 30
0.0
 10
-386.1311958852685
 20
769.0068933316624
 30
0.0
 10
-389.1387599419162
 20
768.1062329322444
 30
0.0
 10
-392.0974164740675
 20
766.8369827879027
 30
0.0
 10
-393.6254086818538
 20
765.6935680086696
 30
0.0
 10
-394.4911398583362
 20
765.0457310517698
 30
0.0
  0
SPLINE
  5
26F81
330
2
100
AcDbEntity
  8
0
  6
Continuous
 62
     7
370
    25
100
AcDbSpline
210
0.0
220
0.0
230
1.0
 70
     8
 71
     3
 72
    16
 73
    12
 74
     0
 42
0.00000001
 43
0.0000000001
 40
0.0
 40
0.0
 40
0.0
 40
0.0
 40
0.1077763403520507
 40
0.2155489240723606
 40
0.32334936004404
 40
0.4311477879825832
 40
0.5384939184163119
 40
0.6458395379526062
 40
0.7529260961864891
 40
0.8600126490584646
 40
1.0
 40
1.0
 40
1.0
 40
1.0
 10
-429.2146029478757
 20
712.1923085183151
 30
0.0
 10
-430.2185883249838
 20
712.633845450931
 30
0.0
 10
-432.2265240844696
 20
713.5169039260379
 30
0.0
 10
-434.782490915086
 20
715.0898977810298
 30
0.0
 10
-436.8927692709546
 20
716.8012337628121
 30
0.0
 10
-438.4855571585393
 20
718.6233122909734
 30
0.0
 10
-439.4994345898531
 20
720.5094164328033
 30
0.0
 10
-439.9326335223069
 20
722.4134815778643
 30
0.0
 10
-439.736651336933
 20
724.2871736062355
 30
0.0
 10
-438.9191191423065
 20
726.2881988287777
 30
0.0
 10
-437.6896009506859
 20
727.5328581066174
 30
0.0
 10
-436.9929794462684
 20
728.2380582610553
 30
0.0
  0
SPLINE
  5
26F82
330
2
100
AcDbEntity
  8
0
  6
Continuous
 62
     7
370
    25
100
AcDbSpline
210
0.0
220
0.0
230
1.0
 70
     8
 71
     3
 72
    16
 73
    12
 74
     0
 42
0.00000001
 43
0.0000000001
 40
0.0
 40
0.0
 40
0.0
 40
0.0
 40
0.0950975473416451
 40
0.1930058708147271
 40
0.294338385636278
 40
0.3997282589045246
 40
0.509818141344558
 40
0.6231400339952549
 40
0.7422189359527768
 40
0.8676465680751766
 40
1.0
 40
1.0
 40
1.0
 40
1.0
 10
-340.2627270369815
 20
651.2297032314032
 30
0.0
 10
-342.6276848916251
 20
653.8873127362046
 30
0.0
 10
-347.4275011112336
 20
659.2810820930176
 30
0.0
 10
-355.3152141776059
 20
666.934791490746
 30
0.0
 10
-363.839678499345
 20
674.3743131562271
 30
0.0
 10
-373.0690557977194
 20
681.541647902825
 30
0.0
 10
-382.9492559360047
 20
688.3846954982908
 30
0.0
 10
-393.4934502191486
 20
694.8944371901508
 30
0.0
 10
-404.7140392955768
 20
701.0510699000008
 30
0.0
 10
-416.6859474387871
 20
706.9241026935734
 30
0.0
 10
-424.9642467985199
 20
710.4050655849427
 30
0.0
 10
-429.2146029478757
 20
712.1923085183151
 30
0.0
  0
SPLINE
  5
26F83
330
2
100
AcDbEntity
  8
0
  6
Continuous
 62
     7
370
    25
100
AcDbSpline
210
0.0
220
0.0
230
1.0
 70
     8
 71
     3
 72
    17
 73
    13
 74
     0
 42
0.00000001
 43
0.0000000001
 40
0.0
 40
0.0
 40
0.0
 40
0.0
 40
0.0629929770310553
 40
0.126064556297413
 40
0.1883383926973175
 40
0.2506929969304591
 40
0.3541462614227069
 40
0.4577982328023391
 40
0.6109535934641955
 40
0.7642276292948952
 40
0.8821317077696242
 40
1.0
 40
1.0
 40
1.0
 40
1.0
 10
-311.2334307446225
 20
634.7873772200967
 30
0.0
 10
-311.6992461188735
 20
634.4568894544972
 30
0.0
 10
-312.6314581088256
 20
633.7955015427573
 30
0.0
 10
-314.3016088284671
 20
633.4140265516915
 30
0.0
 10
-316.07764471454
 20
633.4450876271104
 30
0.0
 10
-318.3272482383535
 20
633.91964650781
 30
0.0
 10
-321.060805708405
 20
635.0176481280425
 30
0.0
 10
-324.7387365599861
 20
637.1191802242226
 30
0.0
 10
-328.9316885343502
 20
640.1446055689302
 30
0.0
 10
-333.1882553331862
 20
643.8461667191123
 30
0.0
 10
-336.9999761125914
 20
647.5637285799357
 30
0.0
 10
-339.1752534522474
 20
650.0078353388879
 30
0.0
 10
-340.2627270369815
 20
651.2297032314032
 30
0.0
  0
LINE
  5
26F84
330
2
100
AcDbEntity
  8
0
  6
Continuous
 62
     7
370
    25
100
AcDbLine
 10
-487.4991301524263
 20
704.4692126775537
 30
0.0
 11
-676.0789391355813
 21
758.9075144176182
 31
0.0
  0
LINE
  5
26F85
330
2
100
AcDbEntity
  8
0
  6
Continuous
 62
     7
370
    25
100
AcDbLine
 10
-318.7045944461194
 20
465.5694512614008
 30
0.0
 11
-537.3991135320468
 21
528.7011210105514
 31
0.0
  0
SPLINE
  5
26F86
330
2
100
AcDbEntity
  8
0
  6
Continuous
 62
     7
370
    25
100
AcDbSpline
210
0.0
220
0.0
230
1.0
 70
     8
 71
     3
 72
    28
 73
    24
 74
     0
 42
0.00000001
 43
0.0000000001
 40
0.0
 40
0.0
 40
0.0
 40
0.0
 40
0.0448304675650102
 40
0.088864223675248
 40
0.1323874677778567
 40
0.175618544383378
 40
0.2187114158121497
 40
0.271360178017933
 40
0.3240199894456346
 40
0.3766809265122253
 40
0.4292726180298015
 40
0.4816896947756189
 40
0.5338169035748233
 40
0.5855544584354142
 40
0.636844394074932
 40
0.6876984693861314
 40
0.7382274331381257
 40
0.780264016715432
 40
0.8224575098577838
 40
0.8651075024019698
 40
0.9085963585595816
 40
0.9533846555858202
 40
1.0
 40
1.0
 40
1.0
 40
1.0
 10
-537.3991135320468
 20
528.7011210105514
 30
0.0
 10
-536.7714991121742
 20
531.2707248825069
 30
0.0
 10
-535.5274240172658
 20
536.3642665214451
 30
0.0
 10
-534.8302112474806
 20
544.4825661735794
 30
0.0
 10
-534.9646164288389
 20
552.7545656258874
 30
0.0
 10
-535.9606159517063
 20
561.1602743499518
 30
0.0
 10
-537.8787760553486
 20
570.251300315451
 30
0.0
 10
-540.8827824444397
 20
579.9739278486078
 30
0.0
 10
-545.1033434320106
 20
590.2037787133118
 30
0.0
 10
-550.256678065391
 20
600.1986501767587
 30
0.0
 10
-556.2539750812517
 20
609.8446429492165
 30
0.0
 10
-563.007606260414
 20
619.0282630570812
 30
0.0
 10
-570.4306659080924
 20
627.6355481132279
 30
0.0
 10
-578.436947322885
 20
635.5520860440637
 30
0.0
 10
-586.9410359986131
 20
642.6627290039645
 30
0.0
 10
-595.8575065991604
 20
648.8509964936004
 30
0.0
 10
-604.590900550781
 20
653.7139485873597
 30
0.0
 10
-612.9954813669719
 20
657.3397283685007
 30
0.0
 10
-620.9875558613771
 20
659.8612563475986
 30
0.0
 10
-629.0428107176002
 20
661.4400533344896
 30
0.0
 10
-637.0962813567736
 20
661.9825405766358
 30
0.0
 10
-645.1372426980262
 20
661.5074644035303
 30
0.0
 10
-650.2132187599938
 20
660.2631152937739
 30
0.0
 10
-652.8019380783807
 20
659.6285042278595
 30
0.0
  0
SPLINE
  5
26F87
330
2
100
AcDbEntity
  8
0
  6
Continuous
 62
     7
370
    25
100
AcDbSpline
210
0.0
220
0.0
230
1.0
 70
     8
 71
     3
 72
    10
 73
     6
 74
     0
 42
0.00000001
 43
0.0000000001
 40
0.0
 40
0.0
 40
0.0
 40
0.0
 40
0.3192194967874924
 40
0.6522464195597499
 40
1.0
 40
1.0
 40
1.0
 40
1.0
 10
-652.8019380783807
 20
659.6285042278595
 30
0.0
 10
-655.2073066881282
 20
659.5351617087526
 30
0.0
 10
-660.1220850121283
 20
659.3444392607296
 30
0.0
 10
-667.9544738626214
 20
660.2536847210303
 30
0.0
 10
-673.3320083991593
 20
661.4035331153623
 30
0.0
 10
-676.0789391355813
 20
661.9908940844344
 30
0.0
  0
LINE
  5
26F88
330
2
100
AcDbEntity
  8
0
  6
Continuous
 62
     7
370
    25
100
AcDbLine
 10
-676.0789391355813
 20
758.9075144176182
 30
0.0
 11
-668.1452624125046
 21
765.7782800052268
 31
0.0
  0
LINE
  5
26F89
330
2
100
AcDbEntity
  8
0
  6
Continuous
 62
     7
370
    25
100
AcDbLine
 10
-668.1452624125046
 20
765.7782800052268
 30
0.0
 11
-662.0106502807086
 21
764.007370022388
 31
0.0
  0
ARC
  5
26F8A
330
2
100
AcDbEntity
  8
0
  6
Continuous
 62
     7
370
    25
100
AcDbCircle
 10
-660.2792624160258
 20
769.4646821977475
 30
0.0
 40
5.725378600342308
100
AcDbArc
 50
252.3978397297127
 51
302.8636406951495
  0
LINE
  5
26F8B
330
2
100
AcDbEntity
  8
0
  6
Continuous
 62
     7
370
    25
100
AcDbLine
 10
-657.1724342319967
 20
764.6555680639239
 30
0.0
 11
-653.6306142663315
 21
767.722874129822
 31
0.0
  0
LWPOLYLINE
  5
26F8C
330
2
100
AcDbEntity
  8
0
  6
Continuous
 62
     7
370
    25
100
AcDbPolyline
 90
        9
 70
   128
 43
0.0
 10
-653.6306142663315
 20
767.722874129822
 10
-653.3440642934965
 20
768.0390887632563
 10
-653.1864011273537
 20
768.377178984404
 10
-653.1636836749747
 20
768.7241521756869
 10
-653.2767849553339
 20
769.0666743519487
 10
-653.5213585496133
 20
769.3915825780385
 10
-653.8880056317606
 20
769.6863908130313
 10
-654.3626361600366
 20
769.9397697417897
 10
-654.9270103493908
 20
770.1419821541841
  0
LINE
  5
26F8D
330
2
100
AcDbEntity
  8
0
  6
Continuous
 62
     7
370
    25
100
AcDbLine
 10
-654.9270103493908
 20
770.1419821541841
 30
0.0
 11
-661.0616224811868
 21
771.9128921370105
 31
0.0
  0
LINE
  5
26F8E
330
2
100
AcDbEntity
  8
0
  6
Continuous
 62
     7
370
    25
100
AcDbLine
 10
-661.0616224811868
 20
771.9128921370105
 30
0.0
 11
-653.1279457580979
 21
778.783657724619
 31
0.0
  0
LWPOLYLINE
  5
26F8F
330
2
100
AcDbEntity
  8
0
  6
Continuous
 62
     7
370
    25
100
AcDbPolyline
 90
       12
 70
   128
 43
0.0
 10
-653.1279457580979
 20
778.783657724619
 10
-650.400654896795
 20
778.1212396803789
 10
-647.5125800903352
 20
777.6596310756401
 10
-644.5225142133105
 20
777.4082289304096
 10
-641.4913263842962
 20
777.3721510674021
 10
-638.4807228463048
 20
777.5521319278323
 10
-635.5519908054811
 20
777.944507620414
 10
-632.7647508004251
 20
778.5412905075845
 10
-630.1757429998795
 20
779.3303318107289
 10
-627.8376721366172
 20
780.2955689243173
 10
-625.7981345909363
 20
781.417352404244
 10
-624.0986494657637
 20
782.6728459737969
  0
LINE
  5
26F90
330
2
100
AcDbEntity
  8
0
  6
Continuous
 62
     7
370
    25
100
AcDbLine
 10
-581.5968098778315
 20
819.4805187645236
 30
0.0
 11
-624.0986494657637
 21
782.6728459737969
 31
0.0
  0
LWPOLYLINE
  5
26F91
330
2
100
AcDbEntity
  8
0
  6
Continuous
 62
     7
370
    25
100
AcDbPolyline
 90
       12
 70
   128
 43
0.0
 10
-589.3751863761994
 20
833.9951669106847
 10
-586.8641992370941
 20
833.1454243481045
 10
-584.6206322772647
 20
832.125655575264
 10
-582.6901580500636
 20
830.9566201436267
 10
-581.1120754437872
 20
829.6621162433538
 10
-579.9185096694582
 20
828.2684962408259
 10
-579.1337582842576
 20
826.8041302204203
 10
-578.7737965633972
 20
825.2988284514245
 10
-578.8459522894497
 20
823.7832345369174
 10
-579.348756579886
 20
822.2882015983987
 10
-580.271973789376
 20
820.844164195175
 10
-581.5968098778315
 20
819.4805187645236
  0
LINE
  5
26F92
330
2
100
AcDbEntity
  8
0
  6
Continuous
 62
     7
370
    25
100
AcDbLine
 10
-581.4415096531229
 20
840.8659324982933
 30
0.0
 11
-589.3751863761994
 21
833.9951669106847
 31
0.0
  0
LINE
  5
26F93
330
2
100
AcDbEntity
  8
0
  6
Continuous
 62
     7
370
    25
100
AcDbLine
 10
-575.3068975213268
 20
839.0950225154668
 30
0.0
 11
-581.4415096531229
 21
840.8659324982933
 31
0.0
  0
ARC
  5
26F94
330
2
100
AcDbEntity
  8
0
  6
Continuous
 62
     7
370
    25
100
AcDbCircle
 10
-573.575509656644
 20
844.5523346908139
 30
0.0
 40
5.725378600342807
100
AcDbArc
 50
252.397839729717
 51
302.8636406951504
  0
LINE
  5
26F95
330
2
100
AcDbEntity
  8
0
  6
Continuous
 62
     7
370
    25
100
AcDbLine
 10
-566.9268615069496
 20
842.8105266228882
 30
0.0
 11
-570.4686814726024
 21
839.7432205569902
 31
0.0
  0
LWPOLYLINE
  5
26F96
330
2
100
AcDbEntity
  8
0
  6
Continuous
 62
     7
370
    25
100
AcDbPolyline
 90
        9
 70
   128
 43
0.0
 10
-568.2232575900211
 20
845.2296346472381
 10
-567.6588834006548
 20
845.0274222348561
 10
-567.1842528723788
 20
844.774043306098
 10
-566.8176057902191
 20
844.479235071105
 10
-566.5730321959522
 20
844.1543268450274
 10
-566.4599309155931
 20
843.8118046687657
 10
-566.4826483679717
 20
843.4648314774831
 10
-566.6403115341146
 20
843.1267412563229
 10
-566.9268615069496
 20
842.8105266228882
  0
LINE
  5
26F97
330
2
100
AcDbEntity
  8
0
  6
Continuous
 62
     7
370
    25
100
AcDbLine
 10
-574.3578697218048
 20
847.0005446300771
 30
0.0
 11
-568.2232575900211
 21
845.2296346472381
 31
0.0
  0
LINE
  5
26F98
330
2
100
AcDbEntity
  8
0
  6
Continuous
 62
     7
370
    25
100
AcDbLine
 10
-566.4241929987159
 20
853.8713102176732
 30
0.0
 11
-574.3578697218048
 21
847.0005446300771
 31
0.0
  0
LINE
  5
26F99
330
2
100
AcDbEntity
  8
0
  6
Continuous
 62
     7
370
    25
100
AcDbLine
 10
-377.844384015561
 20
799.4330084776087
 30
0.0
 11
-566.4241929987159
 21
853.8713102176732
 31
0.0
  0
LWPOLYLINE
  5
26F9A
330
2
100
AcDbEntity
  8
0
  6
Continuous
 62
     7
370
    25
100
AcDbPolyline
 90
       12
 70
   128
 43
0.0
 10
-432.942577015635
 20
788.8369623485066
 10
-430.4315898765296
 20
787.9872197859265
 10
-428.1880229166879
 20
786.967451013086
 10
-426.2575486895114
 20
785.7984155814486
 10
-424.6794660832103
 20
784.503911681176
 10
-423.4859003088813
 20
783.1102916786478
 10
-422.7011489237055
 20
781.6459256582422
 10
-422.3411872028451
 20
780.1406238892464
 10
-422.4133429288728
 20
778.6250299747393
 10
-422.9161472193339
 20
777.1299970362207
 10
-423.8393644287991
 20
775.685959632997
 10
-425.164200517267
 20
774.3223142023457
  0
LWPOLYLINE
  5
26F9B
330
2
100
AcDbEntity
  8
0
  6
Continuous
 62
     7
370
    25
100
AcDbPolyline
 90
       12
 70
   128
 43
0.0
 10
-550.9237492188881
 20
810.6259688503669
 10
-549.2242640937157
 20
811.8814624199197
 10
-547.1847265480346
 20
813.0032458998343
 10
-544.8466556847725
 20
813.9684830134227
 10
-542.2576478842268
 20
814.7575243165794
 10
-539.4704078791585
 20
815.35430720375
 10
-536.5416758383471
 20
815.7466828963441
 10
-533.5310723003557
 20
815.9266637567743
 10
-530.4998844713415
 20
815.8905858937542
 10
-527.5098185943168
 20
815.6391837485239
 10
-524.6217437878569
 20
815.1775751437849
 10
-521.8944529265541
 20
814.5151570995572
  0
LWPOLYLINE
  5
26F9C
330
2
100
AcDbEntity
  8
0
  6
Continuous
 62
     7
370
    25
100
AcDbPolyline
 90
       12
 70
   128
 43
0.0
 10
-593.4255888068206
 20
773.8182960596526
 10
-594.7504248952761
 20
772.4546506289887
 10
-595.6736421047661
 20
771.0106132257649
 10
-596.1764463952024
 20
769.5155802872466
 10
-596.2486021212547
 20
767.9999863727519
 10
-595.8886404003943
 20
766.4946846037436
 10
-595.1038890151937
 20
765.0303185833381
 10
-593.9103232408648
 20
763.63669858081
 10
-592.3322406345883
 20
762.3421946805373
 10
-590.4017664073872
 20
761.1731592488998
 10
-588.1581994475457
 20
760.1533904760718
 10
-585.6472123084525
 20
759.303647913467
  0
LWPOLYLINE
  5
26F9D
330
2
100
AcDbEntity
  8
0
  6
Continuous
 62
     7
370
    25
100
AcDbPolyline
 90
       12
 70
   128
 43
0.0
 10
-496.6953363975334
 20
733.6254531624409
 10
-493.9680455362181
 20
732.9630351182008
 10
-491.0799707297831
 20
732.5014265134621
 10
-488.0899048527338
 20
732.2500243682315
 10
-485.0587170237442
 20
732.213946505224
 10
-482.0481134857526
 20
732.3939273656542
 10
-479.1193814449167
 20
732.7863030582359
 10
-476.3321414398483
 20
733.3830859454065
 10
-473.7431336393274
 20
734.1721272485508
 10
-471.4050627760404
 20
735.137364362139
 10
-469.3655252303718
 20
736.259147842066
 10
-467.6660401051993
 20
737.514641411619
  0
LINE
  5
26F9E
330
2
100
AcDbEntity
  8
0
  6
Continuous
 62
     7
370
    25
100
AcDbLine
 10
-570.3329226307064
 20
603.6441555238834
 30
0.0
 11
-601.0059832896375
 21
612.4987054380277
 31
0.0
  0
LINE
  5
26F9F
330
2
100
AcDbEntity
  8
0
  6
Continuous
 62
     7
370
    25
100
AcDbLine
 10
-232.9100758733147
 20
531.7096577868966
 30
0.0
 11
-296.648976964361
 21
476.5101502327389
 31
0.0
  0
LINE
  5
26FA0
330
2
100
AcDbEntity
  8
0
  6
Continuous
 62
     7
370
    25
100
AcDbLine
 10
-297.3204421213484
 20
470.9490324221937
 30
0.0
 11
-296.648976964361
 21
476.5101502327389
 31
0.0
  0
LINE
  5
26FA1
330
2
100
AcDbEntity
  8
0
  6
Continuous
 62
     7
370
    25
100
AcDbLine
 10
-232.9100758733147
 20
531.7096577868966
 30
0.0
 11
-233.56768273945
 21
526.1605416082593
 31
0.0
  0
SPLINE
  5
26FA2
330
2
100
AcDbEntity
  8
0
  6
Continuous
 62
     7
370
    25
100
AcDbSpline
210
0.0
220
0.0
230
1.0
 70
     8
 71
     3
 72
    17
 73
    13
 74
     0
 42
0.00000001
 43
0.0000000001
 40
0.0
 40
0.0
 40
0.0
 40
0.0
 40
0.1163577119684964
 40
0.2303572596509967
 40
0.3425261913232603
 40
0.4533354279057087
 40
0.5633448088592564
 40
0.6497322814201909
 40
0.7365203685719309
 40
0.8238480741868293
 40
0.9117022002030401
 40
1.0
 40
1.0
 40
1.0
 40
1.0
 10
-233.56768273945
 20
526.1605416082593
 30
0.0
 10
-234.5357994765841
 20
519.2979772729478
 30
0.0
 10
-236.4524126070481
 20
505.7119288046481
 30
0.0
 10
-240.1576950887306
 20
485.8897161197575
 30
0.0
 10
-243.9115713414665
 20
466.4440517320691
 30
0.0
 10
-247.3854912805635
 20
447.1166018017056
 30
0.0
 10
-249.9543303267844
 20
428.9986372977725
 30
0.0
 10
-251.436881292983
 20
411.9427322659635
 30
0.0
 10
-251.9792926272306
 20
395.9691398161411
 30
0.0
 10
-252.0074553155241
 20
379.750902914538
 30
0.0
 10
-251.7372616207997
 20
363.3563633389532
 30
0.0
 10
-251.5732349889705
 20
352.4003447017414
 30
0.0
 10
-251.4910151061597
 20
346.908537923393
 30
0.0
  0
LINE
  5
26FA3
330
2
100
AcDbEntity
  8
0
  6
Continuous
 62
     7
370
    25
100
AcDbLine
 10
-251.4910151061597
 20
346.908537923393
 30
0.0
 11
-315.2437744880582
 21
291.6970287373151
 31
0.0
  0
SPLINE
  5
26FA4
330
2
100
AcDbEntity
  8
0
  6
Continuous
 62
     7
370
    25
100
AcDbSpline
210
0.0
220
0.0
230
1.0
 70
     8
 71
     3
 72
    17
 73
    13
 74
     0
 42
0.00000001
 43
0.0000000001
 40
0.0
 40
0.0
 40
0.0
 40
0.0
 40
0.0936357843307418
 40
0.1867659893980234
 40
0.2792972697002213
 40
0.371233899863297
 40
0.4628109954330001
 40
0.5545455830016265
 40
0.663444239326548
 40
0.7736798367699725
 40
0.885697562301391
 40
1.0
 40
1.0
 40
1.0
 40
1.0
 10
-315.2437744880582
 20
291.6970287373151
 30
0.0
 10
-315.3323152980252
 20
297.5212103216955
 30
0.0
 10
-315.5089188485931
 20
309.1381262669776
 30
0.0
 10
-315.7836494524272
 20
326.5138018742594
 30
0.0
 10
-315.691790780272
 20
343.6820502865172
 30
0.0
 10
-314.9610278519879
 20
360.5594073860565
 30
0.0
 10
-313.2776092869513
 20
377.0454964696223
 30
0.0
 10
-310.734602189831
 20
394.2331001788422
 30
0.0
 10
-307.4652679014415
 20
412.2650706688037
 30
0.0
 10
-303.7771732198641
 20
431.3748446292565
 30
0.0
 10
-300.1494910418972
 20
450.8576528494456
 30
0.0
 10
-298.2697836715299
 20
464.2069851956303
 30
0.0
 10
-297.3204421213484
 20
470.9490324221937
 30
0.0
  0
SPLINE
  5
26FA5
330
2
100
AcDbEntity
  8
0
  6
Continuous
 62
     7
370
    25
100
AcDbSpline
210
0.0
220
0.0
230
1.0
 70
     8
 71
     3
 72
    17
 73
    13
 74
     0
 42
0.00000001
 43
0.0000000001
 40
0.0
 40
0.0
 40
0.0
 40
0.0
 40
0.1066574784761726
 40
0.213304505462459
 40
0.3202500967866837
 40
0.427782050533074
 40
0.5357844085978912
 40
0.6439287181021321
 40
0.751866355097013
 40
0.8593904995404631
 40
0.9664867618700444
 40
0.9999999999999998
 40
0.9999999999999998
 40
0.9999999999999998
 40
0.9999999999999998
 10
-319.6068994884023
 20
456.6280060996161
 30
0.0
 10
-319.3039508497748
 20
456.9344540404225
 30
0.0
 10
-318.6980832587716
 20
457.5473198928837
 30
0.0
 10
-317.8208570652442
 20
458.9949730106722
 30
0.0
 10
-317.0935764861318
 20
460.6424218439192
 30
0.0
 10
-316.5950482531717
 20
462.3556864524972
 30
0.0
 10
-316.3872537621594
 20
463.9309902273264
 30
0.0
 10
-316.4966277975895
 20
465.1889404616444
 30
0.0
 10
-316.9101033602657
 20
465.9828166598058
 30
0.0
 10
-317.5759132034743
 20
466.2166495043392
 30
0.0
 10
-318.2236886152255
 20
465.9614701479884
 30
0.0
 10
-318.6120349575514
 20
465.6449027642012
 30
0.0
 10
-318.7045944461194
 20
465.5694512614008
 30
0.0
  0
LINE
  5
26FA6
330
2
100
AcDbEntity
  8
0
  6
Continuous
 62
     7
370
    25
100
AcDbLine
 10
-319.6068994884023
 20
456.6280060996161
 30
0.0
 11
-476.7040448525063
 21
501.9780456895315
 31
0.0
  0
SPLINE
  5
26FA7
330
2
100
AcDbEntity
  8
0
  6
Continuous
 62
     7
370
    25
100
AcDbSpline
210
0.0
220
0.0
230
1.0
 70
     8
 71
     3
 72
    14
 73
    10
 74
     0
 42
0.00000001
 43
0.0000000001
 40
0.0
 40
0.0
 40
0.0
 40
0.0
 40
0.0782494127990578
 40
0.2519313290593769
 40
0.4321160659892759
 40
0.6146617127996614
 40
0.7918884642603136
 40
0.9575926669296325
 40
1.0
 40
1.0
 40
1.0
 40
1.0
 10
-535.7877156655331
 20
528.2359505144238
 30
0.0
 10
-535.7889205514045
 20
528.0958208318509
 30
0.0
 10
-535.7927997944845
 20
527.6446601661335
 30
0.0
 10
-536.1992133625709
 20
526.4620463086377
 30
0.0
 10
-536.9662666154105
 20
524.8640803345757
 30
0.0
 10
-538.0218166724376
 20
523.1754554487983
 30
0.0
 10
-539.1661404595991
 20
521.6729213221344
 30
0.0
 10
-539.9848205054595
 20
520.7907576160506
 30
0.0
 10
-540.3688136556243
 20
520.4487591492174
 30
0.0
 10
-540.4470607617128
 20
520.3790693896328
 30
0.0
  0
LINE
  5
26FA8
330
2
100
AcDbEntity
  8
0
  6
Continuous
 62
     7
370
    25
100
AcDbLine
 10
-212.4499954748166
 20
557.5886332546449
 30
0.0
 11
-318.7045944461194
 21
465.5694512614008
 31
0.0
  0
SPLINE
  5
26FA9
330
2
100
AcDbEntity
  8
0
  6
Continuous
 62
     7
370
    25
100
AcDbSpline
210
0.0
220
0.0
230
1.0
 70
     8
 71
     3
 72
    17
 73
    13
 74
     0
 42
0.00000001
 43
0.0000000001
 40
0.0
 40
0.0
 40
0.0
 40
0.0
 40
0.1066574783595
 40
0.2133045053523311
 40
0.3202500966831153
 40
0.4277820504361002
 40
0.5357844085075359
 40
0.6439287180184281
 40
0.7518663550199234
 40
0.8593904994699684
 40
0.9664867618061164
 40
1.0
 40
1.0
 40
1.0
 40
1.0
 10
-213.3523005174336
 20
548.6471880865889
 30
0.0
 10
-213.6442110881967
 20
548.4384728365796
 30
0.0
 10
-214.2280036254084
 20
548.0210627885751
 30
0.0
 10
-214.9351214125593
 20
548.0966337735902
 30
0.0
 10
-215.4171688985866
 20
548.6967737800794
 30
0.0
 10
-215.6174094003212
 20
549.8048869132995
 30
0.0
 10
-215.5139747133039
 20
551.2898124465605
 30
0.0
 10
-215.1163169113012
 20
552.986865133139
 30
0.0
 10
-214.467782116183
 20
554.7004692783374
 30
0.0
 10
-213.6423309707428
 20
556.2257720297246
 30
0.0
 10
-212.9356212904888
 20
557.1436111520792
 30
0.0
 10
-212.5434634144675
 20
557.5029802731079
 30
0.0
 10
-212.4499954748166
 20
557.5886332546449
 30
0.0
  0
LINE
  5
26FAA
330
2
100
AcDbEntity
  8
0
  6
Continuous
 62
     7
370
    25
100
AcDbLine
 10
-213.3523005174336
 20
548.6471880865889
 30
0.0
 11
-319.6068994884023
 21
456.6280060996161
 31
0.0
  0
LINE
  5
26FAB
330
2
100
AcDbEntity
  8
0
  6
Continuous
 62
     7
370
    25
100
AcDbLine
 10
-764.3810557815011
 20
659.6610264790617
 30
0.0
 11
-549.0355786991807
 21
597.4961418979348
 31
0.0
  0
LINE
  5
26FAC
330
2
100
AcDbEntity
  8
0
  6
Continuous
 62
     7
370
    25
100
AcDbLine
 10
-764.3810557815011
 20
659.6610264790617
 30
0.0
 11
-821.0501752320816
 21
610.5841294247674
 31
0.0
  0
LINE
  5
26FAD
330
2
100
AcDbEntity
  8
0
  6
Continuous
 62
     7
370
    25
100
AcDbLine
 10
-213.3523005174336
 20
548.6471880865889
 30
0.0
 11
-215.4556915575564
 21
549.2543847782003
 31
0.0
  0
LINE
  5
26FAE
330
2
100
AcDbEntity
  8
0
  6
Continuous
 62
     7
370
    25
100
AcDbLine
 10
-764.3810557815011
 20
659.6610264790617
 30
0.0
 11
-766.1834437557606
 21
650.9794128724409
 31
0.0
  0
LINE
  5
26FAF
330
2
100
AcDbEntity
  8
0
  6
Continuous
 62
     7
370
    25
100
AcDbLine
 10
-766.1834437557606
 20
650.9794128724409
 30
0.0
 11
-543.8748852083201
 21
586.8044598121802
 31
0.0
  0
SPLINE
  5
26FB0
330
2
100
AcDbEntity
  8
0
  6
Continuous
 62
     7
370
    25
100
AcDbSpline
210
0.0
220
0.0
230
1.0
 70
     8
 71
     3
 72
    17
 73
    13
 74
     0
 42
0.00000001
 43
0.0000000001
 40
0.0
 40
0.0
 40
0.0
 40
0.0
 40
0.1042997999494443
 40
0.2085485783987319
 40
0.3142207946298234
 40
0.4225168971830398
 40
0.5326235308652635
 40
0.6429994168021125
 40
0.7523487904967608
 40
0.8601058438214554
 40
0.9663762242006152
 40
1.0
 40
1.0
 40
1.0
 40
1.0
 10
-822.852563206329
 20
601.9025158181465
 30
0.0
 10
-822.5477703882507
 20
602.2018090107889
 30
0.0
 10
-821.9383338509574
 20
602.8002489874767
 30
0.0
 10
-820.9766155769859
 20
604.1875051520161
 30
0.0
 10
-820.1169695510285
 20
605.7686536824635
 30
0.0
 10
-819.4505499847004
 20
607.4349536405829
 30
0.0
 10
-819.0722529875493
 20
608.9898582735473
 30
0.0
 10
-819.0369931082855
 20
610.2387416133915
 30
0.0
 10
-819.3448741321082
 20
611.0208249585952
 30
0.0
 10
-819.9443224752904
 20
611.2400501743626
 30
0.0
 10
-820.5695696329062
 20
610.9779090854931
 30
0.0
 10
-820.9570449444466
 20
610.6604348467797
 30
0.0
 10
-821.0501752320816
 20
610.5841294247674
 30
0.0
  0
LINE
  5
26FB1
330
2
100
AcDbEntity
  8
0
  6
Continuous
 62
     7
370
    25
100
AcDbLine
 10
-766.1834437557606
 20
650.9794128724409
 30
0.0
 11
-822.852563206329
 21
601.9025158181465
 31
0.0
  0
SPLINE
  5
26FB2
330
2
100
AcDbEntity
  8
0
  6
Continuous
 62
     7
370
    25
100
AcDbSpline
210
0.0
220
0.0
230
1.0
 70
     8
 71
     3
 72
    14
 73
    10
 74
     0
 42
0.00000001
 43
0.0000000001
 40
0.0
 40
0.0
 40
0.0
 40
0.0
 40
0.0932260583198275
 40
0.2645180186540106
 40
0.4367994608451191
 40
0.6088887773272269
 40
0.7795886861798459
 40
0.9483167189549007
 40
0.9999999999999998
 40
0.9999999999999998
 40
0.9999999999999998
 40
0.9999999999999998
 10
-990.3620424103721
 20
659.4602554709543
 30
0.0
 10
-990.2533019694585
 20
659.2556244386855
 30
0.0
 10
-989.9447637078068
 20
658.6750078579811
 30
0.0
 10
-989.7265814202141
 20
657.2620085468347
 30
0.0
 10
-989.737140724193
 20
655.4679547318949
 30
0.0
 10
-990.0732031188423
 20
653.6469800089216
 30
0.0
 10
-990.6812618447336
 20
652.0520814026074
 30
0.0
 10
-991.3068043249692
 20
651.1114050486636
 30
0.0
 10
-991.6920238263296
 20
650.7525028171511
 30
0.0
 10
-991.7823522555234
 20
650.6683454089945
 30
0.0
  0
LINE
  5
26FB3
330
2
100
AcDbEntity
  8
0
  6
Continuous
 62
     7
370
    25
100
AcDbLine
 10
-822.852563206329
 20
601.9025158181465
 30
0.0
 11
-866.2519152209746
 21
614.4308296023016
 31
0.0
  0
SPLINE
  5
26FB4
330
2
100
AcDbEntity
  8
0
  6
Continuous
 62
     7
370
    25
100
AcDbSpline
210
0.0
220
0.0
230
1.0
 70
     8
 71
     3
 72
    18
 73
    14
 74
     0
 42
0.00000001
 43
0.0000000001
 40
0.0
 40
0.0
 40
0.0
 40
0.0
 40
0.158036073106025
 40
0.3166916491809006
 40
0.4750597829182933
 40
0.6413412760738357
 40
0.7577256452217753
 40
0.810862362414808
 40
0.8639469250441187
 40
0.924401713746313
 40
0.9621634552349057
 40
0.9899085838348815
 40
1.0
 40
1.0
 40
1.0
 40
1.0
 10
-340.2627270369815
 20
169.5010261182661
 30
0.0
 10
-338.7423283752708
 20
171.7444908209584
 30
0.0
 10
-335.6955710740792
 20
176.240214630171
 30
0.0
 10
-331.1388765921225
 20
183.9832617958919
 30
0.0
 10
-326.6018640110924
 20
192.3497819679553
 30
0.0
 10
-322.5659390202625
 20
200.415226181721
 30
0.0
 10
-319.4730638990299
 20
206.7877428464107
 30
0.0
 10
-317.3628650438904
 20
211.0863755786926
 30
0.0
 10
-315.7194258231965
 20
214.3215485836469
 30
0.0
 10
-314.1275392777998
 20
217.2573314897403
 30
0.0
 10
-312.6766725997027
 20
219.5288521390169
 30
0.0
 10
-311.7670158327825
 20
220.6589081098762
 30
0.0
 10
-311.3457791333253
 20
221.0452762097839
 30
0.0
 10
-311.2334307446225
 20
221.1483247654401
 30
0.0
  0
SPLINE
  5
26FB5
330
2
100
AcDbEntity
  8
0
  6
Continuous
 62
     7
370
    25
100
AcDbSpline
210
0.0
220
0.0
230
1.0
 70
     8
 71
     3
 72
    11
 73
     7
 74
     0
 42
0.00000001
 43
0.0000000001
 40
0.0
 40
0.0
 40
0.0
 40
0.0
 40
0.0279177011282292
 40
0.463337166428336
 40
0.9046778412479747
 40
0.9999999999999998
 40
0.9999999999999998
 40
0.9999999999999998
 40
0.9999999999999998
 10
-352.6303911269002
 20
155.7052140902121
 30
0.0
 10
-352.4939705668832
 20
155.8102671544008
 30
0.0
 10
-350.2298616625469
 20
157.5537842463327
 30
0.0
 10
-346.413679840022
 20
161.6683573510496
 30
0.0
 10
-342.5520456470719
 20
166.2904444705926
 30
0.0
 10
-340.608024464353
 20
169.0167747875834
 30
0.0
 10
-340.2627270369815
 20
169.5010261182661
 30
0.0
  0
LINE
  5
26FB6
330
2
100
AcDbEntity
  8
0
  6
Continuous
 62
     7
370
    25
100
AcDbLine
 10
-311.2334307446225
 20
221.1483247654401
 30
0.0
 11
-268.7315911566904
 21
257.9559975561669
 31
0.0
  0
SPLINE
  5
26FB7
330
2
100
AcDbEntity
  8
0
  6
Continuous
 62
     7
370
    25
100
AcDbSpline
210
0.0
220
0.0
230
1.0
 70
     8
 71
     3
 72
    19
 73
    15
 74
     0
 42
0.00000001
 43
0.0000000001
 40
0.0
 40
0.0
 40
0.0
 40
0.0
 40
0.0269438732882922
 40
0.0628501813413452
 40
0.0967696052962437
 40
0.1307911128480482
 40
0.2094296855215321
 40
0.2884689843881378
 40
0.3674809844992104
 40
0.5066175493841735
 40
0.6462630441863871
 40
0.7857954165110588
 40
0.924777135775859
 40
1.0
 40
1.0
 40
1.0
 40
1.0
 10
-268.7315911566904
 20
257.9559975561669
 30
0.0
 10
-268.4487897164307
 20
258.1593429450399
 30
0.0
 10
-267.7891176041803
 20
258.6336732103763
 30
0.0
 10
-267.1040352245285
 20
258.5029356996694
 30
0.0
 10
-266.6015455528549
 20
257.9897113542904
 30
0.0
 10
-266.1381275981864
 20
256.8769909835098
 30
0.0
 10
-265.8375332394579
 20
255.0456574744286
 30
0.0
 10
-265.8641077113941
 20
252.3896060279784
 30
0.0
 10
-266.2480367017606
 20
248.8091208273754
 30
0.0
 10
-267.1214572463485
 20
244.3607615484427
 30
0.0
 10
-268.8134311309834
 20
238.9512168713824
 30
0.0
 10
-271.2191274475868
 20
233.3996179344968
 30
0.0
 10
-273.8409540734427
 20
228.6370411529496
 30
0.0
 10
-275.816284841469
 20
225.7325234669312
 30
0.0
 10
-276.509967655083
 20
224.712535304344
 30
0.0
  0
SPLINE
  5
26FB8
330
2
100
AcDbEntity
  8
0
  6
Continuous
 62
     7
370
    25
100
AcDbSpline
210
0.0
220
0.0
230
1.0
 70
     8
 71
     3
 72
    10
 73
     6
 74
     0
 42
0.00000001
 43
0.0000000001
 40
0.0
 40
0.0
 40
0.0
 40
0.0
 40
0.0953221504529942
 40
0.5632046192107503
 40
1.0
 40
1.0
 40
1.0
 40
1.0
 10
-276.509967655083
 20
224.712535304344
 30
0.0
 10
-276.8557977413223
 20
224.2289101677299
 30
0.0
 10
-278.8991119249135
 20
221.3714430458399
 30
0.0
 10
-282.79550543975
 20
216.5228286443017
 30
0.0
 10
-286.8966429035619
 20
212.7396359728116
 30
0.0
 10
-288.8767487512673
 20
210.9130398155532
 30
0.0
  0
LINE
  5
26FB9
330
2
100
AcDbEntity
  8
0
  6
Continuous
 62
     7
370
    25
100
AcDbLine
 10
-875.453833418644
 20
617.0871945765431
 30
0.0
 11
-991.7823522555234
 21
650.6683454089945
 31
0.0
  0
LINE
  5
26FBA
330
2
100
AcDbEntity
  8
0
  6
Continuous
 62
     7
370
    25
100
AcDbLine
 10
-875.453833418644
 20
617.0871945765431
 30
0.0
 11
-875.453833418644
 21
474.316446267039
 31
0.0
  0
LINE
  5
26FBB
330
2
100
AcDbEntity
  8
0
  6
Continuous
 62
     7
370
    25
100
AcDbLine
 10
-916.505366868531
 20
438.7647754351315
 30
0.0
 11
-982.3320944750665
 21
457.7673148869018
 31
0.0
  0
SPLINE
  5
26FBC
330
2
100
AcDbEntity
  8
0
  6
Continuous
 62
     7
370
    25
100
AcDbSpline
210
0.0
220
0.0
230
1.0
 70
     8
 71
     3
 72
    18
 73
    14
 74
     0
 42
0.00000001
 43
0.0000000001
 40
0.0
 40
0.0
 40
0.0
 40
0.0
 40
0.0925360034222599
 40
0.184026329519618
 40
0.2736965004272884
 40
0.3608749870072122
 40
0.4454293309187216
 40
0.5277841051698527
 40
0.6258217465510445
 40
0.7216898869918064
 40
0.815797041222815
 40
0.9084679761540209
 40
0.9999999999999998
 40
0.9999999999999998
 40
0.9999999999999998
 40
0.9999999999999998
 10
-982.3320944750665
 20
457.7673148869018
 30
0.0
 10
-981.5653702721068
 20
463.404606762986
 30
0.0
 10
-980.0405860194276
 20
474.6154878689178
 30
0.0
 10
-978.2281419498554
 20
491.4760396230908
 30
0.0
 10
-976.9862726351824
 20
508.2099136118459
 30
0.0
 10
-976.5381004349649
 20
524.772450326149
 30
0.0
 10
-976.9523500807821
 20
541.116881121689
 30
0.0
 10
-978.1390513388814
 20
558.3392339903253
 30
0.0
 10
-980.117751137309
 20
576.4435154790617
 30
0.0
 10
-982.8110824160573
 20
595.4145210268384
 30
0.0
 10
-985.8239443634289
 20
614.0784095651016
 30
0.0
 10
-988.9422334226983
 20
632.4731639032949
 30
0.0
 10
-990.8395563060953
 20
644.6283363698197
 30
0.0
 10
-991.7823522555234
 20
650.6683454089945
 30
0.0
  0
LINE
  5
26FBD
330
2
100
AcDbEntity
  8
0
  6
Continuous
 62
     7
370
    25
100
AcDbLine
 10
-319.6068994884023
 20
456.628006110118
 30
0.0
 11
-296.648976964361
 21
476.5101502327389
 31
0.0
  0
LINE
  5
26FBE
330
2
100
AcDbEntity
  8
0
  6
Continuous
 62
     7
370
    25
100
AcDbLine
 10
-297.3204421213484
 20
470.9490324221937
 30
0.0
 11
-296.648976964361
 21
476.5101502327389
 31
0.0
  0
SPLINE
  5
26FBF
330
2
100
AcDbEntity
  8
0
  6
Continuous
 62
     7
370
    25
100
AcDbSpline
210
0.0
220
0.0
230
1.0
 70
     8
 71
     3
 72
    17
 73
    13
 74
     0
 42
0.00000001
 43
0.0000000001
 40
0.0
 40
0.0
 40
0.0
 40
0.0
 40
0.0936357843309796
 40
0.1867659893985348
 40
0.2792972697010019
 40
0.371233899864277
 40
0.4628109954339925
 40
0.5545455830024692
 40
0.6634442393271315
 40
0.7736798367702939
 40
0.885697562301501
 40
1.0
 40
1.0
 40
1.0
 40
1.0
 10
-315.2437744879468
 20
291.6970287263061
 30
0.0
 10
-315.3323152978645
 20
297.5212103110329
 30
0.0
 10
-315.5089188483952
 20
309.1381262570199
 30
0.0
 10
-315.7836494523777
 20
326.5138018654027
 30
0.0
 10
-315.6917907804452
 20
343.6820502787861
 30
0.0
 10
-314.9610278524828
 20
360.5594073794758
 30
0.0
 10
-313.2776092876687
 20
377.045496464155
 30
0.0
 10
-310.7346021905731
 20
394.2331001744386
 30
0.0
 10
-307.4652679020847
 20
412.2650706654639
 30
0.0
 10
-303.7771732202847
 20
431.3748446270053
 30
0.0
 10
-300.1494910420703
 20
450.8576528482828
 30
0.0
 10
-298.2697836715918
 20
464.2069851952345
 30
0.0
 10
-297.3204421213484
 20
470.9490324221937
 30
0.0
  0
LINE
  5
26FC0
330
2
100
AcDbEntity
  8
0
  6
Continuous
 62
     7
370
    25
100
AcDbLine
 10
-338.1947678654303
 20
271.8208854193175
 30
0.0
 11
-315.2437744879468
 21
291.6970287263061
 31
0.0
  0
SPLINE
  5
26FC1
330
2
100
AcDbEntity
  8
0
  6
Continuous
 62
     7
370
    25
100
AcDbSpline
210
0.0
220
0.0
230
1.0
 70
     8
 71
     3
 72
    17
 73
    13
 74
     0
 42
0.00000001
 43
0.0000000001
 40
0.0
 40
0.0
 40
0.0
 40
0.0
 40
0.1168624566941707
 40
0.2311502552702521
 40
0.3434546364083255
 40
0.4542746817356976
 40
0.5641779895806569
 40
0.6504040039964134
 40
0.7370037931860952
 40
0.8241533680004941
 40
0.9118472088663787
 40
1.0
 40
1.0
 40
1.0
 40
1.0
 10
-319.6068994884023
 20
456.628006110118
 30
0.0
 10
-320.5272209715188
 20
449.4863891424464
 30
0.0
 10
-322.3475878521055
 20
435.3604959187345
 30
0.0
 10
-326.08999305157
 20
414.8230106159365
 30
0.0
 10
-329.966018290711
 20
394.746623731509
 30
0.0
 10
-333.6250105836789
 20
374.8506540675854
 30
0.0
 10
-336.3822454906816
 20
356.2323527245259
 30
0.0
 10
-338.0358557468862
 20
338.7215173280746
 30
0.0
 10
-338.6651050388762
 20
322.3062468475585
 30
0.0
 10
-338.7230310815774
 20
305.624926813804
 30
0.0
 10
-338.4501414878139
 20
288.7523897436925
 30
0.0
 10
-338.2800403911415
 20
277.4745317287255
 30
0.0
 10
-338.1947678654303
 20
271.8208854193175
 30
0.0
  0
LINE
  5
26FC2
330
2
100
AcDbEntity
  8
0
  6
Continuous
 62
     7
370
    25
100
AcDbLine
 10
-209.9521533515495
 20
551.5918018996712
 30
0.0
 11
-215.0469422226151
 21
553.0625407732617
 31
0.0
  0
LINE
  5
26FC3
330
2
100
AcDbEntity
  8
0
  6
Continuous
 62
     7
370
    25
100
AcDbLine
 10
-232.9100758733147
 20
531.7096577868966
 30
0.0
 11
-209.9521533515495
 21
551.5918018996712
 31
0.0
  0
LINE
  5
26FC4
330
2
100
AcDbEntity
  8
0
  6
Continuous
 62
     7
370
    25
100
AcDbLine
 10
-319.6068994884023
 20
456.628006110118
 30
0.0
 11
-476.7040448525063
 21
501.9780456925681
 31
0.0
  0
LINE
  5
26FC5
330
2
100
AcDbEntity
  8
0
  6
Continuous
 62
     7
370
    25
100
AcDbLine
 10
-338.1947678654303
 20
271.8208854193175
 30
0.0
 11
-476.7040448525063
 21
311.8050696071748
 31
0.0
  0
LINE
  5
26FC6
330
2
100
AcDbEntity
  8
0
  6
Continuous
 62
     7
370
    25
100
AcDbLine
 10
-476.7040448525063
 20
501.9780456925681
 30
0.0
 11
-476.7040448525063
 21
311.8050696071748
 31
0.0
  0
LINE
  5
26FC7
330
2
100
AcDbEntity
  8
0
  6
Continuous
 62
     7
370
    25
100
AcDbLine
 10
-233.56768273945
 20
526.1605416082593
 30
0.0
 11
-232.9100758733147
 21
531.7096577868966
 31
0.0
  0
SPLINE
  5
26FC8
330
2
100
AcDbEntity
  8
0
  6
Continuous
 62
     7
370
    25
100
AcDbSpline
210
0.0
220
0.0
230
1.0
 70
     8
 71
     3
 72
    17
 73
    13
 74
     0
 42
0.00000001
 43
0.0000000001
 40
0.0
 40
0.0
 40
0.0
 40
0.0
 40
0.1168624566934662
 40
0.2311502552692187
 40
0.3434546364073003
 40
0.4542746817349049
 40
0.5641779895802062
 40
0.6504040039961929
 40
0.7370037931860005
 40
0.8241533680004506
 40
0.9118472088663537
 40
0.9999999999999998
 40
0.9999999999999998
 40
0.9999999999999998
 40
0.9999999999999998
 10
-209.9521533515495
 20
551.5918018996712
 30
0.0
 10
-210.8724748351729
 20
544.4501849330881
 30
0.0
 10
-212.6928417167988
 20
530.3242917115532
 30
0.0
 10
-216.4352469155828
 20
509.7868064110067
 30
0.0
 10
-220.3112721543899
 20
489.7104195288674
 30
0.0
 10
-223.9702644468754
 20
469.8144498671084
 30
0.0
 10
-226.7274993535935
 20
451.1961485260776
 30
0.0
 10
-228.3811096097735
 20
433.6853131316178
 30
0.0
 10
-229.0103589018996
 20
417.2700426529694
 30
0.0
 10
-229.0682849447739
 20
400.5887226211076
 30
0.0
 10
-228.7953953511341
 20
383.7161855529011
 30
0.0
 10
-228.6252942544123
 20
372.4383275391834
 30
0.0
 10
-228.5400217286887
 20
366.7846812303939
 30
0.0
  0
SPLINE
  5
26FC9
330
2
100
AcDbEntity
  8
0
  6
Continuous
 62
     7
370
    25
100
AcDbSpline
210
0.0
220
0.0
230
1.0
 70
     8
 71
     3
 72
    17
 73
    13
 74
     0
 42
0.00000001
 43
0.0000000001
 40
0.0
 40
0.0
 40
0.0
 40
0.0
 40
0.093635784330742
 40
0.1867659893980233
 40
0.2792972697002215
 40
0.3712338998632975
 40
0.4628109954330003
 40
0.5545455830016265
 40
0.6634442393265476
 40
0.7736798367699724
 40
0.8856975623013912
 40
1.0
 40
1.0
 40
1.0
 40
1.0
 10
-251.4910151061597
 20
346.908537923393
 30
0.0
 10
-251.5795559161269
 20
352.7327195077859
 30
0.0
 10
-251.7561594666947
 20
364.3496354530555
 30
0.0
 10
-252.0308900705288
 20
381.7253110603374
 30
0.0
 10
-251.9390313983736
 20
398.8935594725951
 30
0.0
 10
-251.2082684700895
 20
415.7709165721343
 30
0.0
 10
-249.5248499050529
 20
432.2570056557125
 30
0.0
 10
-246.9818428079325
 20
449.4446093649201
 30
0.0
 10
-243.7125085195431
 20
467.4765798548817
 30
0.0
 10
-240.0244138379657
 20
486.5863538153345
 30
0.0
 10
-236.3967316599987
 20
506.0691620355237
 30
0.0
 10
-234.5170242896315
 20
519.4184943817083
 30
0.0
 10
-233.56768273945
 20
526.1605416082593
 30
0.0
  0
LINE
  5
26FCA
330
2
100
AcDbEntity
  8
0
  6
Continuous
 62
     7
370
    25
100
AcDbLine
 10
-251.4910151061597
 20
346.908537923393
 30
0.0
 11
-228.5400217286887
 21
366.7846812303939
 31
0.0
  0
LINE
  5
26FCB
330
2
100
AcDbEntity
  8
0
  6
Continuous
 62
     7
370
    25
100
AcDbLine
 10
-676.0789391355813
 20
185.5523649717285
 30
0.0
 11
-676.0789391355813
 21
261.8723073414379
 31
0.0
  0
SPLINE
  5
26FCC
330
2
100
AcDbEntity
  8
0
  6
Continuous
 62
     7
370
    25
100
AcDbSpline
210
0.0
220
0.0
230
1.0
 70
     8
 71
     3
 72
    14
 73
    10
 74
     0
 42
0.00000001
 43
0.0000000001
 40
0.0
 40
0.0
 40
0.0
 40
0.0
 40
0.1589254616403294
 40
0.317844592374156
 40
0.4769472380015195
 40
0.6364476260552426
 40
0.7963392269624894
 40
0.9564449656394872
 40
1.0
 40
1.0
 40
1.0
 40
1.0
 10
-685.2808573332383
 20
188.895414872498
 30
0.0
 10
-684.9321000401167
 20
189.1352871695671
 30
0.0
 10
-684.2345993468734
 20
189.6150222082392
 30
0.0
 10
-682.6503509143111
 20
190.0171472305362
 30
0.0
 10
-680.8845117894575
 20
190.1190476738595
 30
0.0
 10
-679.0725429908997
 20
189.8939629437341
 30
0.0
 10
-677.4827281103848
 20
189.3590319156362
 30
0.0
 10
-676.4339496411928
 20
188.794008686138
 30
0.0
 10
-676.1414856811811
 20
188.4024851062653
 30
0.0
 10
-676.0789391355813
 20
188.3187536015618
 30
0.0
  0
LINE
  5
26FCD
330
2
100
AcDbEntity
  8
0
  6
Continuous
 62
     7
370
    25
100
AcDbLine
 10
-685.2808573332383
 20
188.895414872498
 30
0.0
 11
-685.2808573332508
 21
253.903212418713
 31
0.0
  0
LINE
  5
26FCE
330
2
100
AcDbEntity
  8
0
  6
Continuous
 62
     7
370
    25
100
AcDbLine
 10
-924.4744617912804
 20
431.8633367868701
 30
0.0
 11
-983.6016809572214
 21
448.9318947378166
 31
0.0
  0
SPLINE
  5
26FCF
330
2
100
AcDbEntity
  8
0
  6
Continuous
 62
     7
370
    25
100
AcDbSpline
210
0.0
220
0.0
230
1.0
 70
     8
 71
     3
 72
    10
 73
     6
 74
     0
 42
0.00000001
 43
0.0000000001
 40
0.0
 40
0.0
 40
0.0
 40
0.0
 40
0.3806130214597272
 40
0.7690277557905142
 40
0.9999999999999998
 40
0.9999999999999998
 40
0.9999999999999998
 40
0.9999999999999998
 10
-685.2808573332383
 20
188.895414872498
 30
0.0
 10
-692.1157417763928
 20
191.3385174938595
 30
0.0
 10
-705.9256104567663
 20
196.2748008581691
 30
0.0
 10
-723.9040089696962
 20
202.3998698034231
 30
0.0
 10
-735.0497602035963
 20
205.8981067325164
 30
0.0
 10
-739.2060619423904
 20
207.2026153229106
 30
0.0
  0
SPLINE
  5
26FD0
330
2
100
AcDbEntity
  8
0
  6
Continuous
 62
     7
370
    25
100
AcDbSpline
210
0.0
220
0.0
230
1.0
 70
     8
 71
     3
 72
    27
 73
    23
 74
     0
 42
0.00000001
 43
0.0000000001
 40
0.0
 40
0.0
 40
0.0
 40
0.0
 40
0.0380503273528578
 40
0.0765396507201223
 40
0.1129860289737639
 40
0.1475550120984705
 40
0.1805685837572671
 40
0.2125399829826037
 40
0.2441882945826478
 40
0.2784554542658744
 40
0.3139006532603928
 40
0.3510320932723558
 40
0.3901714600573662
 40
0.4314874644929195
 40
0.4889503068889988
 40
0.550121412545817
 40
0.6147209038887837
 40
0.6872885828346555
 40
0.7627578885165085
 40
0.8404869656613723
 40
0.9197986080870446
 40
0.9999999999999998
 40
0.9999999999999998
 40
0.9999999999999998
 40
0.9999999999999998
 10
-935.9476598949155
 20
257.793434204312
 30
0.0
 10
-938.6003467172614
 20
258.9135060701242
 30
0.0
 10
-943.9363250642959
 20
261.1665723472124
 30
0.0
 10
-951.6796716407235
 20
265.2259031135234
 30
0.0
 10
-959.0226604432368
 20
269.6873335217099
 30
0.0
 10
-965.7300103306766
 20
274.5793855267566
 30
0.0
 10
-971.7540129023316
 20
279.9226220571664
 30
0.0
 10
-977.0277323709496
 20
285.7711462722348
 30
0.0
 10
-981.6102225952972
 20
292.2640543098259
 30
0.0
 10
-985.4895976396738
 20
299.392388914447
 30
0.0
 10
-988.6555873060244
 20
307.1404395858184
 30
0.0
 10
-991.0941258240782
 20
315.325897010045
 30
0.0
 10
-992.8697136881693
 20
323.9231196398382
 30
0.0
 10
-994.1751297562525
 20
333.9157970926235
 30
0.0
 10
-994.8282132646403
 20
345.3412649582552
 30
0.0
 10
-994.7331771728322
 20
358.2011708755186
 30
0.0
 10
-993.9451111613596
 20
371.8986393676161
 30
0.0
 10
-992.5420001415178
 20
386.3784495841521
 30
0.0
 10
-990.632613078565
 20
401.5843563108849
 30
0.0
 10
-988.4021670099327
 20
417.1332954931937
 30
0.0
 10
-985.9910068644625
 20
432.940064584387
 30
0.0
 10
-984.4010790847811
 20
443.5814990290727
 30
0.0
 10
-983.6016809572214
 20
448.9318947378166
 30
0.0
  0
SPLINE
  5
26FD1
330
2
100
AcDbEntity
  8
0
  6
Continuous
 62
     7
370
    25
100
AcDbSpline
210
0.0
220
0.0
230
1.0
 70
     8
 71
     3
 72
    14
 73
    10
 74
     0
 42
0.00000001
 43
0.0000000001
 40
0.0
 40
0.0
 40
0.0
 40
0.0
 40
0.0938064452477624
 40
0.2649768906409489
 40
0.4369242860013893
 40
0.6086196630602908
 40
0.7791057131288412
 40
0.9479680149091112
 40
1.0
 40
1.0
 40
1.0
 40
1.0
 10
-980.3125337810129
 20
457.1843179316647
 30
0.0
 10
-980.2759937387333
 20
456.9992021286957
 30
0.0
 10
-980.1727783705722
 20
456.4763019191224
 30
0.0
 10
-980.3478885436842
 20
455.1749234734947
 30
0.0
 10
-980.7999939502563
 20
453.5094605259748
 30
0.0
 10
-981.5166566605883
 20
451.8013731791269
 30
0.0
 10
-982.3915040324704
 20
450.2856955200073
 30
0.0
 10
-983.117276212779
 20
449.3737169565299
 30
0.0
 10
-983.5093316928755
 20
449.0161258634271
 30
0.0
 10
-983.6016809572214
 20
448.9318947378166
 30
0.0
  0
SPLINE
  5
26FD3
330
2
100
AcDbEntity
  8
0
  6
Continuous
 62
     7
370
    25
100
AcDbSpline
210
0.0
220
0.0
230
1.0
 70
     8
 71
     3
 72
    17
 73
    13
 74
     0
 42
0.00000001
 43
0.0000000001
 40
0.0
 40
0.0
 40
0.0
 40
0.0
 40
0.1073707410002302
 40
0.2147414891616842
 40
0.3221120056584957
 40
0.4294822270298642
 40
0.5368535002356202
 40
0.6442279683211108
 40
0.7516056080309626
 40
0.8589827505112264
 40
0.9663549356271264
 40
0.9999999999999998
 40
0.9999999999999998
 40
0.9999999999999998
 40
0.9999999999999998
 10
-338.1312580379758
 20
262.6006335121362
 30
0.0
 10
-337.8326347773441
 20
262.9102102900376
 30
0.0
 10
-337.2353882361405
 20
263.529363866473
 30
0.0
 10
-336.4420720487578
 20
265.0115436060869
 30
0.0
 10
-335.8417728651732
 20
266.7041313069134
 30
0.0
 10
-335.5036274649985
 20
268.4639139686932
 30
0.0
 10
-335.4665683549567
 20
270.0801867227802
 30
0.0
 10
-335.7346429603756
 20
271.3737349868628
 30
0.0
 10
-336.2770658008098
 20
272.1990026203195
 30
0.0
 10
-337.0306025576235
 20
272.4574361497999
 30
0.0
 10
-337.710855985028
 20
272.2123670912038
 30
0.0
 10
-338.1015522998766
 20
271.8962962263832
 30
0.0
 10
-338.1947678654303
 20
271.8208854193175
 30
0.0
  0
LINE
  5
26FD4
330
2
100
AcDbEntity
  8
0
  6
Continuous
 62
     7
370
    25
100
AcDbLine
 10
-338.1312580379758
 20
262.6006335121362
 30
0.0
 11
-611.2702455975063
 21
341.4490675142606
 31
0.0
  0
LINE
  5
26FD5
330
2
100
AcDbEntity
  8
0
  6
Continuous
 62
     7
370
    25
100
AcDbLine
 10
-231.9401688957109
 20
363.8400674071313
 30
0.0
 11
-338.1947678654303
 21
271.8208854193175
 31
0.0
  0
SPLINE
  5
26FD6
330
2
100
AcDbEntity
  8
0
  6
Continuous
 62
     7
370
    25
100
AcDbSpline
210
0.0
220
0.0
230
1.0
 70
     8
 71
     3
 72
    17
 73
    13
 74
     0
 42
0.00000001
 43
0.0000000001
 40
0.0
 40
0.0
 40
0.0
 40
0.0
 40
0.1073707408659436
 40
0.2147414890387131
 40
0.3221120055468582
 40
0.4294822269295422
 40
0.536853500146621
 40
0.6442279682434346
 40
0.7516056079646035
 40
0.8589827504561908
 40
0.9663549355834154
 40
0.9999999999999998
 40
0.9999999999999998
 40
0.9999999999999998
 40
0.9999999999999998
 10
-231.8766590681575
 20
354.6198155014343
 30
0.0
 10
-232.1754409242754
 20
354.4120242666863
 30
0.0
 10
-232.7730046568345
 20
353.9964417830519
 30
0.0
 10
-233.5698448024007
 20
354.1015057462128
 30
0.0
 10
-234.178360784574
 20
354.7472288038829
 30
0.0
 10
-234.5314208408791
 20
355.9084099814352
 30
0.0
 10
-234.590010799803
 20
357.4418482117725
 30
0.0
 10
-234.3475099282593
 20
359.177567809848
 30
0.0
 10
-233.8301964159013
 20
360.9205940447546
 30
0.0
 10
-233.0960355260205
 20
362.4674115345519
 30
0.0
 10
-232.4234663217953
 20
363.3939212270949
 30
0.0
 10
-232.0332660994938
 20
363.7541266187203
 30
0.0
 10
-231.9401688957109
 20
363.8400674071313
 30
0.0
  0
LINE
  5
26FD7
330
2
100
AcDbEntity
  8
0
  6
Continuous
 62
     7
370
    25
100
AcDbLine
 10
-231.8766590681575
 20
354.6198155014343
 30
0.0
 11
-338.1312580379758
 21
262.6006335121362
 31
0.0
  0
LINE
  5
26FD8
330
2
100
AcDbEntity
  8
0
  6
Continuous
 62
     7
370
    25
100
AcDbLine
 10
-231.8766590681575
 20
354.6198155014343
 30
0.0
 11
-234.2824010926214
 21
355.3142934041413
 31
0.0
  0
LINE
  5
26FD9
330
2
100
AcDbEntity
  8
0
  6
Continuous
 62
     7
370
    25
100
AcDbLine
 10
-338.1312580379758
 20
262.6006335246296
 30
0.0
 11
-228.4765119011105
 21
357.5644293121912
 31
0.0
  0
SPLINE
  5
26FDA
330
2
100
AcDbEntity
  8
0
  6
Continuous
 62
     7
370
    25
100
AcDbSpline
210
0.0
220
0.0
230
1.0
 70
     8
 71
     3
 72
    19
 73
    15
 74
     0
 42
0.00000001
 43
0.0000000001
 40
0.0
 40
0.0
 40
0.0
 40
0.0
 40
0.095244858357972
 40
0.1907804517368327
 40
0.2866948475245751
 40
0.3831912168885613
 40
0.4806155280980402
 40
0.5580632264688581
 40
0.6359620220939348
 40
0.713772384001919
 40
0.791033722752529
 40
0.8673904485773896
 40
0.9386331176426681
 40
1.0
 40
1.0
 40
1.0
 40
1.0
 10
-228.4765119011105
 20
357.5644293121912
 30
0.0
 10
-228.4924452111634
 20
352.9451609890549
 30
0.0
 10
-228.5243604677215
 20
343.6925240218159
 30
0.0
 10
-229.0337274378413
 20
329.9280844801804
 30
0.0
 10
-230.0677940952974
 20
316.2822973549328
 30
0.0
 10
-231.7978556763157
 20
302.8116085208822
 30
0.0
 10
-234.1793796394913
 20
290.5331791094767
 30
0.0
 10
-237.1180509710612
 20
279.4617035160527
 30
0.0
 10
-240.444508330689
 20
269.5961565116428
 30
0.0
 10
-244.4265946898982
 20
260.152641618891
 30
0.0
 10
-249.0786204598524
 20
251.2569073808571
 30
0.0
 10
-254.3588422399541
 20
243.2191167444968
 30
0.0
 10
-259.9104977266235
 20
236.3055882519288
 30
0.0
 10
-264.0395540526257
 20
232.5528449323778
 30
0.0
 10
-265.9503313012331
 20
230.816211670767
 30
0.0
  0
SPLINE
  5
26FDB
330
2
100
AcDbEntity
  8
0
  6
Continuous
 62
     7
370
    25
100
AcDbSpline
210
0.0
220
0.0
230
1.0
 70
     8
 71
     3
 72
    37
 73
    33
 74
     0
 42
0.00000001
 43
0.0000000001
 40
0.0
 40
0.0
 40
0.0
 40
0.0
 40
0.030363041168352
 40
0.0608187655488002
 40
0.0913952480817832
 40
0.1221572575603254
 40
0.1532150849647782
 40
0.177904582062718
 40
0.202737884136027
 40
0.2275429944871303
 40
0.2521730821334253
 40
0.276514788863612
 40
0.2992261890468044
 40
0.3216029665897994
 40
0.3436871506391231
 40
0.3655877510533014
 40
0.3875002943869766
 40
0.4096183293367981
 40
0.4320482513954186
 40
0.4571120288224786
 40
0.4825364086409715
 40
0.5082018171573778
 40
0.5339381465775901
 40
0.5595536700147519
 40
0.611150620888588
 40
0.6619997901889232
 40
0.7121411250007022
 40
0.7615973489938095
 40
0.8103802492390027
 40
0.8735277268399197
 40
0.9365034774868126
 40
0.9999999999999998
 40
0.9999999999999998
 40
0.9999999999999998
 40
0.9999999999999998
 10
-338.1312580379758
 20
262.6006335246296
 30
0.0
 10
-338.1471913908772
 20
257.9813652498835
 30
0.0
 10
-338.1791067332561
 20
248.7287283796102
 30
0.0
 10
-338.6884730559476
 20
234.9642880994685
 30
0.0
 10
-339.7225421880416
 20
221.3185037916593
 30
0.0
 10
-341.4525944287394
 20
207.847804317917
 30
0.0
 10
-343.8341512045498
 20
195.56941227853
 30
0.0
 10
-346.7727234244397
 20
184.4978237968124
 30
0.0
 10
-350.0995332289018
 20
174.6326782217221
 30
0.0
 10
-354.0803045189934
 20
165.1876654792502
 30
0.0
 10
-358.7371850436323
 20
156.2974607487034
 30
0.0
 10
-363.9999177602681
 20
148.2397502723207
 30
0.0
 10
-369.846686432354
 20
141.1032688680336
 30
0.0
 10
-376.2528877216623
 20
134.9582460610619
 30
0.0
 10
-383.348236513821
 20
129.7835037943765
 30
0.0
 10
-391.1682789067894
 20
125.7145786994719
 30
0.0
 10
-399.6816746499863
 20
122.8111640405158
 30
0.0
 10
-408.7601523159672
 20
120.9259850273529
 30
0.0
 10
-418.638530968409
 20
119.901763381172
 30
0.0
 10
-429.2617720443896
 20
119.7040326276729
 30
0.0
 10
-440.5457008845004
 20
120.2612051126068
 30
0.0
 10
-452.0458853705288
 20
121.4143000596133
 30
0.0
 10
-463.6433335917949
 20
123.0053457577369
 30
0.0
 10
-479.1932268615257
 20
125.4955155828731
 30
0.0
 10
-498.6045996180145
 20
129.1749408769628
 30
0.0
 10
-521.8018743076957
 20
134.4478373121567
 30
0.0
 10
-544.7078608514849
 20
140.447206417451
 30
0.0
 10
-567.3064486214427
 20
147.0803237070206
 30
0.0
 10
-591.871231335548
 20
155.0041602324517
 30
0.0
 10
-618.4585778986892
 20
164.3166934669924
 30
0.0
 10
-647.2423482005273
 20
174.9251504220569
 30
0.0
 10
-666.4403917150784
 20
182.0002491333621
 30
0.0
 10
-676.0789391355813
 20
185.5523649717285
 30
0.0
  0
SPLINE
  5
26FDC
330
2
100
AcDbEntity
  8
0
  6
Continuous
 62
     7
370
    25
100
AcDbSpline
210
0.0
220
0.0
230
1.0
 70
     8
 71
     3
 72
    18
 73
    14
 74
     0
 42
0.00000001
 43
0.0000000001
 40
0.0
 40
0.0
 40
0.0
 40
0.0
 40
0.1580360731060237
 40
0.3166916491809006
 40
0.4750597829182916
 40
0.641341276073832
 40
0.757725645221774
 40
0.8108623624148105
 40
0.8639469250441216
 40
0.9244017137463115
 40
0.962163455234905
 40
0.9899085838348817
 40
1.0
 40
1.0
 40
1.0
 40
1.0
 10
-340.2627270369815
 20
169.5010261182661
 30
0.0
 10
-338.7423283752708
 20
171.7444908209584
 30
0.0
 10
-335.6955710740792
 20
176.240214630171
 30
0.0
 10
-331.1388765921225
 20
183.9832617958919
 30
0.0
 10
-326.6018640110924
 20
192.3497819679553
 30
0.0
 10
-322.5659390202625
 20
200.415226181721
 30
0.0
 10
-319.4730638990299
 20
206.7877428464107
 30
0.0
 10
-317.3628650438904
 20
211.0863755786926
 30
0.0
 10
-315.7194258231965
 20
214.3215485836469
 30
0.0
 10
-314.1275392777998
 20
217.2573314897403
 30
0.0
 10
-312.6766725997027
 20
219.5288521390169
 30
0.0
 10
-311.7670158327825
 20
220.6589081098762
 30
0.0
 10
-311.3457791333253
 20
221.0452762097839
 30
0.0
 10
-311.2334307446225
 20
221.1483247654401
 30
0.0
  0
SPLINE
  5
26FDD
330
2
100
AcDbEntity
  8
0
  6
Continuous
 62
     7
370
    25
100
AcDbSpline
210
0.0
220
0.0
230
1.0
 70
     8
 71
     3
 72
    11
 73
     7
 74
     0
 42
0.00000001
 43
0.0000000001
 40
0.0
 40
0.0
 40
0.0
 40
0.0
 40
0.02791770112824
 40
0.4633371664283569
 40
0.904677841247987
 40
0.9999999999999998
 40
0.9999999999999998
 40
0.9999999999999998
 40
0.9999999999999998
 10
-352.6303911269002
 20
155.7052140902121
 30
0.0
 10
-352.4939705668832
 20
155.8102671544008
 30
0.0
 10
-350.2298616625469
 20
157.5537842463327
 30
0.0
 10
-346.413679840022
 20
161.6683573510496
 30
0.0
 10
-342.5520456470719
 20
166.2904444705926
 30
0.0
 10
-340.608024464353
 20
169.0167747875834
 30
0.0
 10
-340.2627270369815
 20
169.5010261182661
 30
0.0
  0
SPLINE
  5
26FDE
330
2
100
AcDbEntity
  8
0
  6
Continuous
 62
     7
370
    25
100
AcDbSpline
210
0.0
220
0.0
230
1.0
 70
     8
 71
     3
 72
    11
 73
     7
 74
     0
 42
0.00000001
 43
0.0000000001
 40
0.0
 40
0.0
 40
0.0
 40
0.0
 40
0.027917701128235
 40
0.4633371664282734
 40
0.9046778412478239
 40
0.9999999999999998
 40
0.9999999999999998
 40
0.9999999999999998
 40
0.9999999999999998
 10
-288.8776317450017
 20
210.9167232763024
 30
0.0
 10
-288.7412111849847
 20
211.0217763404911
 30
0.0
 10
-286.4771022806484
 20
212.7652934324106
 30
0.0
 10
-282.6609204581237
 20
216.8798665371276
 30
0.0
 10
-278.7992862651734
 20
221.5019536566705
 30
0.0
 10
-276.8552650824546
 20
224.2282839736614
 30
0.0
 10
-276.509967655083
 20
224.712535304344
 30
0.0
  0
SPLINE
  5
26FDF
330
2
100
AcDbEntity
  8
0
  6
Continuous
 62
     7
370
    25
100
AcDbSpline
210
0.0
220
0.0
230
1.0
 70
     8
 71
     3
 72
    18
 73
    14
 74
     0
 42
0.00000001
 43
0.0000000001
 40
0.0
 40
0.0
 40
0.0
 40
0.0
 40
0.1580360731059666
 40
0.3166916491808539
 40
0.4750597829182554
 40
0.6413412760738044
 40
0.757725645221754
 40
0.8108623624147856
 40
0.8639469250440935
 40
0.924401713746311
 40
0.9621634552348991
 40
0.989908583834881
 40
0.9999999999999998
 40
0.9999999999999998
 40
0.9999999999999998
 40
0.9999999999999998
 10
-276.509967655083
 20
224.712535304344
 30
0.0
 10
-275.1038256184457
 20
226.8570508671695
 30
0.0
 10
-272.2860294545288
 20
231.1544885150417
 30
0.0
 10
-269.3856221307467
 20
237.4631489258032
 30
0.0
 10
-267.2639902736469
 20
243.737888031117
 30
0.0
 10
-266.1200644149927
 20
249.2987875287071
 30
0.0
 10
-265.8305890210095
 20
253.2434888126425
 30
0.0
 10
-265.9425924989678
 20
255.6176378721263
 30
0.0
 10
-266.225418494048
 20
257.1846162657799
 30
0.0
 10
-266.738454521483
 20
258.2974827507841
 30
0.0
 10
-267.5243994231398
 20
258.6318677485535
 30
0.0
 10
-268.215439260045
 20
258.3756797967089
 30
0.0
 10
-268.6229133934051
 20
258.0443632630353
 30
0.0
 10
-268.7315911566904
 20
257.9559975561669
 30
0.0
  0
LINE
  5
26FE0
330
2
100
AcDbEntity
  8
0
  6
Continuous
 62
     7
370
    25
100
AcDbLine
 10
-228.4765119011105
 20
357.5644293121912
 30
0.0
 11
-234.2833130251707
 21
359.2407084207386
 31
0.0
  0
SPLINE
  5
26FE1
330
2
100
AcDbEntity
  8
0
  6
Continuous
 62
     7
370
    25
100
AcDbSpline
210
0.0
220
0.0
230
1.0
 70
     8
 71
     3
 72
    34
 73
    30
 74
     0
 42
0.00000001
 43
0.0000000001
 40
0.0
 40
0.0
 40
0.0
 40
0.0
 40
0.0372803381327846
 40
0.071783356654977
 40
0.1039979743206086
 40
0.1344177643462452
 40
0.1635242154037246
 40
0.1917667241941697
 40
0.2195431200140779
 40
0.2471848672974055
 40
0.288322126014271
 40
0.3302590781750833
 40
0.3732321602844433
 40
0.4172410961956897
 40
0.4621174014936693
 40
0.5075832306119266
 40
0.5533000080806962
 40
0.5989101373755239
 40
0.6440761730475117
 40
0.6885219496763633
 40
0.7320798349229025
 40
0.7747470153809913
 40
0.8055798849019218
 40
0.8362388537229945
 40
0.8670057221992809
 40
0.8982603656749217
 40
0.9304736982724735
 40
0.964189756059776
 40
1.0
 40
1.0
 40
1.0
 40
1.0
 10
-802.6741705728014
 20
380.3618372381444
 30
0.0
 10
-803.9836344456762
 20
377.2142637903497
 30
0.0
 10
-806.5050094364192
 20
371.153605579697
 30
0.0
 10
-809.7654020249347
 20
362.0123951843843
 30
0.0
 10
-812.4654594382501
 20
353.2950612896482
 30
0.0
 10
-814.6183417581074
 20
344.9527430530255
 30
0.0
 10
-816.2643923043617
 20
336.9698538865964
 30
0.0
 10
-817.4385914835006
 20
329.3231627308824
 30
0.0
 10
-818.1787590553886
 20
321.9898089255953
 30
0.0
 10
-818.5788181264749
 20
313.8125667716609
 30
0.0
 10
-818.4472220314736
 20
304.9037229486858
 30
0.0
 10
-817.6417535787519
 20
295.4333513331434
 30
0.0
 10
-816.3037642669022
 20
286.3606500910039
 30
0.0
 10
-814.5536544318716
 20
277.5888745564982
 30
0.0
 10
-812.5096385740933
 20
269.024138659557
 30
0.0
 10
-810.2887734889197
 20
260.5761239087617
 30
0.0
 10
-808.0077399246482
 20
252.1561484984632
 30
0.0
 10
-805.7831375486966
 20
243.6760912117394
 30
0.0
 10
-803.7316915654127
 20
235.0473510339501
 30
0.0
 10
-801.9705683142545
 20
226.1794143615962
 30
0.0
 10
-800.6180119754507
 20
216.9796470328146
 30
0.0
 10
-799.8663774533704
 20
208.1873584662695
 30
0.0
 10
-799.6568269826768
 20
199.898682330844
 30
0.0
 10
-799.8695858203624
 20
192.2109073108058
 30
0.0
 10
-800.5315857142937
 20
184.1761870105538
 30
0.0
 10
-801.6899461388799
 20
175.7604038761093
 30
0.0
 10
-803.4013417142491
 20
166.9382002803609
 30
0.0
 10
-805.6787017813991
 20
157.6649001169938
 30
0.0
 10
-807.6247976502655
 20
151.4346883201603
 30
0.0
 10
-808.6271545434696
 20
148.2257530151167
 30
0.0
  0
SPLINE
  5
26FE2
330
2
100
AcDbEntity
  8
0
  6
Continuous
 62
     7
370
    25
100
AcDbSpline
210
0.0
220
0.0
230
1.0
 70
     8
 71
     3
 72
    12
 73
     8
 74
     0
 42
0.00000001
 43
0.0000000001
 40
0.0
 40
0.0
 40
0.0
 40
0.0
 40
0.1543099457445764
 40
0.3080080002334169
 40
0.5158029452298884
 40
0.7821936362453354
 40
1.0
 40
1.0
 40
1.0
 40
1.0
 10
-813.1597392653029
 20
144.7749334009471
 30
0.0
 10
-812.8621131338334
 20
144.7265179878341
 30
0.0
 10
-812.2680410594339
 20
144.6298791451163
 30
0.0
 10
-811.2426566456894
 20
144.9391524587104
 30
0.0
 10
-810.1438804601096
 20
145.6739323289689
 30
0.0
 10
-809.1844231822374
 20
146.8349985704667
 30
0.0
 10
-808.8000549206466
 20
147.7942520274092
 30
0.0
 10
-808.6271545434696
 20
148.2257530151167
 30
0.0
  0
LINE
  5
26FE3
330
2
100
AcDbEntity
  8
0
  6
Continuous
 62
     7
370
    25
100
AcDbLine
 10
-941.9865940328348
 20
181.9640430403879
 30
0.0
 11
-813.1597392653029
 21
144.7749334009471
 31
0.0
  0
SPLINE
  5
26FE4
330
2
100
AcDbEntity
  8
0
  6
Continuous
 62
     7
370
    25
100
AcDbSpline
210
0.0
220
0.0
230
1.0
 70
     8
 71
     3
 72
    12
 73
     8
 74
     0
 42
0.00000001
 43
0.0000000001
 40
0.0
 40
0.0
 40
0.0
 40
0.0
 40
0.28086595845396
 40
0.5334934857076334
 40
0.7265303641794581
 40
0.8841900369763063
 40
1.0
 40
1.0
 40
1.0
 40
1.0
 10
-943.5886214427602
 20
187.1857726373839
 30
0.0
 10
-943.729575040702
 20
186.6043409017414
 30
0.0
 10
-943.9973106776884
 20
185.4999349243626
 30
0.0
 10
-943.8186812572061
 20
183.9883745466238
 30
0.0
 10
-943.3213998628822
 20
182.8965403010002
 30
0.0
 10
-942.6832868432281
 20
182.2362339989308
 30
0.0
 10
-942.1938588595883
 20
182.0450193487806
 30
0.0
 10
-941.9865940328348
 20
181.9640430403879
 30
0.0
  0
SPLINE
  5
26FE5
330
2
100
AcDbEntity
  8
0
  6
Continuous
 62
     7
370
    25
100
AcDbSpline
210
0.0
220
0.0
230
1.0
 70
     8
 71
     3
 72
    34
 73
    30
 74
     0
 42
0.00000001
 43
0.0000000001
 40
0.0
 40
0.0
 40
0.0
 40
0.0
 40
0.0372803381327852
 40
0.0717833566549774
 40
0.103997974320609
 40
0.1344177643462451
 40
0.1635242154037248
 40
0.1917667241941699
 40
0.219543120014078
 40
0.2471848672974055
 40
0.2883221260142709
 40
0.3302590781750832
 40
0.3732321602844429
 40
0.4172410961956892
 40
0.4621174014936687
 40
0.5075832306119263
 40
0.5533000080806957
 40
0.5989101373755234
 40
0.6440761730475109
 40
0.6885219496763623
 40
0.7320798349229012
 40
0.77474701538099
 40
0.8055798849019206
 40
0.8362388537229934
 40
0.8670057221992797
 40
0.8982603656749203
 40
0.9304736982724726
 40
0.9641897560597747
 40
1.0
 40
1.0
 40
1.0
 40
1.0
 10
-937.635637472092
 20
419.3218568604115
 30
0.0
 10
-938.9451013449916
 20
416.1742834126291
 30
0.0
 10
-941.4664763357471
 20
410.1136252019641
 30
0.0
 10
-944.7268689242253
 20
400.9724148066515
 30
0.0
 10
-947.426926337553
 20
392.2550809119277
 30
0.0
 10
-949.5798086574225
 20
383.9127626752926
 30
0.0
 10
-951.225859203677
 20
375.9298735088635
 30
0.0
 10
-952.4000583828161
 20
368.2831823531496
 30
0.0
 10
-953.1402259547041
 20
360.9498285478625
 30
0.0
 10
-953.54028502579
 20
352.772586393928
 30
0.0
 10
-953.4086889307889
 20
343.8637425709653
 30
0.0
 10
-952.6032204780428
 20
334.393370955423
 30
0.0
 10
-951.2652311662051
 20
325.3206697132834
 30
0.0
 10
-949.5151213311869
 20
316.5488941787653
 30
0.0
 10
-947.4711054733839
 20
307.9841582818241
 30
0.0
 10
-945.2502403882474
 20
299.5361435310288
 30
0.0
 10
-942.9692068239511
 20
291.1161681207427
 30
0.0
 10
-940.7446044479872
 20
282.6361108340066
 30
0.0
 10
-938.693158464728
 20
274.0073706562173
 30
0.0
 10
-936.9320352135698
 20
265.1394339838757
 30
0.0
 10
-935.579478874766
 20
255.9396666550817
 30
0.0
 10
-934.8278443526609
 20
247.1473780885367
 30
0.0
 10
-934.6182938819797
 20
238.8587019531235
 30
0.0
 10
-934.8310527196776
 20
231.1709269330728
 30
0.0
 10
-935.4930526135843
 20
223.1362066328209
 30
0.0
 10
-936.6514130381828
 20
214.7204234983765
 30
0.0
 10
-938.3628086135519
 20
205.8982199026158
 30
0.0
 10
-940.6401686807143
 20
196.6249197392609
 30
0.0
 10
-942.5862645495808
 20
190.3947079424399
 30
0.0
 10
-943.5886214427602
 20
187.1857726373839
 30
0.0
  0
SPLINE
  5
26FE6
330
2
100
AcDbEntity
  8
0
  6
Continuous
 62
     7
370
    25
100
AcDbSpline
210
0.0
220
0.0
230
1.0
 70
     8
 71
     3
 72
    12
 73
     8
 74
     0
 42
0.00000001
 43
0.0000000001
 40
0.0
 40
0.0
 40
0.0
 40
0.0
 40
0.1208745612818731
 40
0.2409024160522214
 40
0.4266160023188379
 40
0.7157199754631409
 40
1.0
 40
1.0
 40
1.0
 40
1.0
 10
-932.3865176307032
 20
423.3932140908164
 30
0.0
 10
-932.6548065207232
 20
423.4352722008217
 30
0.0
 10
-933.1895049810784
 20
423.5190938106802
 30
0.0
 10
-934.1854228308807
 20
423.2331513141887
 30
0.0
 10
-935.4246384760998
 20
422.4833369988793
 30
0.0
 10
-936.7164139622015
 20
421.1293451922622
 30
0.0
 10
-937.3309530325386
 20
419.9209642194873
 30
0.0
 10
-937.635637472092
 20
419.3218568604115
 30
0.0
  0
LINE
  5
26FE7
330
2
100
AcDbEntity
  8
0
  6
Continuous
 62
     7
370
    25
100
AcDbLine
 10
-803.5596628631839
 20
386.2041044513757
 30
0.0
 11
-932.3865176307032
 21
423.3932140908164
 31
0.0
  0
SPLINE
  5
26FE8
330
2
100
AcDbEntity
  8
0
  6
Continuous
 62
     7
370
    25
100
AcDbSpline
210
0.0
220
0.0
230
1.0
 70
     8
 71
     3
 72
    12
 73
     8
 74
     0
 42
0.00000001
 43
0.0000000001
 40
0.0
 40
0.0
 40
0.0
 40
0.0
 40
0.3892668351400794
 40
0.6191899166826627
 40
0.7833298151666004
 40
0.9034487642078477
 40
1.0
 40
1.0
 40
1.0
 40
1.0
 10
-802.6741705728014
 20
380.3618372381444
 30
0.0
 10
-802.3847093562212
 20
381.2230215311648
 30
0.0
 10
-801.9242759198437
 20
382.5928701350225
 30
0.0
 10
-802.0172742901031
 20
384.3225131546755
 30
0.0
 10
-802.4013598213548
 20
385.3374663406404
 30
0.0
 10
-802.9313768991627
 20
385.9498252684775
 30
0.0
 10
-803.3659922446927
 20
386.1257222982757
 30
0.0
 10
-803.5596628631839
 20
386.2041044513757
 30
0.0
  0
LINE
  5
26FE9
330
2
100
AcDbEntity
  8
0
  6
Continuous
 62
     7
370
    25
100
AcDbLine
 10
-802.6741705728014
 20
380.3618372381444
 30
0.0
 11
-614.6136092093155
 21
543.2270608288741
 31
0.0
  0
LINE
  5
26FEA
330
2
100
AcDbEntity
  8
0
  6
Continuous
 62
     7
370
    25
100
AcDbLine
 10
-614.6136092093155
 20
543.2270608288741
 30
0.0
 11
-614.6136092093155
 21
533.1396876397731
 31
0.0
  0
LINE
  5
26FEB
330
2
100
AcDbEntity
  8
0
  6
Continuous
 62
     7
370
    25
100
AcDbLine
 10
-803.5596628631839
 20
386.2041044513757
 30
0.0
 11
-617.680915275226
 21
547.1798218861793
 31
0.0
  0
ARC
  5
26FEC
330
2
100
AcDbEntity
  8
0
  6
Continuous
 62
     7
370
    25
100
AcDbCircle
 10
-618.9719005307166
 20
543.0115481389654
 30
0.0
 40
4.363616500289721
100
AcDbArc
 50
2.830907115695876
 51
72.7913578900549
  0
LINE
  5
26FED
330
2
100
AcDbEntity
  8
0
  6
Continuous
 62
     7
370
    25
100
AcDbLine
 10
-932.3865176307032
 20
423.3932140908164
 30
0.0
 11
-746.5077700427452
 21
584.3689315256199
 31
0.0
  0
LINE
  5
26FEE
330
2
100
AcDbEntity
  8
0
  6
Continuous
 62
     7
370
    25
100
AcDbLine
 10
-746.5077700427452
 20
584.3689315256199
 30
0.0
 11
-617.680915275226
 21
547.1798218861793
 31
0.0
  0
ARC
  5
26FEF
330
2
100
AcDbEntity
  8
0
  6
Continuous
 62
     7
370
    25
100
AcDbCircle
 10
-747.31231170616
 20
582.0643081036175
 30
0.0
 40
2.441019542206591
100
AcDbArc
 50
70.75595796692375
 51
128.336829115901
  0
LINE
  5
26FF0
330
2
100
AcDbEntity
  8
0
  6
Continuous
 62
     7
370
    25
100
AcDbLine
 10
-646.6884452541208
 20
283.9947441399992
 30
0.0
 11
-611.2702455975063
 21
314.6678047989301
 31
0.0
  0
LINE
  5
26FF1
330
2
100
AcDbEntity
  8
0
  6
Continuous
 62
     7
370
    25
100
AcDbLine
 10
-646.6884452541208
 20
283.9947441399992
 30
0.0
 11
-646.6884452541208
 21
502.3869360316024
 31
0.0
  0
LINE
  5
26FF2
330
2
100
AcDbEntity
  8
0
  6
Continuous
 62
     7
370
    25
100
AcDbLine
 10
-646.6884452541208
 20
502.3869360316024
 30
0.0
 11
-611.2702455975063
 21
533.0599966905333
 31
0.0
  0
LINE
  5
26FF3
330
2
100
AcDbEntity
  8
0
  6
Continuous
 62
     7
370
    25
100
AcDbLine
 10
-611.2702455975063
 20
314.6678047989301
 30
0.0
 11
-611.2702455975063
 21
533.0599966905333
 31
0.0
  0
LINE
  5
26FF4
330
2
100
AcDbEntity
  8
0
  6
Continuous
 62
     7
370
    25
100
AcDbLine
 10
-649.2649823494647
 20
503.1307182243914
 30
0.0
 11
-646.6884452541208
 21
502.3869360316024
 31
0.0
  0
LINE
  5
26FF5
330
2
100
AcDbEntity
  8
0
  6
Continuous
 62
     7
370
    25
100
AcDbLine
 10
-649.2649823494647
 20
284.7385263327881
 30
0.0
 11
-646.6884452541208
 21
283.9947441399992
 31
0.0
  0
LINE
  5
26FF6
330
2
100
AcDbEntity
  8
0
  6
Continuous
 62
     7
370
    25
100
AcDbLine
 10
-649.2649823494647
 20
284.7385263327881
 30
0.0
 11
-649.2649823494647
 21
503.1307182243914
 31
0.0
  0
LINE
  5
26FF7
330
2
100
AcDbEntity
  8
0
  6
Continuous
 62
     7
370
    25
100
AcDbLine
 10
-649.2649823494647
 20
503.1307182243914
 30
0.0
 11
-613.8467826928502
 21
533.8037788833221
 31
0.0
  0
LINE
  5
26FF8
330
2
100
AcDbEntity
  8
0
  6
Continuous
 62
     7
370
    25
100
AcDbLine
 10
-613.8467826928502
 20
533.8037788833221
 30
0.0
 11
-611.2702455975063
 21
533.0599966905333
 31
0.0
  0
ARC
  5
26FF9
330
2
100
AcDbEntity
  8
0
  6
Continuous
 62
     7
370
    25
100
AcDbCircle
 10
-650.3739621832099
 20
283.8509025763984
 30
0.0
 40
3.688322847877161
100
AcDbArc
 50
248.6153217667154
 51
2.235055178260882
  0
ARC
  5
26FFA
330
2
100
AcDbEntity
  8
0
  6
Continuous
 62
     7
370
    25
100
AcDbCircle
 10
-615.0462038765284
 20
314.5195196771988
 30
0.0
 40
3.778868799297887
100
AcDbArc
 50
312.4017945712557
 51
2.248898817386046
  0
ARC
  5
26FFB
330
2
100
AcDbEntity
  8
0
  6
Continuous
 62
     7
370
    25
100
AcDbCircle
 10
-651.0627954856147
 20
284.6683597163981
 30
0.0
 40
1.799181877013443
100
AcDbArc
 50
248.6153217667194
 51
2.235055178257012
  0
LINE
  5
26FFC
330
2
100
AcDbEntity
  8
0
  6
Continuous
 62
     7
370
    25
100
AcDbLine
 10
-653.9291619618155
 20
281.0545770620964
 30
0.0
 11
-651.7188272021855
 21
280.4165083778513
 31
0.0
  0
LINE
  5
26FFD
330
2
100
AcDbEntity
  8
0
  6
Continuous
 62
     7
370
    25
100
AcDbLine
 10
-641.5771535131157
 20
327.1370538714561
 30
0.0
 11
-641.6673143828746
 21
327.1682535974664
 31
0.0
  0
LINE
  5
26FFE
330
2
100
AcDbEntity
  8
0
  6
Continuous
 62
     7
370
    25
100
AcDbLine
 10
-638.9201925330142
 20
336.5138383936834
 30
0.0
 11
-638.5753820935732
 21
336.3540908130238
 31
0.0
  0
LWPOLYLINE
  5
26FFF
330
2
100
AcDbEntity
  8
0
  6
Continuous
 62
     7
370
    25
100
AcDbPolyline
 90
       22
 70
   128
 43
0.0
 10
-638.3418683118392
 20
335.83146425703
 10
-638.8890185983334
 20
335.9980718435937
 10
-639.5208509976389
 20
335.7835518623006
 10
-640.1812244283497
 20
335.2069653548588
 10
-640.8114618131413
 20
334.3195445627996
 10
-641.3555637946275
 20
333.2001407178479
 10
-641.7651845239976
 20
331.9482177640693
 10
-642.0039274018556
 20
330.675014549883
 10
-642.0505790757852
 20
329.4936607682205
 10
-641.9009943398411
 20
328.5091248868584
 10
-641.5684644542636
 20
327.8088872394528
 10
-641.0825361586496
 20
327.4551670138816
 10
-640.4863863145435
 20
327.4793938044784
 10
-639.8329854517434
 20
327.8794149545804
 10
-639.1803911043394
 20
328.6196868295476
 10
-638.5865891439033
 20
329.634433024634
 10
-638.1043414805173
 20
330.8334888872892
 10
-637.7764979353838
 20
332.1103130421489
 10
-637.6321888462064
 20
333.3514540597793
 10
-637.6842367088262
 20
334.446631114122
 10
-637.9280168422561
 20
335.2985329177861
 10
-638.3418683118392
 20
335.83146425703
  0
ARC
  5
27000
330
2
100
AcDbEntity
  8
0
  6
Continuous
 62
     7
370
    25
100
AcDbCircle
 10
-758.6002256078625
 20
582.7943104034662
 30
0.0
 40
9.379023816097481
100
AcDbArc
 50
137.4109010284013
 51
180.4856501008514
  0
ARC
  5
27001
330
2
100
AcDbEntity
  8
0
  6
Continuous
 62
     7
370
    25
100
AcDbCircle
 10
-586.8310859178325
 20
533.2088308842157
 30
0.0
 40
9.379023816098666
100
AcDbArc
 50
137.4109010284066
 51
180.4856501008514
  0
LINE
  5
27002
330
2
100
AcDbEntity
  8
0
  6
Continuous
 62
     7
370
    25
100
AcDbLine
 10
-593.7361657499439
 20
539.5559530868415
 30
0.0
 11
-593.7361657499439
 21
536.989231370898
 31
0.0
  0
ARC
  5
27003
330
2
100
AcDbEntity
  8
0
  6
Continuous
 62
     7
370
    25
100
AcDbCircle
 10
-590.9678061379796
 20
534.4445661121077
 30
0.0
 40
3.760204279077599
100
AcDbArc
 50
137.4109010284028
 51
180.4856501008477
  0
LINE
  5
27004
330
2
100
AcDbEntity
  8
0
  6
Continuous
 62
     7
370
    25
100
AcDbLine
 10
-596.2097728139645
 20
533.1293334175763
 30
0.0
 11
-594.7278753403208
 21
534.4126942755543
 31
0.0
  0
LINE
  5
27005
330
2
100
AcDbEntity
  8
0
  6
Continuous
 62
     7
370
    25
100
AcDbLine
 10
-596.2097728139645
 20
468.0056208971556
 30
0.0
 11
-596.2097728139645
 21
533.1293334175763
 31
0.0
  0
LINE
  5
27006
330
2
100
AcDbEntity
  8
0
  6
Continuous
 62
     7
370
    25
100
AcDbLine
 10
-611.2702455975063
 20
472.3532049050004
 30
0.0
 11
-596.2097728139645
 21
468.0056208971556
 31
0.0
  0
LINE
  5
27007
330
2
100
AcDbEntity
  8
0
  6
Continuous
 62
     7
370
    25
100
AcDbLine
 10
-767.9789125039818
 20
582.7148129368389
 30
0.0
 11
-767.9789125039818
 21
567.3924580488605
 31
0.0
  0
LINE
  5
27008
330
2
100
AcDbEntity
  8
0
  6
Continuous
 62
     7
370
    25
100
AcDbLine
 10
-594.7278753403208
 20
469.2889817551335
 30
0.0
 11
-594.7278753403208
 21
534.4126942755543
 31
0.0
  0
LINE
  5
27009
330
2
100
AcDbEntity
  8
0
  6
Continuous
 62
     7
370
    25
100
AcDbLine
 10
-596.2097728139645
 20
468.0056208971556
 30
0.0
 11
-594.7278753403208
 21
469.2889817551335
 31
0.0
  0
LINE
  5
2700A
330
2
100
AcDbEntity
  8
0
  6
Continuous
 62
     7
370
    25
100
AcDbLine
 10
-543.0019201289737
 20
584.6850119353428
 30
0.0
 11
-713.7388326230351
 21
633.9725131298756
 31
0.0
  0
LINE
  5
2700B
330
2
100
AcDbEntity
  8
0
  6
Continuous
 62
     7
370
    25
100
AcDbLine
 10
-593.7361657499439
 20
539.5559530868415
 30
0.0
 11
-542.6400651634407
 21
583.8064742290875
 31
0.0
  0
LINE
  5
2700C
330
2
100
AcDbEntity
  8
0
  6
Continuous
 62
     7
370
    25
100
AcDbLine
 10
-713.7388326230351
 20
633.9725131298756
 30
0.0
 11
-765.5053054399736
 21
589.1414326060919
 31
0.0
  0
LWPOLYLINE
  5
2700D
330
2
100
AcDbEntity
  8
0
  6
Continuous
 62
     7
370
    25
100
AcDbPolyline
 90
       17
 70
   128
 43
0.0
 10
-708.5745891862067
 20
627.8194192405202
 10
-709.5167881768207
 20
627.979335970537
 10
-710.5096615060887
 20
627.9467977924655
 10
-711.4020532100326
 20
627.7267583489654
 10
-712.0581047412948
 20
627.3527166506081
 10
-712.3779382013406
 20
626.8816171553074
 10
-712.3128618452224
 20
626.3851804906732
 10
-711.8727829581847
 20
625.9389846386953
 10
-711.1246995614952
 20
625.6109588730701
 10
-710.1825005708815
 20
625.451042143041
 10
-709.1896272416132
 20
625.4835803211125
 10
-708.2972355376817
 20
625.7036197646252
 10
-707.6411840064195
 20
626.0776614629701
 10
-707.3213505463367
 20
626.5487609582708
 10
-707.3864269024796
 20
627.0451976229049
 10
-707.8265057895172
 20
627.491393474883
 10
-708.5745891862067
 20
627.8194192405202
  0
LWPOLYLINE
  5
2700E
330
2
100
AcDbEntity
  8
0
  6
Continuous
 62
     7
370
    25
100
AcDbPolyline
 90
       28
 70
   128
 43
0.0
 10
-684.2697208255361
 20
613.4498530198777
 10
-685.8735629258327
 20
613.7957679951829
 10
-687.5937202212253
 20
613.9474230662949
 10
-689.3374585866427
 20
613.8966424691028
 10
-691.0107726354681
 20
613.6461637987402
 10
-692.5234535742173
 20
613.2094904251519
 10
-693.7939523819181
 20
612.6101635229332
 10
-694.7537761389972
 20
611.8804929605212
 10
-695.3511804982782
 20
611.0598154668188
 10
-695.5539592361274
 20
610.1923739779058
 10
-695.3511804982782
 20
609.3249324890055
 10
-694.7537761389972
 20
608.504254995278
 10
-693.7939523819181
 20
607.7745844328784
 10
-692.5234535742173
 20
607.1752575306722
 10
-691.0107726354681
 20
606.7385841570839
 10
-689.3374585866427
 20
606.4881054867088
 10
-687.5937202212253
 20
606.437324889517
 10
-685.8735629258327
 20
606.5889799606289
 10
-684.2697208255361
 20
606.9348949359218
 10
-682.8686574630762
 20
607.4564214495417
 10
-681.7459045269896
 20
608.1254438721323
 10
-680.9619899186514
 20
608.9058950317362
 10
-680.5591746775269
 20
609.7557006043175
 10
-680.5591746775269
 20
610.6290473514941
 10
-680.9619899186514
 20
611.4788529240755
 10
-681.7459045269896
 20
612.2593040836796
 10
-682.8686574630762
 20
612.9283265062699
 10
-684.2697208255361
 20
613.4498530198777
  0
LWPOLYLINE
  5
2700F
330
2
100
AcDbEntity
  8
0
  6
Continuous
 62
     7
370
    25
100
AcDbPolyline
 90
       28
 70
   128
 43
0.0
 10
-592.2505388487316
 20
586.88620327742
 10
-593.8543809490405
 20
587.2321182527251
 10
-595.5745382444205
 20
587.3837733238372
 10
-597.3182766098379
 20
587.3329927266452
 10
-598.9915906586633
 20
587.0825140562824
 10
-600.5042715974123
 20
586.6458406826941
 10
-601.7747704051136
 20
586.0465137804754
 10
-602.7345941621924
 20
585.3168432180634
 10
-603.3319985214734
 20
584.496165724361
 10
-603.5347772593226
 20
583.628724235448
 10
-603.3319985214734
 20
582.7612827465477
 10
-602.7345941621924
 20
581.9406052528204
 10
-601.7747704051136
 20
581.2109346904207
 10
-600.5042715974123
 20
580.6116077882144
 10
-598.9915906586633
 20
580.1749344146263
 10
-597.3182766098379
 20
579.924455744251
 10
-595.5745382444205
 20
579.8736751470592
 10
-593.8543809490405
 20
580.0253302181712
 10
-592.2505388487316
 20
580.3712451934641
 10
-590.8494754862714
 20
580.8927717070839
 10
-589.7267225501848
 20
581.5617941296745
 10
-588.9428079418466
 20
582.3422452892784
 10
-588.539992700722
 20
583.1920508618598
 10
-588.539992700722
 20
584.0653976090364
 10
-588.9428079418466
 20
584.9152031816178
 10
-589.7267225501848
 20
585.6956543412218
 10
-590.8494754862714
 20
586.3646767638124
 10
-592.2505388487316
 20
586.88620327742
  0
LWPOLYLINE
  5
27010
330
2
100
AcDbEntity
  8
0
  6
Continuous
 62
     7
370
    25
100
AcDbPolyline
 90
       17
 70
   128
 43
0.0
 10
-555.2092858915405
 20
583.5466696697493
 10
-556.1514848821542
 20
583.7065863997783
 10
-557.1443582114225
 20
583.6740482217191
 10
-558.0367499153537
 20
583.4540087781943
 10
-558.6928014466162
 20
583.079967079837
 10
-559.0126349066744
 20
582.6088675845362
 10
-558.947558550556
 20
582.1124309199147
 10
-558.5074796635185
 20
581.6662350679365
 10
-557.7593962668287
 20
581.3382093023115
 10
-556.8171972762026
 20
581.1782925722702
 10
-555.8243239469344
 20
581.2108307503416
 10
-554.9319322430031
 20
581.4308701938665
 10
-554.2758807117409
 20
581.8049118922114
 10
-553.9560472516703
 20
582.2760113875119
 10
-554.0211236078131
 20
582.7724480521461
 10
-554.4612024948508
 20
583.2186439041119
 10
-555.2092858915405
 20
583.5466696697493
  0
LINE
  5
27011
330
2
100
AcDbEntity
  8
0
  6
Continuous
 62
     7
370
    25
100
AcDbLine
 10
-541.9696929330175
 20
582.1788959512649
 30
0.0
 11
-541.9696929330175
 21
581.820311894682
 31
0.0
  0
LINE
  5
27012
330
2
100
AcDbEntity
  8
0
  6
Continuous
 62
     7
370
    25
100
AcDbLine
 10
-593.7361657499439
 20
536.989231370898
 30
0.0
 11
-541.9696929330175
 21
581.820311894682
 31
0.0
  0
LWPOLYLINE
  5
27013
330
2
100
AcDbEntity
  8
0
  6
Continuous
 62
     7
370
    25
100
AcDbPolyline
 90
       13
 70
   128
 43
0.0
 10
-603.0833620312032
 20
582.3453633774703
 10
-603.0810953626854
 20
582.3484814656742
 10
-602.2971807543471
 20
583.1289326252783
 10
-601.1744278182605
 20
583.7979550478689
 10
-599.7733644558004
 20
584.3194815614764
 10
-598.1695223554915
 20
584.6653965367817
 10
-596.4493650601115
 20
584.817051607906
 10
-594.705626694694
 20
584.766271010714
 10
-593.0323126458687
 20
584.5157923403389
 10
-591.5196317071316
 20
584.0791189667506
 10
-590.2491328994184
 20
583.4797920645443
 10
-589.2893091423268
 20
582.7501215021325
 10
-588.9405412733534
 20
582.3453633774703
  0
LWPOLYLINE
  5
27014
330
2
100
AcDbEntity
  8
0
  6
Continuous
 62
     7
370
    25
100
AcDbPolyline
 90
       13
 70
   128
 43
0.0
 10
-695.102544008008
 20
608.9090131199279
 10
-695.1002773394779
 20
608.912131208132
 10
-694.3163627311519
 20
609.6925823677361
 10
-693.1936097950653
 20
610.3616047903267
 10
-691.7925464326052
 20
610.8831313039342
 10
-690.1887043322963
 20
611.2290462792393
 10
-688.4685470369163
 20
611.3807013503637
 10
-686.7248086714864
 20
611.3299207531716
 10
-685.0514946226735
 20
611.0794420827966
 10
-683.5388136839364
 20
610.6427687092083
 10
-682.2683148762232
 20
610.0434418070021
 10
-681.3084911191316
 20
609.31377124459
 10
-680.9597232501336
 20
608.9090131199279
  0
LINE
  5
27016
330
2
100
AcDbEntity
  8
0
  6
Continuous
 62
     7
370
    25
100
AcDbLine
 10
-485.9059630502003
 20
314.4614345814206
 30
0.0
 11
-485.9059630502003
 21
504.6344106668138
 31
0.0
  0
LINE
  5
27017
330
2
100
AcDbEntity
  8
0
  6
Continuous
 62
     7
370
    25
100
AcDbLine
 10
-866.2519152209746
 20
482.2855411897762
 30
0.0
 11
-866.2519152209746
 21
614.4308296022972
 31
0.0
  0
LINE
  5
27018
330
2
100
AcDbEntity
  8
0
  6
Continuous
 62
     7
370
    25
100
AcDbLine
 10
-760.5058987160997
 20
649.3404467939434
 30
0.0
 11
-783.5985648922137
 21
629.3416112443319
 31
0.0
  0
LINE
  5
27019
330
2
100
AcDbEntity
  8
0
  6
Continuous
 62
     7
370
    25
100
AcDbLine
 10
-636.3636044479688
 20
611.6362087221319
 30
0.0
 11
-634.7463500144786
 21
613.036792145922
 31
0.0
  0
LINE
  5
2701A
330
2
100
AcDbEntity
  8
0
  6
Continuous
 62
     7
370
    25
100
AcDbLine
 10
-775.8201883938335
 20
614.8269630981462
 30
0.0
 11
-745.8397042626295
 21
606.1723428063602
 31
0.0
  0
LWPOLYLINE
  5
2701B
330
2
100
AcDbEntity
  8
0
  6
Continuous
 62
     7
370
    25
100
AcDbPolyline
 90
       12
 70
   128
 43
0.0
 10
-783.5985648922137
 20
629.3416112443319
 10
-784.9234009806693
 20
627.9779658136679
 10
-785.8466181901345
 20
626.5339284104442
 10
-786.3494224805955
 20
625.0388954719259
 10
-786.421578206648
 20
623.5233015574185
 10
-786.0616164857876
 20
622.0179997884228
 10
-785.276865100587
 20
620.5536337680172
 10
-784.0832993262581
 20
619.1600137654893
 10
-782.505216719957
 20
617.8655098652166
 10
-780.5747424927806
 20
616.6964744335792
 10
-778.3311755329387
 20
615.6767056607511
 10
-775.8201883938335
 20
614.8269630981462
  0
LINE
  5
2701C
330
2
100
AcDbEntity
  8
0
  6
Continuous
 62
     7
370
    25
100
AcDbLine
 10
-604.0732893555477
 20
604.1822422317653
 30
0.0
 11
-605.6905437890256
 21
602.7816588079876
 31
0.0
  0
LINE
  5
2701D
330
2
100
AcDbEntity
  8
0
  6
Continuous
 62
     7
370
    25
100
AcDbLine
 10
-571.8477183621711
 20
555.9451828581209
 30
0.0
 11
-534.979841856049
 21
545.3023436454939
 31
0.0
  0
LWPOLYLINE
  5
2701E
330
2
100
AcDbEntity
  8
0
  6
Continuous
 62
     7
370
    25
100
AcDbPolyline
 90
       12
 70
   128
 43
0.0
 10
-783.5985648922137
 20
629.3416112443319
 10
-784.9234009806693
 20
627.9779658136679
 10
-785.8466181901345
 20
626.5339284104442
 10
-786.3494224805955
 20
625.0388954719259
 10
-786.421578206648
 20
623.5233015574185
 10
-786.0616164857876
 20
622.0179997884228
 10
-785.276865100587
 20
620.5536337680172
 10
-784.0832993262581
 20
619.1600137654893
 10
-782.505216719957
 20
617.8655098652166
 10
-780.5747424927806
 20
616.6964744335792
 10
-778.3311755329387
 20
615.6767056607511
 10
-775.8201883938335
 20
614.8269630981462
  0
LINE
  5
2701F
330
2
100
AcDbEntity
  8
0
  6
Continuous
 62
     7
370
    25
100
AcDbLine
 10
-485.9059630502003
 20
504.6344106668138
 30
0.0
 11
-594.4068873244361
 21
535.9559295853274
 31
0.0
  0
LINE
  5
27020
330
2
100
AcDbEntity
  8
0
  6
Continuous
 62
     7
370
    25
100
AcDbLine
 10
-767.4233266598812
 20
585.9014734976145
 30
0.0
 11
-866.2519152209746
 21
614.4308296022972
 31
0.0
  0
LINE
  5
27021
330
2
100
AcDbEntity
  8
0
  6
Continuous
 62
     7
370
    25
100
AcDbLine
 10
-485.9059630502003
 20
314.4614345814206
 30
0.0
 11
-611.2702455975063
 21
350.6509857191415
 31
0.0
  0
LINE
  5
27022
330
2
100
AcDbEntity
  8
0
  6
Continuous
 62
     7
370
    25
100
AcDbLine
 10
-661.8689774820905
 20
763.96859858444
 30
0.0
 11
-661.8689774820905
 21
764.1300622650235
 31
0.0
  0
LINE
  5
27023
330
2
100
AcDbEntity
  8
0
  6
Continuous
 62
     7
370
    25
100
AcDbLine
 10
-683.340119943352
 20
770.1646575480872
 30
0.0
 11
-683.340119943352
 21
770.3282472049344
 31
0.0
  0
LINE
  5
27024
330
2
100
AcDbEntity
  8
0
  6
Continuous
 62
     7
370
    25
100
AcDbLine
 10
-575.1652247227211
 20
839.0562510775065
 30
0.0
 11
-575.1652247227211
 21
839.21771475809
 31
0.0
  0
LINE
  5
27025
330
2
100
AcDbEntity
  8
0
  6
Continuous
 62
     7
370
    25
100
AcDbLine
 10
-596.6363671839576
 20
845.2523100411536
 30
0.0
 11
-596.6363671839576
 21
845.4158996980131
 31
0.0
  0
LINE
  5
27026
330
2
100
AcDbEntity
  8
0
  6
Continuous
 62
     7
370
    25
100
AcDbLine
 10
-684.7781888250294
 20
772.6246629866611
 30
0.0
 11
-684.7781888250294
 21
772.6113906174451
 31
0.0
  0
LINE
  5
27027
330
2
100
AcDbEntity
  8
0
  6
Continuous
 62
     7
370
    25
100
AcDbLine
 10
-670.1082404541598
 20
795.9546708450257
 30
0.0
 11
-670.1082404541598
 21
795.9527368588756
 31
0.0
  0
LINE
  5
27028
330
2
100
AcDbEntity
  8
0
  6
Continuous
 62
     7
370
    25
100
AcDbLine
 10
-598.0744360656474
 20
847.7123154797277
 30
0.0
 11
-598.0744360656474
 21
847.6990431105114
 31
0.0
  0
LINE
  5
27029
330
2
100
AcDbEntity
  8
0
  6
Continuous
 62
     7
370
    25
100
AcDbLine
 10
-808.6271545434696
 20
148.2257530151167
 30
0.0
 11
-649.2649823494647
 21
286.2374425373847
 31
0.0
  0
LINE
  5
2702A
330
2
100
AcDbEntity
  8
0
  6
Continuous
 62
     7
370
    25
100
AcDbLine
 10
-651.7188272021855
 20
280.4165083778513
 30
0.0
 11
-651.7188272021855
 21
282.9687831148067
 31
0.0
  0
LWPOLYLINE
  5
2702B
330
2
100
AcDbEntity
  8
0
  6
Continuous
 62
     7
370
    25
100
AcDbPolyline
 90
       13
 70
   128
 43
0.0
 10
-641.6673143828746
 20
327.1682535974664
 10
-641.8755689682521
 20
327.284716692458
 10
-642.3138908627683
 20
327.8361245338491
 10
-642.5830217673864
 20
328.7102339680824
 10
-642.661158296799
 20
329.836229847314
 10
-642.5419702940894
 20
331.1228906819859
 10
-642.2351136623649
 20
332.465978863319
 10
-641.7654481010268
 20
333.7566853745324
 10
-641.1710231206273
 20
334.8904448502031
 10
-640.4999954978915
 20
335.7754068403407
 10
-639.8067279000692
 20
336.3398769875686
 10
-639.1473847449137
 20
336.5381252776137
 10
-638.9201925330142
 20
336.5138383936834
  0
LWPOLYLINE
  5
2702C
330
2
100
AcDbEntity
  8
0
  6
Continuous
 62
     7
370
    25
100
AcDbPolyline
 90
       13
 70
   128
 43
0.0
 10
-639.6406240651753
 20
336.723117381896
 10
-639.9142112613788
 20
336.7594890254593
 10
-640.5735544165345
 20
336.5612407354265
 10
-641.266822014369
 20
335.9967705881863
 10
-641.9378496370923
 20
335.1118085980486
 10
-642.5322746175045
 20
333.978049122378
 10
-643.0019401788426
 20
332.6873426111646
 10
-643.3087968105546
 20
331.3442544298315
 10
-643.4279848132766
 20
330.0575935951719
 10
-643.349848283864
 20
328.9315977159279
 10
-643.0807173792335
 20
328.057488281707
 10
-642.6423954847298
 20
327.5060804403161
 10
-642.3439800295933
 20
327.3584176193017
  0
LINE
  5
2702D
330
2
100
AcDbEntity
  8
0
  6
Continuous
 62
     7
370
    25
100
AcDbLine
 10
-767.9789125039818
 20
582.7148129368389
 30
0.0
 11
-754.7093639251932
 21
578.8842242148412
 31
0.0
  0
LINE
  5
2702E
330
2
100
AcDbEntity
  8
0
  6
Continuous
 62
     7
370
    25
100
AcDbLine
 10
-614.6136092093155
 20
538.4420633660678
 30
0.0
 11
-596.2097728139645
 21
533.1293334175763
 31
0.0
  0
LINE
  5
2702F
330
2
100
AcDbEntity
  8
0
  6
Continuous
 62
     7
370
    25
100
AcDbLine
 10
-765.5053054399736
 20
589.1414326060919
 30
0.0
 11
-748.4722257277187
 21
584.2244060275991
 31
0.0
  0
LINE
  5
27030
330
2
100
AcDbEntity
  8
0
  6
Continuous
 62
     7
370
    25
100
AcDbLine
 10
-615.7164595902275
 20
545.9011173696144
 30
0.0
 11
-593.7361657499439
 21
539.5559530868415
 31
0.0
  0
LINE
  5
2718D
330
2
100
AcDbEntity
  8
0
  6
Continuous
 62
     7
370
    25
100
AcDbLine
 10
-485.9059630502003
 20
504.6344106642189
 30
0.0
 11
-540.4470607617128
 21
520.3790693896328
 31
0.0
  0
LINE
  5
2718E
330
2
100
AcDbEntity
  8
0
  6
Continuous
 62
     7
370
    25
100
AcDbLine
 10
-875.4538334186438
 20
617.0871945765441
 30
0.0
 11
-991.7823522555234
 21
650.6683454089945
 31
0.0
  0
VIEWPORT
  5
235
102
{ACAD_XDICTIONARY
360
236
102
}
330
1A0
100
AcDbEntity
 67
     1
  8
0
348
1ED
100
AcDbViewport
 10
104.9324772176664
 20
146.7338366516244
 30
0.0
 40
585.1516156215899
 41
305.5544558125413
 68
     2
 69
     1
 12
104.9324772176664
 22
146.7338366516244
 13
0.0
 23
0.0
 14
0.5
 24
0.5
 15
0.5
 25
0.5
 16
0.0
 26
0.0
 36
1.0
 17
0.0
 27
0.0
 37
0.0
 42
50.0
 43
0.0
 44
0.0
 45
305.5544558125413
 50
0.0
 51
0.0
 72
     0
 90
   557088
  1

281
     0
 71
     1
 74
     0
110
0.0
120
0.0
130
0.0
111
1.0
121
0.0
131
0.0
112
0.0
122
1.0
132
0.0
 79
     0
146
0.0
170
     0
 61
     5
348
1ED
292
     1
282
     1
141
0.0
142
0.0
 63
   250
421
  3355443
  0
VIEWPORT
  5
1ABA
102
{ACAD_XDICTIONARY
360
1ABB
102
}
330
1A0
100
AcDbEntity
 67
     1
  8
0
348
1ED
100
AcDbViewport
 10
104.9324766950082
 20
146.7338359453798
 30
0.0
 40
224.4799921571632
 41
303.3297726764019
 68
     1
 69
     2
 12
-612.1123565541394
 22
361.1200653349678
 13
0.0
 23
0.0
 14
0.5
 24
0.5
 15
0.5
 25
0.5
 16
0.0
 26
0.0
 36
1.0
 17
0.0
 27
0.0
 37
0.0
 42
50.0
 43
0.0
 44
0.0
 45
1668.31374972021
 50
0.0
 51
0.0
 72
   100
 90
   573472
  1

281
     0
 71
     1
 74
     0
110
0.0
120
0.0
130
0.0
111
1.0
121
0.0
131
0.0
112
0.0
122
1.0
132
0.0
 79
     0
146
0.0
170
     0
 61
     5
348
1ED
292
     1
282
     1
141
0.0
142
0.0
 63
   250
421
  3355443
  0
ENDSEC
  0
SECTION
  2
OBJECTS
  0
DICTIONARY
  5
1B7
330
0
100
AcDbDictionary
281
     1
  3
ACAD_CIP_PREVIOUS_PRODUCT_INFO
350
221
  3
ACAD_COLOR
350
200
  3
ACAD_DETAILVIEWSTYLE
350
21A
  3
ACAD_GROUP
350
1B4
  3
ACAD_LAST_SAVED_VERSION_INFO
350
23716
  3
ACAD_LAYOUT
350
201
  3
ACAD_MATERIAL
350
1CE
  3
ACAD_MLEADERSTYLE
350
216
  3
ACAD_MLINESTYLE
350
1B5
  3
ACAD_PLOTSETTINGS
350
21C
  3
ACAD_PLOTSTYLENAME
350
1CC
  3
ACAD_SCALELIST
350
204
  3
ACAD_SECTIONVIEWSTYLE
350
218
  3
ACAD_TABLESTYLE
350
202
  3
ACAD_VISUALSTYLE
350
1E7
  3
ACDB_RECOMPOSE_DATA
350
2719E
  3
AcDbVariableDictionary
350
7D6
  3
AcDsDecomposeData
350
271A4
  0
DICTIONARY
  5
1A9
330
1A8
100
AcDbDictionary
280
     1
281
     1
  0
DICTIONARY
  5
1AB
330
1AA
100
AcDbDictionary
280
     1
281
     1
  0
DICTIONARY
  5
6
330
5
100
AcDbDictionary
280
     1
281
     1
  0
DICTIONARY
  5
22C
330
1A5
100
AcDbDictionary
280
     1
281
     1
  3
ACAD_LAYERSTATES
360
22D
  0
DICTIONARY
  5
686
330
61
100
AcDbDictionary
280
     1
281
     1
  3
ADSK_XREC_LAYER_RECONCILED
360
687
  0
DICTIONARY
  5
F69
330
F68
100
AcDbDictionary
280
     1
281
     1
  0
DICTIONARY
  5
B
330
A
100
AcDbDictionary
280
     1
281
     1
  0
DICTIONARY
  5
1BC
330
1BB
100
AcDbDictionary
280
     1
281
     1
  0
DICTIONARY
  5
19C
330
2
100
AcDbDictionary
280
     1
281
     1
  3
ACAD_LAYOUTSELFREF
360
19D
  3
ACAD_SORTENTS
360
205EF
  0
DICTIONARY
  5
1A1
330
1A0
100
AcDbDictionary
280
     1
281
     1
  3
ACAD_LAYOUTSELFREF
360
1A2
  0
DICTIONARY
  5
236
330
235
100
AcDbDictionary
280
     1
281
     1
  3
ASDK_XREC_ANNOTATION_SCALE_INFO
360
237
  0
DICTIONARY
  5
1ABB
330
1ABA
100
AcDbDictionary
280
     1
281
     1
  3
ASDK_XREC_ANNOTATION_SCALE_INFO
360
1ABC
  0
XRECORD
  5
221
102
{ACAD_REACTORS
330
1B7
102
}
330
1B7
100
AcDbXrecord
280
     1
300
ACD
300
2024
300

  0
DICTIONARY
  5
200
102
{ACAD_REACTORS
330
1B7
102
}
330
1B7
100
AcDbDictionary
281
     1
  0
DICTIONARY
  5
21A
102
{ACAD_REACTORS
330
1B7
102
}
330
1B7
100
AcDbDictionary
281
     1
  3
Imperial24
350
21B
  0
DICTIONARY
  5
1B4
102
{ACAD_REACTORS
330
1B7
102
}
330
1B7
100
AcDbDictionary
281
     1
  0
XRECORD
  5
23716
102
{ACAD_REACTORS
330
1B7
102
}
330
1B7
100
AcDbXrecord
280
     1
300
{E25096A8-A71F-FC4A-A544-E3BF55354A15}
301
{A6DC4264-98CA-424D-8E4E-2FD9C4F5102F}
302
{E25096A8-A71F-FC4A-A544-E3BF55354A15}
303
\\trussrite.com.vn\VW-FILESRV02\CUSTOMERS FOLDER\Zone 4\Job\USP Cad details\MPH Drawings and Renders\ouput\MPH610\MPH610 _ app wireframe\MPH610 _ app wireframe.dxf
301
{C98F894A-C07A-8B4E-8BD9-9D9BF0A78C42}
302
{A7C812B1-5587-CD40-9E0F-0C2213D1521A}
303
D:\0. TRAINING\HARDWARE\1. Job training\11. MPH Drawings and Renders\1. OUTPUT\MPH610\MPH610 _ app wireframe\MPH610 _ app wireframe.dwg
  0
DICTIONARY
  5
201
102
{ACAD_REACTORS
330
1B7
102
}
330
1B7
100
AcDbDictionary
281
     1
  3
Layout 1
350
21E
  3
Model
350
21D
  0
DICTIONARY
  5
1CE
102
{ACAD_REACTORS
330
1B7
102
}
330
1B7
100
AcDbDictionary
281
     1
  3
ByBlock
350
1D7
  3
ByLayer
350
1CF
  3
Global
350
1DF
  0
DICTIONARY
  5
216
102
{ACAD_REACTORS
330
1B7
102
}
330
1B7
100
AcDbDictionary
281
     1
  3
Standard
350
217
  0
DICTIONARY
  5
1B5
102
{ACAD_XDICTIONARY
360
1B6
102
}
102
{ACAD_REACTORS
330
1B7
102
}
330
1B7
100
AcDbDictionary
281
     1
  3
STANDARD
350
1BA
  0
DICTIONARY
  5
21C
102
{ACAD_REACTORS
330
1B7
102
}
330
1B7
100
AcDbDictionary
281
     1
  3
A4
350
19B0
  0
ACDBDICTIONARYWDFLT
  5
1CC
102
{ACAD_REACTORS
330
1B7
102
}
330
1B7
100
AcDbDictionary
281
     1
  3
Normal
350
1CD
100
AcDbDictionaryWithDefault
340
1CD
  0
DICTIONARY
  5
204
102
{ACAD_REACTORS
330
1B7
102
}
330
1B7
100
AcDbDictionary
281
     1
  3
A0
350
205
  3
A1
350
26CDE
  3
A2
350
26CDF
  3
A3
350
26CE0
  3
A4
350
26CE1
  3
A5
350
20325
  3
A6
350
26CE2
  3
A7
350
26CE3
  3
A8
350
26CE4
  3
A9
350
26CE5
  3
B0
350
26CE6
  3
B1
350
26CE7
  3
B2
350
26CE8
  3
B3
350
26CE9
  3
B4
350
26CEA
  3
B5
350
26CEB
  3
B6
350
26CEC
  3
B7
350
26CED
  3
B8
350
26CEE
  3
B9
350
26CEF
  3
C0
350
26CF0
  3
C1
350
26CF1
  3
C2
350
26CF2
  3
C3
350
26CF3
  3
C4
350
26CF4
  3
C5
350
26CF5
  3
C6
350
26CF6
  3
C7
350
26CF7
  3
C8
350
26CF8
  0
DICTIONARY
  5
218
102
{ACAD_REACTORS
330
1B7
102
}
330
1B7
100
AcDbDictionary
281
     1
  3
Imperial24
350
219
  0
DICTIONARY
  5
202
102
{ACAD_REACTORS
330
1B7
102
}
330
1B7
100
AcDbDictionary
281
     1
  3
Standard
350
203
  0
DICTIONARY
  5
1E7
102
{ACAD_REACTORS
330
1B7
102
}
330
1B7
100
AcDbDictionary
281
     1
  3
2dWireframe
350
1ED
  3
Basic
350
1EC
  3
Brighten
350
1F3
  3
ColorChange
350
1F7
  3
Conceptual
350
1F0
  3
Dim
350
1F2
  3
EdgeColorOff
350
1FF
  3
Facepattern
350
1F6
  3
Flat
350
1E8
  3
FlatWithEdges
350
1E9
  3
Gouraud
350
1EA
  3
GouraudWithEdges
350
1EB
  3
Hidden
350
1EF
  3
JitterOff
350
1FD
  3
Linepattern
350
1F5
  3
OverhangOff
350
1FE
  3
Realistic
350
1F1
  3
Shaded
350
1FC
  3
Shaded with edges
350
1FB
  3
Shades of Gray
350
1F8
  3
Sketchy
350
1F9
  3
Thicken
350
1F4
  3
Wireframe
350
1EE
  3
X-Ray
350
1FA
  0
XRECORD
  5
2719E
102
{ACAD_REACTORS
330
1B7
102
}
330
1B7
100
AcDbXrecord
280
     1
 90
        1
330
203
  0
DICTIONARY
  5
7D6
102
{ACAD_REACTORS
330
1B7
102
}
330
1B7
100
AcDbDictionary
281
     1
  3
CANNOSCALE
350
7DC
  3
CMLEADERSTYLE
350
7D8
  3
CTABLESTYLE
350
7D7
  3
CVIEWDETAILSTYLE
350
7D9
  3
CVIEWSECTIONSTYLE
350
7DA
  3
LAYEREVAL
350
7DE
  3
LAYERNOTIFY
350
7DF
  3
LIGHTINGUNITS
350
7DD
  3
MSLTSCALE
350
7DB
  0
DICTIONARY
  5
271A4
102
{ACAD_REACTORS
330
1B7
102
}
330
1B7
100
AcDbDictionary
281
     1
  3
AcDsRecords
350
271A6
  3
AcDsSchemas
350
271A5
1001
ACAD
1070
     2
  0
DICTIONARY
  5
22D
102
{ACAD_REACTORS
330
22C
102
}
330
22C
100
AcDbDictionary
281
     1
  0
XRECORD
  5
687
102
{ACAD_REACTORS
330
686
102
}
330
686
100
AcDbXrecord
280
     1
290
     1
  0
XRECORD
  5
19D
102
{ACAD_REACTORS
330
19C
102
}
330
19C
100
AcDbXrecord
280
     1
340
2
  0
SORTENTSTABLE
  5
205EF
102
{ACAD_REACTORS
330
19C
102
}
330
19C
100
AcDbSortentsTable
330
2
331
26FA7
  5
26FA8
331
26FA8
  5
26FA9
331
26FA9
  5
26FAA
331
26FAA
  5
26FAB
331
26FAB
  5
26FAC
331
26FAC
  5
26FAD
331
26FAD
  5
26FAE
331
26FAE
  5
26FAF
331
26FAF
  5
26FB0
331
26FB0
  5
26FB1
331
26FB1
  5
26FB2
331
26FB2
  5
26FB3
331
26FB3
  5
26FB4
331
26FB4
  5
26FB6
331
26FB5
  5
26FB7
331
26FB6
  5
26FB8
331
26FB7
  5
26FB9
331
26FB8
  5
26FBA
331
26FB9
  5
26FBB
331
26FBA
  5
26FBC
331
26FBB
  5
26FBD
331
26FBC
  5
26FBE
331
26FBD
  5
26FBF
331
26FBE
  5
26FC0
331
26FBF
  5
26FC1
331
26FC0
  5
26FC2
331
26FC1
  5
26FC3
331
26FC2
  5
26FC4
331
26FC3
  5
26FC5
331
26FC4
  5
26FC6
331
26FC5
  5
26FC7
331
26FC6
  5
26FC8
331
26FC7
  5
26FC9
331
26FC8
  5
26FCA
331
26FC9
  5
26FCB
331
26FCA
  5
26FCC
331
26FCB
  5
26FCD
331
26FCC
  5
26FCE
331
26FCD
  5
26FCF
331
26FCE
  5
26FD0
331
26FCF
  5
26FD1
331
26FD0
  5
26FD2
331
26FD1
  5
26FD3
331
26FD3
  5
26FD5
331
26FD4
  5
26FD6
331
26FD5
  5
26FD7
331
26FD6
  5
26FD8
331
26FD7
  5
26FD9
331
26FD8
  5
26FDA
331
26FD9
  5
26FDB
331
26FDA
  5
26FDC
331
26FDB
  5
26FDD
331
26FDC
  5
26FDE
331
26FDD
  5
26FDF
331
26FDE
  5
26FE0
331
26FDF
  5
26FE1
331
26FE0
  5
26FE2
331
26FE1
  5
26FE3
331
26FE2
  5
26FE4
331
26FE3
  5
26FE5
331
26FE4
  5
26FE6
331
26FE5
  5
26FE7
331
26FE6
  5
26FE8
331
26FE7
  5
26FE9
331
26FE8
  5
26FEA
331
26FE9
  5
26FEB
331
26FEA
  5
26FEC
331
26FEB
  5
26FED
331
26FEC
  5
26FEE
331
26FED
  5
26FEF
331
26FEE
  5
26FF0
331
26FEF
  5
26FF1
331
26FF0
  5
26FF2
331
26FF1
  5
26FF3
331
26FF2
  5
26FF4
331
26FF3
  5
26FF5
331
26FF4
  5
26FF6
331
26FF5
  5
26FF7
331
26FF6
  5
26FF8
331
26FF7
  5
26FF9
331
26FF8
  5
26FFA
331
26FF9
  5
26FFB
331
26FFA
  5
26FFC
331
26FFB
  5
26FFD
331
26FFC
  5
26FFE
331
26FFD
  5
26FFF
331
26FFE
  5
27000
331
26FFF
  5
27001
331
27000
  5
27002
331
27001
  5
27003
331
27002
  5
27004
331
27003
  5
27005
331
27004
  5
27006
331
27005
  5
27007
331
27006
  5
27008
331
27007
  5
27009
331
27008
  5
2700A
331
27009
  5
2700B
331
2700A
  5
2700C
331
2700B
  5
2700D
331
2700C
  5
2700E
331
2700D
  5
2700F
331
2700E
  5
27010
331
2700F
  5
27011
331
27010
  5
27012
331
27011
  5
27013
331
27012
  5
27014
331
27013
  5
27015
331
27014
  5
27016
331
27016
  5
27018
331
27017
  5
27019
331
27018
  5
2701A
331
27019
  5
2701B
331
2701A
  5
2701C
331
2701B
  5
2701D
331
2701C
  5
2701E
331
2701D
  5
2701F
331
2701E
  5
27020
331
2701F
  5
27021
331
27020
  5
27022
331
27021
  5
27023
331
27022
  5
27024
331
27023
  5
27025
331
27024
  5
27026
331
27025
  5
27027
331
27026
  5
27028
331
27027
  5
27029
331
27028
  5
2702A
331
27029
  5
2702B
331
2702A
  5
2702C
331
2702B
  5
2702D
331
2702C
  5
2702E
331
2702D
  5
2702F
331
2702E
  5
27030
331
2702F
  5
2718D
331
27030
  5
2718E
331
2718D
  5
26FA7
331
2718E
  5
26FB5
  0
XRECORD
  5
1A2
102
{ACAD_REACTORS
330
1A1
102
}
330
1A1
100
AcDbXrecord
280
     1
340
1A2
  0
XRECORD
  5
237
102
{ACAD_REACTORS
330
236
102
}
330
236
100
AcDbXrecord
280
     1
 90
        1
340
205
  0
XRECORD
  5
1ABC
102
{ACAD_REACTORS
330
1ABB
102
}
330
1ABB
100
AcDbXrecord
280
     1
 90
        1
340
26CDE
  0
ACDBDETAILVIEWSTYLE
  5
21B
102
{ACAD_XDICTIONARY
360
271A9
102
}
102
{ACAD_REACTORS
330
21A
102
}
330
21A
100
AcDbModelDocViewStyle
 70
     0
  3
Imperial24
290
     0
100
AcDbDetailViewStyle
 70
     0
 71
     0
 90
        3
 71
     1
340
A
 62
   256
 40
0.24
340
0
 62
   256
 40
0.24
300

 40
0.36
280
     3
 71
     2
340
5
 90
       25
 62
   256
 71
     3
340
A
 62
   256
 40
0.24
 90
        1
 40
0.75
 90
        1
300
%<\AcVar ViewType \f "%tc1">% %<\AcVar ViewDetailId>%\PSCALE %<\AcVar ViewScale \f "%sn">%
 71
     4
340
5
 90
       25
 62
   256
340
5
 90
       25
 62
   256
280
     0
  0
LAYOUT
  5
21E
102
{ACAD_XDICTIONARY
360
252F5
102
}
102
{ACAD_REACTORS
330
201
102
}
330
201
100
AcDbPlotSettings
  1

  2
DWG To PDF.pc3
  4
ISO_full_bleed_A4_(210.00_x_297.00_MM)
  6

 40
0.0
 41
0.0
 42
0.0
 43
0.0
 44
210.0
 45
297.0
 46
0.0
 47
0.0
 48
0.0
 49
0.0
140
0.0
141
0.0
142
1.0
143
1.0
 70
   672
 72
     1
 73
     0
 74
     5
  7
monochrome.ctb
 75
    16
147
25.4
 76
     0
 77
     2
 78
   300
148
0.0
149
0.0
100
AcDbLayout
  1
Layout 1
 70
     1
 71
     1
 10
0.0
 20
0.0
 11
210.0
 21
297.0
 12
0.0
 22
0.0
 32
0.0
 14
-7.314369446621242
 24
-4.94030657662256
 34
-0.0015258207003583
 15
217.1793238819542
 25
298.4079798798715
 35
0.0000000349246037
146
0.0
 13
0.0
 23
0.0
 33
0.0
 16
1.0
 26
0.0
 36
0.0
 17
0.0
 27
1.0
 37
0.0
 76
     0
330
1A0
331
1ABA
1001
PLOTTRANSPARENCY
1071
        1
1001
ACAD_PSEXT
1000
DWG To PDF.pc3
1000
DWG To PDF
1000
File
1000

1070
     0
  0
LAYOUT
  5
21D
102
{ACAD_XDICTIONARY
360
237AD
102
}
102
{ACAD_REACTORS
330
201
102
}
330
201
100
AcDbPlotSettings
  1

  2
DWG To PDF.pc3
  4
ISO_full_bleed_A4_(210.00_x_297.00_MM)
  6

 40
0.7937499880790711
 41
0.7937499880790711
 42
0.7937469482421875
 43
0.79376220703125
 44
210.0
 45
297.0
 46
0.0
 47
0.0
 48
0.0
 49
0.0
140
0.0
141
0.0
142
1.0
143
6.980987797419007
 70
 11952
 72
     1
 73
     0
 74
     0
  7

 75
     0
147
0.1432462036919356
 76
     0
 77
     2
 78
   300
148
528.7620538809947
149
148.3289992822255
100
AcDbLayout
  1
Model
 70
     1
 71
     0
 10
0.0
 20
0.0
 11
12.0
 21
9.0
 12
0.0
 22
0.0
 32
0.0
 14
0.0
 24
0.0
 34
0.0
 15
0.0
 25
0.0
 35
0.0
146
0.0
 13
0.0
 23
0.0
 33
0.0
 16
1.0
 26
0.0
 36
0.0
 17
0.0
 27
1.0
 37
0.0
 76
     0
330
2
331
1CA
1001
ACAD_PSEXT
1000
DWG To PDF.pc3
1000
DWG To PDF
1000
File
1000

1070
     0
  0
MATERIAL
  5
1D7
102
{ACAD_XDICTIONARY
360
1D8
102
}
102
{ACAD_REACTORS
330
1CE
102
}
330
1CE
100
AcDbMaterial
  1
ByBlock
 72
     0
 43
0.0208333333333333
 43
0.0
 43
0.0
 43
0.0
 43
0.0
 43
0.0208333333333333
 43
0.0
 43
0.0
 43
0.0
 43
0.0
 43
1.0
 43
0.0
 43
0.0
 43
0.0
 43
0.0
 43
1.0
 77
     0
 47
0.0208333333333333
 47
0.0
 47
0.0
 47
0.0
 47
0.0
 47
0.0208333333333333
 47
0.0
 47
0.0
 47
0.0
 47
0.0
 47
1.0
 47
0.0
 47
0.0
 47
0.0
 47
0.0
 47
1.0
171
     0
 49
0.0208333333333333
 49
0.0
 49
0.0
 49
0.0
 49
0.0
 49
0.0208333333333333
 49
0.0
 49
0.0
 49
0.0
 49
0.0
 49
1.0
 49
0.0
 49
0.0
 49
0.0
 49
0.0
 49
1.0
175
     0
142
0.0208333333333333
142
0.0
142
0.0
142
0.0
142
0.0
142
0.0208333333333333
142
0.0
142
0.0
142
0.0
142
0.0
142
1.0
142
0.0
142
0.0
142
0.0
142
0.0
142
1.0
179
     0
144
0.0208333333333333
144
0.0
144
0.0
144
0.0
144
0.0
144
0.0208333333333333
144
0.0
144
0.0
144
0.0
144
0.0
144
1.0
144
0.0
144
0.0
144
0.0
144
0.0
144
1.0
147
0.0208333333333333
147
0.0
147
0.0
147
0.0
147
0.0
147
0.0208333333333333
147
0.0
147
0.0
147
0.0
147
0.0
147
1.0
147
0.0
147
0.0
147
0.0
147
0.0
147
1.0
  0
MATERIAL
  5
1CF
102
{ACAD_XDICTIONARY
360
1D0
102
}
102
{ACAD_REACTORS
330
1CE
102
}
330
1CE
100
AcDbMaterial
  1
ByLayer
 72
     0
 43
0.0208333333333333
 43
0.0
 43
0.0
 43
0.0
 43
0.0
 43
0.0208333333333333
 43
0.0
 43
0.0
 43
0.0
 43
0.0
 43
1.0
 43
0.0
 43
0.0
 43
0.0
 43
0.0
 43
1.0
 77
     0
 47
0.0208333333333333
 47
0.0
 47
0.0
 47
0.0
 47
0.0
 47
0.0208333333333333
 47
0.0
 47
0.0
 47
0.0
 47
0.0
 47
1.0
 47
0.0
 47
0.0
 47
0.0
 47
0.0
 47
1.0
171
     0
 49
0.0208333333333333
 49
0.0
 49
0.0
 49
0.0
 49
0.0
 49
0.0208333333333333
 49
0.0
 49
0.0
 49
0.0
 49
0.0
 49
1.0
 49
0.0
 49
0.0
 49
0.0
 49
0.0
 49
1.0
175
     0
142
0.0208333333333333
142
0.0
142
0.0
142
0.0
142
0.0
142
0.0208333333333333
142
0.0
142
0.0
142
0.0
142
0.0
142
1.0
142
0.0
142
0.0
142
0.0
142
0.0
142
1.0
179
     0
144
0.0208333333333333
144
0.0
144
0.0
144
0.0
144
0.0
144
0.0208333333333333
144
0.0
144
0.0
144
0.0
144
0.0
144
1.0
144
0.0
144
0.0
144
0.0
144
0.0
144
1.0
147
0.0208333333333333
147
0.0
147
0.0
147
0.0
147
0.0
147
0.0208333333333333
147
0.0
147
0.0
147
0.0
147
0.0
147
1.0
147
0.0
147
0.0
147
0.0
147
0.0
147
1.0
  0
MATERIAL
  5
1DF
102
{ACAD_XDICTIONARY
360
1E0
102
}
102
{ACAD_REACTORS
330
1CE
102
}
330
1CE
100
AcDbMaterial
  1
Global
 72
     0
 43
0.0208333333333333
 43
0.0
 43
0.0
 43
0.0
 43
0.0
 43
0.0208333333333333
 43
0.0
 43
0.0
 43
0.0
 43
0.0
 43
1.0
 43
0.0
 43
0.0
 43
0.0
 43
0.0
 43
1.0
 77
     0
 47
0.0208333333333333
 47
0.0
 47
0.0
 47
0.0
 47
0.0
 47
0.0208333333333333
 47
0.0
 47
0.0
 47
0.0
 47
0.0
 47
1.0
 47
0.0
 47
0.0
 47
0.0
 47
0.0
 47
1.0
171
     0
 49
0.0208333333333333
 49
0.0
 49
0.0
 49
0.0
 49
0.0
 49
0.0208333333333333
 49
0.0
 49
0.0
 49
0.0
 49
0.0
 49
1.0
 49
0.0
 49
0.0
 49
0.0
 49
0.0
 49
1.0
175
     0
142
0.0208333333333333
142
0.0
142
0.0
142
0.0
142
0.0
142
0.0208333333333333
142
0.0
142
0.0
142
0.0
142
0.0
142
1.0
142
0.0
142
0.0
142
0.0
142
0.0
142
1.0
179
     0
144
0.0208333333333333
144
0.0
144
0.0
144
0.0
144
0.0
144
0.0208333333333333
144
0.0
144
0.0
144
0.0
144
0.0
144
1.0
144
0.0
144
0.0
144
0.0
144
0.0
144
1.0
147
0.0208333333333333
147
0.0
147
0.0
147
0.0
147
0.0
147
0.0208333333333333
147
0.0
147
0.0
147
0.0
147
0.0
147
1.0
147
0.0
147
0.0
147
0.0
147
0.0
147
1.0
  0
MLEADERSTYLE
  5
217
102
{ACAD_REACTORS
330
216
102
}
330
216
100
AcDbMLeaderStyle
179
     2
170
     2
171
     1
172
     0
 90
        2
 40
0.0
 41
0.0
173
     1
 91
-1056964608
340
1A8
 92
       -2
290
     1
 42
0.09
291
     1
 43
0.36
  3
Standard
 44
0.18
300

342
A
174
     1
178
     6
175
     1
176
     0
 93
-1056964608
 45
0.18
292
     0
297
     0
 46
0.18
 94
-1056964608
 47
1.0
 49
1.0
140
1.0
293
     1
141
0.0
294
     1
177
     0
142
1.0
295
     0
296
     0
143
0.125
271
     0
272
     9
273
     9
298
     1
  0
DICTIONARY
  5
1B6
330
1B5
100
AcDbDictionary
280
     1
281
     1
  0
MLINESTYLE
  5
1BA
102
{ACAD_REACTORS
330
1B5
102
}
330
1B5
100
AcDbMlineStyle
  2
STANDARD
 70
     0
  3

 62
   256
 51
90.0
 52
90.0
 71
     2
 49
0.5
 62
   256
  6
BYLAYER
 49
-0.5
 62
   256
  6
BYLAYER
  0
PLOTSETTINGS
  5
19B0
102
{ACAD_REACTORS
330
21C
102
}
330
21C
100
AcDbPlotSettings
  1
A4
  2
DWG To PDF.pc3
  4
ISO_A4_(210.00_x_297.00_MM)
  6

 40
0.0
 41
0.0
 42
0.0
 43
0.0
 44
210.0
 45
297.0
 46
0.0
 47
0.0
 48
0.0
 49
0.0
140
0.0
141
0.0
142
1.0
143
1.0
 70
  2720
 72
     1
 73
     0
 74
     5
  7
monochrome.ctb
 75
    16
147
25.4
 76
     0
 77
     2
 78
   300
148
0.0
149
0.0
1001
ACAD_PSEXT
1000
DWG To PDF.pc3
1000
DWG To PDF
1000
File
1000

1070
     0
1001
PLOTTRANSPARENCY
1071
        1
  0
ACDBPLACEHOLDER
  5
1CD
102
{ACAD_REACTORS
330
1CC
102
}
330
1CC
  0
SCALE
  5
205
102
{ACAD_REACTORS
330
204
102
}
330
204
100
AcDbScale
 70
     0
300
1:1
140
1.0
141
1.0
290
     1
  0
SCALE
  5
26CDE
102
{ACAD_REACTORS
330
204
102
}
330
204
100
AcDbScale
 70
     0
300
1; 5.5
140
1.0
141
5.5
290
     0
  0
SCALE
  5
26CDF
102
{ACAD_REACTORS
330
204
102
}
330
204
100
AcDbScale
 70
     0
300
1:6.5
140
1.0
141
6.5
290
     0
  0
SCALE
  5
26CE0
102
{ACAD_REACTORS
330
204
102
}
330
204
100
AcDbScale
 70
     0
300
6.5
140
1.0
141
1.0
290
     0
  0
SCALE
  5
26CE1
102
{ACAD_REACTORS
330
204
102
}
330
204
100
AcDbScale
 70
     0
300
1:7
140
1.0
141
7.0
290
     0
  0
SCALE
  5
20325
102
{ACAD_REACTORS
330
204
102
}
330
204
100
AcDbScale
 70
     0
300
1:6
140
1.0
141
6.0
290
     0
  0
SCALE
  5
26CE2
102
{ACAD_REACTORS
330
204
102
}
330
204
100
AcDbScale
 70
     0
300
1:8
140
1.0
141
8.0
290
     0
  0
SCALE
  5
26CE3
102
{ACAD_REACTORS
330
204
102
}
330
204
100
AcDbScale
 70
     0
300
1:5
140
1.0
141
5.0
290
     0
  0
SCALE
  5
26CE4
102
{ACAD_REACTORS
330
204
102
}
330
204
100
AcDbScale
 70
     0
300
1:3.5
140
1.0
141
3.5
290
     0
  0
SCALE
  5
26CE5
102
{ACAD_REACTORS
330
204
102
}
330
204
100
AcDbScale
 70
     0
300
1:4
140
1.0
141
4.0
290
     0
  0
SCALE
  5
26CE6
102
{ACAD_REACTORS
330
204
102
}
330
204
100
AcDbScale
 70
     0
300
1:3
140
1.0
141
3.0
290
     0
  0
SCALE
  5
26CE7
102
{ACAD_REACTORS
330
204
102
}
330
204
100
AcDbScale
 70
     0
300
1:2.5
140
1.0
141
2.5
290
     0
  0
SCALE
  5
26CE8
102
{ACAD_REACTORS
330
204
102
}
330
204
100
AcDbScale
 70
     0
300
1:2
140
1.0
141
2.0
290
     0
  0
SCALE
  5
26CE9
102
{ACAD_REACTORS
330
204
102
}
330
204
100
AcDbScale
 70
     0
300
1/128" = 1'-0"
140
0.0078125
141
12.0
290
     0
  0
SCALE
  5
26CEA
102
{ACAD_REACTORS
330
204
102
}
330
204
100
AcDbScale
 70
     0
300
1/64" = 1'-0"
140
0.015625
141
12.0
290
     0
  0
SCALE
  5
26CEB
102
{ACAD_REACTORS
330
204
102
}
330
204
100
AcDbScale
 70
     0
300
1/32" = 1'-0"
140
0.03125
141
12.0
290
     0
  0
SCALE
  5
26CEC
102
{ACAD_REACTORS
330
204
102
}
330
204
100
AcDbScale
 70
     0
300
1/16" = 1'-0"
140
0.0625
141
12.0
290
     0
  0
SCALE
  5
26CED
102
{ACAD_REACTORS
330
204
102
}
330
204
100
AcDbScale
 70
     0
300
3/32" = 1'-0"
140
0.09375
141
12.0
290
     0
  0
SCALE
  5
26CEE
102
{ACAD_REACTORS
330
204
102
}
330
204
100
AcDbScale
 70
     0
300
1/8" = 1'-0"
140
0.125
141
12.0
290
     0
  0
SCALE
  5
26CEF
102
{ACAD_REACTORS
330
204
102
}
330
204
100
AcDbScale
 70
     0
300
3/16" = 1'-0"
140
0.1875
141
12.0
290
     0
  0
SCALE
  5
26CF0
102
{ACAD_REACTORS
330
204
102
}
330
204
100
AcDbScale
 70
     0
300
1/4" = 1'-0"
140
0.25
141
12.0
290
     0
  0
SCALE
  5
26CF1
102
{ACAD_REACTORS
330
204
102
}
330
204
100
AcDbScale
 70
     0
300
3/8" = 1'-0"
140
0.375
141
12.0
290
     0
  0
SCALE
  5
26CF2
102
{ACAD_REACTORS
330
204
102
}
330
204
100
AcDbScale
 70
     0
300
1/2" = 1'-0"
140
0.5
141
12.0
290
     0
  0
SCALE
  5
26CF3
102
{ACAD_REACTORS
330
204
102
}
330
204
100
AcDbScale
 70
     0
300
3/4" = 1'-0"
140
0.75
141
12.0
290
     0
  0
SCALE
  5
26CF4
102
{ACAD_REACTORS
330
204
102
}
330
204
100
AcDbScale
 70
     0
300
1" = 1'-0"
140
1.0
141
12.0
290
     0
  0
SCALE
  5
26CF5
102
{ACAD_REACTORS
330
204
102
}
330
204
100
AcDbScale
 70
     0
300
1-1/2" = 1'-0"
140
1.5
141
12.0
290
     0
  0
SCALE
  5
26CF6
102
{ACAD_REACTORS
330
204
102
}
330
204
100
AcDbScale
 70
     0
300
3" = 1'-0"
140
3.0
141
12.0
290
     0
  0
SCALE
  5
26CF7
102
{ACAD_REACTORS
330
204
102
}
330
204
100
AcDbScale
 70
     0
300
6" = 1'-0"
140
6.0
141
12.0
290
     0
  0
SCALE
  5
26CF8
102
{ACAD_REACTORS
330
204
102
}
330
204
100
AcDbScale
 70
     0
300
1'-0" = 1'-0"
140
12.0
141
12.0
290
     0
  0
ACDBSECTIONVIEWSTYLE
  5
219
102
{ACAD_XDICTIONARY
360
271A7
102
}
102
{ACAD_REACTORS
330
218
102
}
330
218
100
AcDbModelDocViewStyle
 70
     0
  3
Imperial24
290
     0
100
AcDbSectionViewStyle
 70
     0
 71
     0
 90
       78
 71
     1
340
A
 62
   256
 40
0.24
340
0
340
0
 62
   256
 40
0.24
300
I, O, Q, S, X, Z
 40
0.48
 90
        3
 40
0.18
 90
        1
 71
     2
340
5
 90
       25
 62
   256
340
5
 90
       50
 62
   256
 40
0.24
 40
0.0
 40
0.24
 71
     3
340
A
 62
   256
 40
0.24
 90
        1
 40
0.75
 90
        1
300
%<\AcVar ViewType \f "%tc1">% %<\AcVar ViewSectionStartId>%-%<\AcVar ViewSectionEndId>%\PSCALE %<\AcVar ViewScale \f "%sn">%
 71
     4
 62
   256
 62
   257
300
ANSI31
 40
1.0
 90
        0
290
     0
290
     0
 90
        6
 40
0.0
 40
1.570796326794896
 40
0.2617993877991494
 40
1.308996938995747
 40
-0.2617993877991494
 40
1.832595714594044
  0
TABLESTYLE
  5
203
102
{ACAD_XDICTIONARY
360
1580D
102
}
102
{ACAD_REACTORS
330
202
102
}
330
202
100
AcDbTableStyle
280
     0
  3
Standard
 70
     0
 71
     0
 40
0.06
 41
0.06
280
     0
281
     0
  7
STANDARD
140
0.18
170
     2
 62
     0
 63
     7
283
     0
 90
      512
 91
        0
  1

274
    -2
284
     1
 64
     0
275
    -2
285
     1
 65
     0
276
    -2
286
     1
 66
     0
277
    -2
287
     1
 67
     0
278
    -2
288
     1
 68
     0
279
    -2
289
     1
 69
     0
  7
STANDARD
140
0.25
170
     5
 62
     0
 63
     7
283
     0
 90
      512
 91
        0
  1

274
    -2
284
     1
 64
     0
275
    -2
285
     1
 65
     0
276
    -2
286
     1
 66
     0
277
    -2
287
     1
 67
     0
278
    -2
288
     1
 68
     0
279
    -2
289
     1
 69
     0
  7
STANDARD
140
0.18
170
     5
 62
     0
 63
     7
283
     0
 90
      512
 91
        0
  1

274
    -2
284
     1
 64
     0
275
    -2
285
     1
 65
     0
276
    -2
286
     1
 66
     0
277
    -2
287
     1
 67
     0
278
    -2
288
     1
 68
     0
279
    -2
289
     1
 69
     0
  0
VISUALSTYLE
  5
1ED
102
{ACAD_REACTORS
330
1E7
102
}
330
1E7
100
AcDbVisualStyle
  2
2dWireframe
 70
     4
177
     3
291
     0
 70
    58
 90
        0
176
     1
 90
        2
176
     1
 90
        0
176
     1
 90
        0
176
     1
 40
0.6
176
     1
 40
30.0
176
     1
 62
     7
420
 16777215
176
     1
 90
        1
176
     1
 90
        4
176
     1
 62
     7
176
     1
 62
   257
176
     1
 90
        1
176
     1
 90
        1
176
     1
 40
1.0
176
     1
 90
        0
176
     1
 62
   257
176
     1
 40
1.0
176
     1
 90
        1
176
     1
 90
        6
176
     1
 90
        2
176
     1
 62
     7
176
     1
 90
        5
176
     1
 90
        0
176
     1
 90
        0
176
     1
290
     0
176
     1
 90
        1
176
     1
 40
0.0
176
     1
 90
        0
176
     1
290
     1
176
     1
290
     1
176
     1
290
     0
176
     1
290
     0
176
     1
290
     0
176
     1
290
     0
176
     1
290
     0
176
     1
290
     0
176
     1
290
     0
176
     1
 90
       50
176
     1
 40
0.0
176
     1
 40
1.0
176
     1
 90
        0
176
     1
 62
    18
176
     1
 90
       50
176
     1
 90
        3
176
     1
 62
     5
420
      255
176
     1
290
     0
176
     1
 90
       50
176
     1
 90
       50
176
     1
 90
       50
176
     1
290
     0
176
     1
 90
       50
176
     1
 62
   256
176
     0
 40
1.0
176
     0
 90
        2
176
     1
  1
strokes_ogs.tif
176
     1
290
     0
176
     1
 40
1.0
176
     1
 40
1.0
176
     1
1001
ACAD
1000
AcDbSavedByObjectVersion
1070
     0
  0
VISUALSTYLE
  5
1EC
102
{ACAD_REACTORS
330
1E7
102
}
330
1E7
100
AcDbVisualStyle
  2
Basic
 70
     7
177
     3
291
     1
 70
    58
 90
        1
176
     1
 90
        0
176
     1
 90
        1
176
     1
 90
        0
176
     1
 40
0.6
176
     1
 40
30.0
176
     1
 62
     7
420
 16777215
176
     1
 90
        0
176
     1
 90
        4
176
     1
 62
     7
176
     1
 62
   257
176
     1
 90
        1
176
     1
 90
        1
176
     1
 40
1.0
176
     1
 90
        8
176
     1
 62
     7
176
     1
 40
1.0
176
     1
 90
        1
176
     1
 90
        6
176
     1
 90
        2
176
     1
 62
     7
176
     1
 90
        5
176
     1
 90
        0
176
     1
 90
        0
176
     1
290
     0
176
     1
 90
        1
176
     1
 40
0.0
176
     1
 90
        0
176
     1
290
     0
176
     1
290
     1
176
     1
290
     1
176
     1
290
     0
176
     1
290
     0
176
     1
290
     0
176
     1
290
     0
176
     1
290
     0
176
     1
290
     0
176
     1
 90
       50
176
     1
 40
0.0
176
     1
 40
1.0
176
     1
 90
        0
176
     1
 62
    18
176
     1
 90
       50
176
     1
 90
        3
176
     1
 62
     5
420
      255
176
     1
290
     0
176
     1
 90
       50
176
     1
 90
       50
176
     1
 90
       50
176
     1
290
     0
176
     1
 90
       50
176
     1
 62
   256
176
     0
 40
1.0
176
     0
 90
        2
176
     1
  1
strokes_ogs.tif
176
     1
290
     0
176
     1
 40
1.0
176
     1
 40
1.0
176
     1
1001
ACAD
1000
AcDbSavedByObjectVersion
1070
     0
  0
VISUALSTYLE
  5
1F3
102
{ACAD_REACTORS
330
1E7
102
}
330
1E7
100
AcDbVisualStyle
  2
Brighten
 70
    12
177
     3
291
     1
 70
    58
 90
        2
176
     1
 90
        2
176
     1
 90
        0
176
     1
 90
        0
176
     1
 40
0.6
176
     1
 40
30.0
176
     1
 62
     7
420
 16777215
176
     1
 90
        1
176
     1
 90
        4
176
     1
 62
     7
176
     1
 62
   257
176
     1
 90
        1
176
     1
 90
        1
176
     1
 40
1.0
176
     1
 90
        8
176
     1
 62
     7
176
     1
 40
1.0
176
     1
 90
        1
176
     1
 90
        6
176
     1
 90
        2
176
     1
 62
     7
176
     1
 90
        5
176
     1
 90
        0
176
     1
 90
        0
176
     1
290
     0
176
     1
 90
        1
176
     1
 40
50.0
176
     1
 90
        0
176
     1
290
     0
176
     1
290
     1
176
     1
290
     1
176
     1
290
     0
176
     1
290
     0
176
     1
290
     0
176
     1
290
     0
176
     1
290
     0
176
     1
290
     0
176
     1
 90
       50
176
     1
 40
0.0
176
     1
 40
1.0
176
     1
 90
        0
176
     1
 62
    18
176
     1
 90
       50
176
     1
 90
        3
176
     1
 62
     5
420
      255
176
     1
290
     0
176
     1
 90
       50
176
     1
 90
       50
176
     1
 90
       50
176
     1
290
     0
176
     1
 90
       50
176
     1
 62
   256
176
     0
 40
1.0
176
     0
 90
        2
176
     1
  1
strokes_ogs.tif
176
     1
290
     0
176
     1
 40
1.0
176
     1
 40
1.0
176
     1
1001
ACAD
1000
AcDbSavedByObjectVersion
1070
     0
  0
VISUALSTYLE
  5
1F7
102
{ACAD_REACTORS
330
1E7
102
}
330
1E7
100
AcDbVisualStyle
  2
ColorChange
 70
    16
177
     3
291
     1
 70
    58
 90
        2
176
     1
 90
        2
176
     1
 90
        3
176
     1
 90
        0
176
     1
 40
0.6
176
     1
 40
30.0
176
     1
 62
     8
420
  8421504
176
     1
 90
        1
176
     1
 90
        4
176
     1
 62
     7
176
     1
 62
   257
176
     1
 90
        1
176
     1
 90
        1
176
     1
 40
1.0
176
     1
 90
        8
176
     1
 62
     8
420
  8421504
176
     1
 40
1.0
176
     1
 90
        1
176
     1
 90
        6
176
     1
 90
        2
176
     1
 62
     7
176
     1
 90
        5
176
     1
 90
        0
176
     1
 90
        0
176
     1
290
     0
176
     1
 90
        1
176
     1
 40
0.0
176
     1
 90
        0
176
     1
290
     0
176
     1
290
     1
176
     1
290
     1
176
     1
290
     0
176
     1
290
     0
176
     1
290
     0
176
     1
290
     0
176
     1
290
     0
176
     1
290
     0
176
     1
 90
       50
176
     1
 40
0.0
176
     1
 40
1.0
176
     1
 90
        0
176
     1
 62
    18
176
     1
 90
       50
176
     1
 90
        3
176
     1
 62
     5
420
      255
176
     1
290
     0
176
     1
 90
       50
176
     1
 90
       50
176
     1
 90
       50
176
     1
290
     0
176
     1
 90
       50
176
     1
 62
   256
176
     0
 40
1.0
176
     0
 90
        2
176
     1
  1
strokes_ogs.tif
176
     1
290
     0
176
     1
 40
1.0
176
     1
 40
1.0
176
     1
1001
ACAD
1000
AcDbSavedByObjectVersion
1070
     0
  0
VISUALSTYLE
  5
1F0
102
{ACAD_REACTORS
330
1E7
102
}
330
1E7
100
AcDbVisualStyle
  2
Conceptual
 70
     9
177
     3
291
     0
 70
    58
 90
        3
176
     1
 90
        2
176
     1
 90
        0
176
     1
 90
        0
176
     1
 40
0.6
176
     1
 40
30.0
176
     1
 62
     7
420
 16777215
176
     1
 90
        2
176
     1
 90
        2
176
     1
 62
     7
176
     1
 62
   257
176
     1
 90
        1
176
     1
 90
        1
176
     1
 40
179.0
176
     1
 90
        8
176
     1
 62
     7
176
     1
 40
1.0
176
     1
 90
        1
176
     1
 90
        6
176
     1
 90
        2
176
     1
 62
     7
176
     1
 90
        3
176
     1
 90
        0
176
     1
 90
        0
176
     1
290
     0
176
     1
 90
        1
176
     1
 40
0.0
176
     1
 90
        0
176
     1
290
     0
176
     1
290
     1
176
     1
290
     1
176
     1
290
     0
176
     1
290
     0
176
     1
290
     0
176
     1
290
     0
176
     1
290
     0
176
     1
290
     0
176
     1
 90
       50
176
     1
 40
0.0
176
     1
 40
1.0
176
     1
 90
        0
176
     1
 62
    18
176
     1
 90
       50
176
     1
 90
        3
176
     1
 62
     5
420
      255
176
     1
290
     0
176
     1
 90
       50
176
     1
 90
       50
176
     1
 90
       50
176
     1
290
     0
176
     1
 90
       50
176
     1
 62
   256
176
     0
 40
1.0
176
     0
 90
        2
176
     1
  1
strokes_ogs.tif
176
     1
290
     0
176
     1
 40
1.0
176
     1
 40
1.0
176
     1
1001
ACAD
1000
AcDbSavedByObjectVersion
1070
     0
  0
VISUALSTYLE
  5
1F2
102
{ACAD_REACTORS
330
1E7
102
}
330
1E7
100
AcDbVisualStyle
  2
Dim
 70
    11
177
     3
291
     1
 70
    58
 90
        2
176
     1
 90
        2
176
     1
 90
        0
176
     1
 90
        0
176
     1
 40
0.6
176
     1
 40
30.0
176
     1
 62
     7
420
 16777215
176
     1
 90
        1
176
     1
 90
        4
176
     1
 62
     7
176
     1
 62
   257
176
     1
 90
        1
176
     1
 90
        1
176
     1
 40
1.0
176
     1
 90
        8
176
     1
 62
     7
176
     1
 40
1.0
176
     1
 90
        1
176
     1
 90
        6
176
     1
 90
        2
176
     1
 62
     7
176
     1
 90
        5
176
     1
 90
        0
176
     1
 90
        0
176
     1
290
     0
176
     1
 90
        1
176
     1
 40
-50.0
176
     1
 90
        0
176
     1
290
     0
176
     1
290
     1
176
     1
290
     1
176
     1
290
     0
176
     1
290
     0
176
     1
290
     0
176
     1
290
     0
176
     1
290
     0
176
     1
290
     0
176
     1
 90
       50
176
     1
 40
0.0
176
     1
 40
1.0
176
     1
 90
        0
176
     1
 62
    18
176
     1
 90
       50
176
     1
 90
        3
176
     1
 62
     5
420
      255
176
     1
290
     0
176
     1
 90
       50
176
     1
 90
       50
176
     1
 90
       50
176
     1
290
     0
176
     1
 90
       50
176
     1
 62
   256
176
     0
 40
1.0
176
     0
 90
        2
176
     1
  1
strokes_ogs.tif
176
     1
290
     0
176
     1
 40
1.0
176
     1
 40
1.0
176
     1
1001
ACAD
1000
AcDbSavedByObjectVersion
1070
     0
  0
VISUALSTYLE
  5
1FF
102
{ACAD_REACTORS
330
1E7
102
}
330
1E7
100
AcDbVisualStyle
  2
EdgeColorOff
 70
    22
177
     3
291
     1
 70
    58
 90
        2
176
     0
 90
        2
176
     0
 90
        0
176
     0
 90
        0
176
     0
 40
0.6
176
     0
 40
30.0
176
     0
 62
     7
420
 16777215
176
     0
 90
        1
176
     0
 90
        4
176
     0
 62
     7
176
     0
 62
   257
176
     0
 90
        1
176
     0
 90
        1
176
     0
 40
1.0
176
     0
 90
        8
176
     2
 62
     7
176
     0
 40
1.0
176
     0
 90
        1
176
     0
 90
        6
176
     0
 90
        2
176
     0
 62
     7
176
     0
 90
        5
176
     0
 90
        0
176
     0
 90
        0
176
     0
290
     0
176
     0
 90
        1
176
     0
 40
0.0
176
     0
 90
        0
176
     0
290
     0
176
     0
290
     1
176
     0
290
     1
176
     0
290
     0
176
     0
290
     0
176
     0
290
     0
176
     0
290
     0
176
     0
290
     0
176
     0
290
     0
176
     0
 90
       50
176
     0
 40
0.0
176
     0
 40
1.0
176
     0
 90
        0
176
     0
 62
    18
176
     0
 90
       50
176
     0
 90
        3
176
     0
 62
     5
420
      255
176
     0
290
     0
176
     0
 90
       50
176
     0
 90
       50
176
     0
 90
       50
176
     0
290
     0
176
     0
 90
       50
176
     0
 62
   256
176
     0
 40
1.0
176
     0
 90
        2
176
     0
  1
strokes_ogs.tif
176
     0
290
     0
176
     0
 40
1.0
176
     0
 40
1.0
176
     0
1001
ACAD
1000
AcDbSavedByObjectVersion
1070
     0
  0
VISUALSTYLE
  5
1F6
102
{ACAD_REACTORS
330
1E7
102
}
330
1E7
100
AcDbVisualStyle
  2
Facepattern
 70
    15
177
     3
291
     1
 70
    58
 90
        2
176
     1
 90
        2
176
     1
 90
        0
176
     1
 90
        0
176
     1
 40
0.6
176
     1
 40
30.0
176
     1
 62
     7
420
 16777215
176
     1
 90
        1
176
     1
 90
        4
176
     1
 62
     7
176
     1
 62
   257
176
     1
 90
        1
176
     1
 90
        1
176
     1
 40
1.0
176
     1
 90
        8
176
     1
 62
     7
176
     1
 40
1.0
176
     1
 90
        1
176
     1
 90
        6
176
     1
 90
        2
176
     1
 62
     7
176
     1
 90
        5
176
     1
 90
        0
176
     1
 90
        0
176
     1
290
     0
176
     1
 90
        1
176
     1
 40
0.0
176
     1
 90
        0
176
     1
290
     0
176
     1
290
     1
176
     1
290
     1
176
     1
290
     0
176
     1
290
     0
176
     1
290
     0
176
     1
290
     0
176
     1
290
     0
176
     1
290
     0
176
     1
 90
       50
176
     1
 40
0.0
176
     1
 40
1.0
176
     1
 90
        0
176
     1
 62
    18
176
     1
 90
       50
176
     1
 90
        3
176
     1
 62
     5
420
      255
176
     1
290
     0
176
     1
 90
       50
176
     1
 90
       50
176
     1
 90
       50
176
     1
290
     0
176
     1
 90
       50
176
     1
 62
   256
176
     0
 40
1.0
176
     0
 90
        2
176
     1
  1
strokes_ogs.tif
176
     1
290
     0
176
     1
 40
1.0
176
     1
 40
1.0
176
     1
1001
ACAD
1000
AcDbSavedByObjectVersion
1070
     0
  0
VISUALSTYLE
  5
1E8
102
{ACAD_REACTORS
330
1E7
102
}
330
1E7
100
AcDbVisualStyle
  2
Flat
 70
     0
177
     3
291
     1
 70
    58
 90
        2
176
     1
 90
        1
176
     1
 90
        1
176
     1
 90
        2
176
     1
 40
0.6
176
     1
 40
30.0
176
     1
 62
     7
420
 16777215
176
     1
 90
        0
176
     1
 90
        0
176
     1
 62
     7
176
     1
 62
   257
176
     1
 90
        1
176
     1
 90
        1
176
     1
 40
1.0
176
     1
 90
        8
176
     1
 62
     7
176
     1
 40
1.0
176
     1
 90
        1
176
     1
 90
        6
176
     1
 90
        2
176
     1
 62
     7
176
     1
 90
        5
176
     1
 90
        0
176
     1
 90
        0
176
     1
290
     0
176
     1
 90
       13
176
     1
 40
0.0
176
     1
 90
        0
176
     1
290
     0
176
     1
290
     1
176
     1
290
     1
176
     1
290
     0
176
     1
290
     0
176
     1
290
     0
176
     1
290
     0
176
     1
290
     0
176
     1
290
     0
176
     1
 90
       50
176
     1
 40
0.0
176
     1
 40
1.0
176
     1
 90
        0
176
     1
 62
    18
176
     1
 90
       50
176
     1
 90
        3
176
     1
 62
     5
420
      255
176
     1
290
     0
176
     1
 90
       50
176
     1
 90
       50
176
     1
 90
       50
176
     1
290
     0
176
     1
 90
       50
176
     1
 62
   256
176
     0
 40
1.0
176
     0
 90
        2
176
     1
  1
strokes_ogs.tif
176
     1
290
     0
176
     1
 40
1.0
176
     1
 40
1.0
176
     1
1001
ACAD
1000
AcDbSavedByObjectVersion
1070
     0
  0
VISUALSTYLE
  5
1E9
102
{ACAD_REACTORS
330
1E7
102
}
330
1E7
100
AcDbVisualStyle
  2
FlatWithEdges
 70
     1
177
     3
291
     1
 70
    58
 90
        2
176
     1
 90
        1
176
     1
 90
        1
176
     1
 90
        2
176
     1
 40
0.6
176
     1
 40
30.0
176
     1
 62
     7
420
 16777215
176
     1
 90
        1
176
     1
 90
        0
176
     1
 62
     7
176
     1
 62
   257
176
     1
 90
        1
176
     1
 90
        1
176
     1
 40
1.0
176
     1
 90
        0
176
     1
 62
   257
176
     1
 40
1.0
176
     1
 90
        1
176
     1
 90
        6
176
     1
 90
        2
176
     1
 62
     7
176
     1
 90
        5
176
     1
 90
        0
176
     1
 90
        0
176
     1
290
     0
176
     1
 90
       13
176
     1
 40
0.0
176
     1
 90
        0
176
     1
290
     0
176
     1
290
     1
176
     1
290
     1
176
     1
290
     0
176
     1
290
     0
176
     1
290
     0
176
     1
290
     0
176
     1
290
     0
176
     1
290
     0
176
     1
 90
       50
176
     1
 40
0.0
176
     1
 40
1.0
176
     1
 90
        0
176
     1
 62
    18
176
     1
 90
       50
176
     1
 90
        3
176
     1
 62
     5
420
      255
176
     1
290
     0
176
     1
 90
       50
176
     1
 90
       50
176
     1
 90
       50
176
     1
290
     0
176
     1
 90
       50
176
     1
 62
   256
176
     0
 40
1.0
176
     0
 90
        2
176
     1
  1
strokes_ogs.tif
176
     1
290
     0
176
     1
 40
1.0
176
     1
 40
1.0
176
     1
1001
ACAD
1000
AcDbSavedByObjectVersion
1070
     0
  0
VISUALSTYLE
  5
1EA
102
{ACAD_REACTORS
330
1E7
102
}
330
1E7
100
AcDbVisualStyle
  2
Gouraud
 70
     2
177
     3
291
     1
 70
    58
 90
        2
176
     1
 90
        2
176
     1
 90
        1
176
     1
 90
        2
176
     1
 40
0.6
176
     1
 40
30.0
176
     1
 62
     7
420
 16777215
176
     1
 90
        0
176
     1
 90
        0
176
     1
 62
     7
176
     1
 62
   257
176
     1
 90
        1
176
     1
 90
        1
176
     1
 40
1.0
176
     1
 90
        0
176
     1
 62
     7
176
     1
 40
1.0
176
     1
 90
        1
176
     1
 90
        6
176
     1
 90
        2
176
     1
 62
     7
176
     1
 90
        5
176
     1
 90
        0
176
     1
 90
        0
176
     1
290
     0
176
     1
 90
       13
176
     1
 40
0.0
176
     1
 90
        0
176
     1
290
     0
176
     1
290
     1
176
     1
290
     1
176
     1
290
     0
176
     1
290
     0
176
     1
290
     0
176
     1
290
     0
176
     1
290
     0
176
     1
290
     0
176
     1
 90
       50
176
     1
 40
0.0
176
     1
 40
1.0
176
     1
 90
        0
176
     1
 62
    18
176
     1
 90
       50
176
     1
 90
        3
176
     1
 62
     5
420
      255
176
     1
290
     0
176
     1
 90
       50
176
     1
 90
       50
176
     1
 90
       50
176
     1
290
     0
176
     1
 90
       50
176
     1
 62
   256
176
     0
 40
1.0
176
     0
 90
        2
176
     1
  1
strokes_ogs.tif
176
     1
290
     0
176
     1
 40
1.0
176
     1
 40
1.0
176
     1
1001
ACAD
1000
AcDbSavedByObjectVersion
1070
     0
  0
VISUALSTYLE
  5
1EB
102
{ACAD_REACTORS
330
1E7
102
}
330
1E7
100
AcDbVisualStyle
  2
GouraudWithEdges
 70
     3
177
     3
291
     1
 70
    58
 90
        2
176
     1
 90
        2
176
     1
 90
        1
176
     1
 90
        2
176
     1
 40
0.6
176
     1
 40
30.0
176
     1
 62
     7
420
 16777215
176
     1
 90
        1
176
     1
 90
        0
176
     1
 62
     7
176
     1
 62
   257
176
     1
 90
        1
176
     1
 90
        1
176
     1
 40
1.0
176
     1
 90
        0
176
     1
 62
   257
176
     1
 40
1.0
176
     1
 90
        1
176
     1
 90
        6
176
     1
 90
        2
176
     1
 62
     7
176
     1
 90
        5
176
     1
 90
        0
176
     1
 90
        0
176
     1
290
     0
176
     1
 90
       13
176
     1
 40
0.0
176
     1
 90
        0
176
     1
290
     0
176
     1
290
     1
176
     1
290
     1
176
     1
290
     0
176
     1
290
     0
176
     1
290
     0
176
     1
290
     0
176
     1
290
     0
176
     1
290
     0
176
     1
 90
       50
176
     1
 40
0.0
176
     1
 40
1.0
176
     1
 90
        0
176
     1
 62
    18
176
     1
 90
       50
176
     1
 90
        3
176
     1
 62
     5
420
      255
176
     1
290
     0
176
     1
 90
       50
176
     1
 90
       50
176
     1
 90
       50
176
     1
290
     0
176
     1
 90
       50
176
     1
 62
   256
176
     0
 40
1.0
176
     0
 90
        2
176
     1
  1
strokes_ogs.tif
176
     1
290
     0
176
     1
 40
1.0
176
     1
 40
1.0
176
     1
1001
ACAD
1000
AcDbSavedByObjectVersion
1070
     0
  0
VISUALSTYLE
  5
1EF
102
{ACAD_REACTORS
330
1E7
102
}
330
1E7
100
AcDbVisualStyle
  2
Hidden
 70
     6
177
     3
291
     0
 70
    58
 90
        1
176
     1
 90
        2
176
     1
 90
        2
176
     1
 90
        0
176
     1
 40
0.6
176
     1
 40
30.0
176
     1
 62
     7
420
 16777215
176
     1
 90
        2
176
     1
 90
        2
176
     1
 62
     7
176
     1
 62
   257
176
     1
 90
        2
176
     1
 90
        1
176
     1
 40
40.0
176
     1
 90
        0
176
     1
 62
   257
176
     1
 40
1.0
176
     1
 90
        1
176
     1
 90
        6
176
     1
 90
        2
176
     1
 62
     7
176
     1
 90
        3
176
     1
 90
        0
176
     1
 90
        0
176
     1
290
     0
176
     1
 90
        1
176
     1
 40
0.0
176
     1
 90
        0
176
     1
290
     0
176
     1
290
     1
176
     1
290
     1
176
     1
290
     0
176
     1
290
     0
176
     1
290
     0
176
     1
290
     0
176
     1
290
     0
176
     1
290
     0
176
     1
 90
       50
176
     1
 40
0.0
176
     1
 40
1.0
176
     1
 90
        0
176
     1
 62
    18
176
     1
 90
       50
176
     1
 90
        3
176
     1
 62
     5
420
      255
176
     1
290
     0
176
     1
 90
       50
176
     1
 90
       50
176
     1
 90
       50
176
     1
290
     0
176
     1
 90
       50
176
     1
 62
   256
176
     0
 40
1.0
176
     0
 90
        2
176
     1
  1
strokes_ogs.tif
176
     1
290
     0
176
     1
 40
1.0
176
     1
 40
1.0
176
     1
1001
ACAD
1000
AcDbSavedByObjectVersion
1070
     0
  0
VISUALSTYLE
  5
1FD
102
{ACAD_REACTORS
330
1E7
102
}
330
1E7
100
AcDbVisualStyle
  2
JitterOff
 70
    20
177
     3
291
     1
 70
    58
 90
        2
176
     0
 90
        2
176
     0
 90
        0
176
     0
 90
        0
176
     0
 40
0.6
176
     0
 40
30.0
176
     0
 62
     7
420
 16777215
176
     0
 90
        1
176
     0
 90
        4
176
     0
 62
     7
176
     0
 62
   257
176
     0
 90
        1
176
     0
 90
        1
176
     0
 40
1.0
176
     0
 90
       10
176
     2
 62
     7
176
     0
 40
1.0
176
     0
 90
        1
176
     0
 90
        6
176
     0
 90
        2
176
     0
 62
     7
176
     0
 90
        5
176
     0
 90
        0
176
     0
 90
        0
176
     0
290
     0
176
     0
 90
        1
176
     0
 40
0.0
176
     0
 90
        0
176
     0
290
     0
176
     0
290
     1
176
     0
290
     1
176
     0
290
     0
176
     0
290
     0
176
     0
290
     0
176
     0
290
     0
176
     0
290
     0
176
     0
290
     0
176
     0
 90
       50
176
     0
 40
0.0
176
     0
 40
1.0
176
     0
 90
        0
176
     0
 62
    18
176
     0
 90
       50
176
     0
 90
        3
176
     0
 62
     5
420
      255
176
     0
290
     0
176
     0
 90
       50
176
     0
 90
       50
176
     0
 90
       50
176
     0
290
     0
176
     0
 90
       50
176
     0
 62
   256
176
     0
 40
1.0
176
     0
 90
        2
176
     0
  1
strokes_ogs.tif
176
     0
290
     0
176
     0
 40
1.0
176
     0
 40
1.0
176
     0
1001
ACAD
1000
AcDbSavedByObjectVersion
1070
     0
  0
VISUALSTYLE
  5
1F5
102
{ACAD_REACTORS
330
1E7
102
}
330
1E7
100
AcDbVisualStyle
  2
Linepattern
 70
    14
177
     3
291
     1
 70
    58
 90
        2
176
     1
 90
        2
176
     1
 90
        0
176
     1
 90
        0
176
     1
 40
0.6
176
     1
 40
30.0
176
     1
 62
     7
420
 16777215
176
     1
 90
        1
176
     1
 90
        4
176
     1
 62
     7
176
     1
 62
   257
176
     1
 90
        7
176
     1
 90
        7
176
     1
 40
1.0
176
     1
 90
        8
176
     1
 62
     7
176
     1
 40
1.0
176
     1
 90
        1
176
     1
 90
        6
176
     1
 90
        2
176
     1
 62
     7
176
     1
 90
        5
176
     1
 90
        0
176
     1
 90
        0
176
     1
290
     0
176
     1
 90
        1
176
     1
 40
0.0
176
     1
 90
        0
176
     1
290
     0
176
     1
290
     1
176
     1
290
     1
176
     1
290
     0
176
     1
290
     0
176
     1
290
     0
176
     1
290
     0
176
     1
290
     0
176
     1
290
     0
176
     1
 90
       50
176
     1
 40
0.0
176
     1
 40
1.0
176
     1
 90
        0
176
     1
 62
    18
176
     1
 90
       50
176
     1
 90
        3
176
     1
 62
     5
420
      255
176
     1
290
     0
176
     1
 90
       50
176
     1
 90
       50
176
     1
 90
       50
176
     1
290
     0
176
     1
 90
       50
176
     1
 62
   256
176
     0
 40
1.0
176
     0
 90
        2
176
     1
  1
strokes_ogs.tif
176
     1
290
     0
176
     1
 40
1.0
176
     1
 40
1.0
176
     1
1001
ACAD
1000
AcDbSavedByObjectVersion
1070
     0
  0
VISUALSTYLE
  5
1FE
102
{ACAD_REACTORS
330
1E7
102
}
330
1E7
100
AcDbVisualStyle
  2
OverhangOff
 70
    21
177
     3
291
     1
 70
    58
 90
        2
176
     0
 90
        2
176
     0
 90
        0
176
     0
 90
        0
176
     0
 40
0.6
176
     0
 40
30.0
176
     0
 62
     7
420
 16777215
176
     0
 90
        1
176
     0
 90
        4
176
     0
 62
     7
176
     0
 62
   257
176
     0
 90
        1
176
     0
 90
        1
176
     0
 40
1.0
176
     0
 90
        9
176
     2
 62
     7
176
     0
 40
1.0
176
     0
 90
        1
176
     0
 90
        6
176
     0
 90
        2
176
     0
 62
     7
176
     0
 90
        5
176
     0
 90
        0
176
     0
 90
        0
176
     0
290
     0
176
     0
 90
        1
176
     0
 40
0.0
176
     0
 90
        0
176
     0
290
     0
176
     0
290
     1
176
     0
290
     1
176
     0
290
     0
176
     0
290
     0
176
     0
290
     0
176
     0
290
     0
176
     0
290
     0
176
     0
290
     0
176
     0
 90
       50
176
     0
 40
0.0
176
     0
 40
1.0
176
     0
 90
        0
176
     0
 62
    18
176
     0
 90
       50
176
     0
 90
        3
176
     0
 62
     5
420
      255
176
     0
290
     0
176
     0
 90
       50
176
     0
 90
       50
176
     0
 90
       50
176
     0
290
     0
176
     0
 90
       50
176
     0
 62
   256
176
     0
 40
1.0
176
     0
 90
        2
176
     0
  1
strokes_ogs.tif
176
     0
290
     0
176
     0
 40
1.0
176
     0
 40
1.0
176
     0
1001
ACAD
1000
AcDbSavedByObjectVersion
1070
     0
  0
VISUALSTYLE
  5
1F1
102
{ACAD_REACTORS
330
1E7
102
}
330
1E7
100
AcDbVisualStyle
  2
Realistic
 70
     8
177
     3
291
     0
 70
    58
 90
        2
176
     1
 90
        2
176
     1
 90
        0
176
     1
 90
        2
176
     1
 40
0.6
176
     1
 40
30.0
176
     1
 62
     7
420
 16777215
176
     1
 90
        0
176
     1
 90
        0
176
     1
 62
     7
176
     1
 62
   257
176
     1
 90
        1
176
     1
 90
        1
176
     1
 40
1.0
176
     1
 90
        8
176
     1
 62
   257
176
     1
 40
1.0
176
     1
 90
        1
176
     1
 90
        6
176
     1
 90
        2
176
     1
 62
     7
176
     1
 90
        3
176
     1
 90
        0
176
     1
 90
        0
176
     1
290
     0
176
     1
 90
       13
176
     1
 40
0.0
176
     1
 90
        0
176
     1
290
     0
176
     1
290
     1
176
     1
290
     1
176
     1
290
     0
176
     1
290
     0
176
     1
290
     0
176
     1
290
     0
176
     1
290
     0
176
     1
290
     0
176
     1
 90
       50
176
     1
 40
0.0
176
     1
 40
1.0
176
     1
 90
        0
176
     1
 62
    18
176
     1
 90
       50
176
     1
 90
        3
176
     1
 62
     5
420
      255
176
     1
290
     0
176
     1
 90
       50
176
     1
 90
       50
176
     1
 90
       50
176
     1
290
     0
176
     1
 90
       50
176
     1
 62
   256
176
     0
 40
1.0
176
     0
 90
        2
176
     1
  1
strokes_ogs.tif
176
     1
290
     0
176
     1
 40
1.0
176
     1
 40
1.0
176
     1
1001
ACAD
1000
AcDbSavedByObjectVersion
1070
     0
  0
VISUALSTYLE
  5
1FC
102
{ACAD_REACTORS
330
1E7
102
}
330
1E7
100
AcDbVisualStyle
  2
Shaded
 70
    27
177
     3
291
     0
 70
    58
 90
        2
176
     1
 90
        2
176
     1
 90
        1
176
     1
 90
        2
176
     1
 40
0.6
176
     1
 40
30.0
176
     1
 62
     7
420
 16777215
176
     1
 90
        0
176
     1
 90
        4
176
     1
 62
     7
176
     1
 62
   257
176
     1
 90
        1
176
     1
 90
        1
176
     1
 40
1.0
176
     1
 90
        8
176
     1
 62
   257
176
     1
 40
1.0
176
     1
 90
        1
176
     1
 90
        6
176
     1
 90
        2
176
     1
 62
     8
420
  7895160
176
     1
 90
        3
176
     1
 90
        0
176
     1
 90
        0
176
     1
290
     0
176
     1
 90
        5
176
     1
 40
0.0
176
     1
 90
        0
176
     1
290
     0
176
     1
290
     1
176
     1
290
     1
176
     1
290
     0
176
     1
290
     0
176
     1
290
     0
176
     1
290
     0
176
     1
290
     0
176
     1
290
     0
176
     1
 90
       50
176
     1
 40
0.0
176
     1
 40
1.0
176
     1
 90
        0
176
     1
 62
    18
176
     1
 90
       50
176
     1
 90
        3
176
     1
 62
     5
420
      255
176
     1
290
     0
176
     1
 90
       50
176
     1
 90
       50
176
     1
 90
       50
176
     1
290
     0
176
     1
 90
       50
176
     1
 62
   256
176
     0
 40
1.0
176
     0
 90
        2
176
     1
  1
strokes_ogs.tif
176
     1
290
     0
176
     1
 40
1.0
176
     1
 40
1.0
176
     1
1001
ACAD
1000
AcDbSavedByObjectVersion
1070
     0
  0
VISUALSTYLE
  5
1FB
102
{ACAD_REACTORS
330
1E7
102
}
330
1E7
100
AcDbVisualStyle
  2
Shaded with edges
 70
    26
177
     3
291
     0
 70
    58
 90
        2
176
     1
 90
        2
176
     1
 90
        1
176
     1
 90
        2
176
     1
 40
0.6
176
     1
 40
30.0
176
     1
 62
     7
420
 16777215
176
     1
 90
        1
176
     1
 90
        2
176
     1
 62
     7
176
     1
 62
   257
176
     1
 90
        2
176
     1
 90
        1
176
     1
 40
1.0
176
     1
 90
        8
176
     1
 62
   257
176
     1
 40
1.0
176
     1
 90
        1
176
     1
 90
        6
176
     1
 90
        2
176
     1
 62
     7
176
     1
 90
        3
176
     1
 90
        0
176
     1
 90
        0
176
     1
290
     0
176
     1
 90
        5
176
     1
 40
0.0
176
     1
 90
        0
176
     1
290
     0
176
     1
290
     1
176
     1
290
     1
176
     1
290
     0
176
     1
290
     0
176
     1
290
     0
176
     1
290
     0
176
     1
290
     0
176
     1
290
     0
176
     1
 90
       50
176
     1
 40
0.0
176
     1
 40
1.0
176
     1
 90
        0
176
     1
 62
    18
176
     1
 90
       50
176
     1
 90
        3
176
     1
 62
     5
420
      255
176
     1
290
     0
176
     1
 90
       50
176
     1
 90
       50
176
     1
 90
       50
176
     1
290
     0
176
     1
 90
       50
176
     1
 62
   256
176
     0
 40
1.0
176
     0
 90
        2
176
     1
  1
strokes_ogs.tif
176
     1
290
     0
176
     1
 40
1.0
176
     1
 40
1.0
176
     1
1001
ACAD
1000
AcDbSavedByObjectVersion
1070
     0
  0
VISUALSTYLE
  5
1F8
102
{ACAD_REACTORS
330
1E7
102
}
330
1E7
100
AcDbVisualStyle
  2
Shades of Gray
 70
    23
177
     3
291
     0
 70
    58
 90
        2
176
     1
 90
        2
176
     1
 90
        3
176
     1
 90
        0
176
     1
 40
0.6
176
     1
 40
30.0
176
     1
 62
     7
420
 16777215
176
     1
 90
        2
176
     1
 90
        2
176
     1
 62
     7
176
     1
 62
     7
176
     1
 90
        1
176
     1
 90
        1
176
     1
 40
40.0
176
     1
 90
        8
176
     1
 62
     7
176
     1
 40
1.0
176
     1
 90
        1
176
     1
 90
        6
176
     1
 90
        2
176
     1
 62
     7
176
     1
 90
        3
176
     1
 90
        0
176
     1
 90
        0
176
     1
290
     0
176
     1
 90
        1
176
     1
 40
0.0
176
     1
 90
        0
176
     1
290
     0
176
     1
290
     1
176
     1
290
     1
176
     1
290
     0
176
     1
290
     0
176
     1
290
     0
176
     1
290
     0
176
     1
290
     0
176
     1
290
     0
176
     1
 90
       50
176
     1
 40
0.0
176
     1
 40
1.0
176
     1
 90
        0
176
     1
 62
    18
176
     1
 90
       50
176
     1
 90
        3
176
     1
 62
     5
420
      255
176
     1
290
     0
176
     1
 90
       50
176
     1
 90
       50
176
     1
 90
       50
176
     1
290
     0
176
     1
 90
       50
176
     1
 62
   256
176
     0
 40
1.0
176
     0
 90
        2
176
     1
  1
strokes_ogs.tif
176
     1
290
     0
176
     1
 40
1.0
176
     1
 40
1.0
176
     1
1001
ACAD
1000
AcDbSavedByObjectVersion
1070
     0
  0
VISUALSTYLE
  5
1F9
102
{ACAD_REACTORS
330
1E7
102
}
330
1E7
100
AcDbVisualStyle
  2
Sketchy
 70
    24
177
     3
291
     0
 70
    58
 90
        1
176
     1
 90
        2
176
     1
 90
        2
176
     1
 90
        0
176
     1
 40
0.6
176
     1
 40
30.0
176
     1
 62
     7
420
 16777215
176
     1
 90
        2
176
     1
 90
        2
176
     1
 62
     7
176
     1
 62
     7
176
     1
 90
        1
176
     1
 90
        1
176
     1
 40
40.0
176
     1
 90
       11
176
     1
 62
     7
176
     1
 40
1.0
176
     1
 90
        1
176
     1
 90
        6
176
     1
 90
        2
176
     1
 62
     7
176
     1
 90
        6
176
     1
 90
        0
176
     1
 90
        0
176
     1
290
     0
176
     1
 90
        1
176
     1
 40
0.0
176
     1
 90
        0
176
     1
290
     0
176
     1
290
     1
176
     1
290
     1
176
     1
290
     0
176
     1
290
     0
176
     1
290
     0
176
     1
290
     0
176
     1
290
     0
176
     1
290
     0
176
     1
 90
       50
176
     1
 40
0.0
176
     1
 40
1.0
176
     1
 90
        0
176
     1
 62
    18
176
     1
 90
       50
176
     1
 90
        3
176
     1
 62
     5
420
      255
176
     1
290
     0
176
     1
 90
       50
176
     1
 90
       50
176
     1
 90
       50
176
     1
290
     0
176
     1
 90
       50
176
     1
 62
   256
176
     0
 40
1.0
176
     0
 90
        2
176
     1
  1
strokes_ogs.tif
176
     1
290
     0
176
     1
 40
1.0
176
     1
 40
1.0
176
     1
1001
ACAD
1000
AcDbSavedByObjectVersion
1070
     0
  0
VISUALSTYLE
  5
1F4
102
{ACAD_REACTORS
330
1E7
102
}
330
1E7
100
AcDbVisualStyle
  2
Thicken
 70
    13
177
     3
291
     1
 70
    58
 90
        2
176
     1
 90
        2
176
     1
 90
        0
176
     1
 90
        0
176
     1
 40
0.6
176
     1
 40
30.0
176
     1
 62
     7
420
 16777215
176
     1
 90
        1
176
     1
 90
        4
176
     1
 62
     7
176
     1
 62
   257
176
     1
 90
        1
176
     1
 90
        1
176
     1
 40
1.0
176
     1
 90
       12
176
     1
 62
     7
176
     1
 40
1.0
176
     1
 90
        1
176
     1
 90
        6
176
     1
 90
        2
176
     1
 62
     7
176
     1
 90
        5
176
     1
 90
        0
176
     1
 90
        0
176
     1
290
     0
176
     1
 90
        1
176
     1
 40
0.0
176
     1
 90
        0
176
     1
290
     0
176
     1
290
     1
176
     1
290
     1
176
     1
290
     0
176
     1
290
     0
176
     1
290
     0
176
     1
290
     0
176
     1
290
     0
176
     1
290
     0
176
     1
 90
       50
176
     1
 40
0.0
176
     1
 40
1.0
176
     1
 90
        0
176
     1
 62
    18
176
     1
 90
       50
176
     1
 90
        3
176
     1
 62
     5
420
      255
176
     1
290
     0
176
     1
 90
       50
176
     1
 90
       50
176
     1
 90
       50
176
     1
290
     0
176
     1
 90
       50
176
     1
 62
   256
176
     0
 40
1.0
176
     0
 90
        2
176
     1
  1
strokes_ogs.tif
176
     1
290
     0
176
     1
 40
1.0
176
     1
 40
1.0
176
     1
1001
ACAD
1000
AcDbSavedByObjectVersion
1070
     0
  0
VISUALSTYLE
  5
1EE
102
{ACAD_REACTORS
330
1E7
102
}
330
1E7
100
AcDbVisualStyle
  2
Wireframe
 70
     5
177
     3
291
     0
 70
    58
 90
        0
176
     1
 90
        2
176
     1
 90
        0
176
     1
 90
        0
176
     1
 40
0.6
176
     1
 40
30.0
176
     1
 62
     7
420
 16777215
176
     1
 90
        1
176
     1
 90
        4
176
     1
 62
     7
176
     1
 62
   257
176
     1
 90
        1
176
     1
 90
        1
176
     1
 40
1.0
176
     1
 90
        0
176
     1
 62
   257
176
     1
 40
1.0
176
     1
 90
        1
176
     1
 90
        6
176
     1
 90
        2
176
     1
 62
     7
176
     1
 90
        3
176
     1
 90
        0
176
     1
 90
        0
176
     1
290
     0
176
     1
 90
        1
176
     1
 40
0.0
176
     1
 90
        0
176
     1
290
     0
176
     1
290
     1
176
     1
290
     1
176
     1
290
     0
176
     1
290
     0
176
     1
290
     0
176
     1
290
     0
176
     1
290
     0
176
     1
290
     0
176
     1
 90
       50
176
     1
 40
0.0
176
     1
 40
1.0
176
     1
 90
        0
176
     1
 62
    18
176
     1
 90
       50
176
     1
 90
        3
176
     1
 62
     5
420
      255
176
     1
290
     0
176
     1
 90
       50
176
     1
 90
       50
176
     1
 90
       50
176
     1
290
     0
176
     1
 90
       50
176
     1
 62
   256
176
     0
 40
1.0
176
     0
 90
        2
176
     1
  1
strokes_ogs.tif
176
     1
290
     0
176
     1
 40
1.0
176
     1
 40
1.0
176
     1
1001
ACAD
1000
AcDbSavedByObjectVersion
1070
     0
  0
VISUALSTYLE
  5
1FA
102
{ACAD_REACTORS
330
1E7
102
}
330
1E7
100
AcDbVisualStyle
  2
X-Ray
 70
    25
177
     3
291
     0
 70
    58
 90
        2
176
     1
 90
        2
176
     1
 90
        1
176
     1
 90
        1
176
     1
 40
0.5
176
     1
 40
30.0
176
     1
 62
     7
420
 16777215
176
     1
 90
        1
176
     1
 90
        0
176
     1
 62
     7
176
     1
 62
   257
176
     1
 90
        1
176
     1
 90
        1
176
     1
 40
1.0
176
     1
 90
        8
176
     1
 62
     7
176
     1
 40
1.0
176
     1
 90
        1
176
     1
 90
        6
176
     1
 90
        2
176
     1
 62
     7
176
     1
 90
        3
176
     1
 90
        0
176
     1
 90
        0
176
     1
290
     0
176
     1
 90
       13
176
     1
 40
0.0
176
     1
 90
        0
176
     1
290
     0
176
     1
290
     1
176
     1
290
     1
176
     1
290
     0
176
     1
290
     0
176
     1
290
     0
176
     1
290
     0
176
     1
290
     0
176
     1
290
     0
176
     1
 90
       50
176
     1
 40
0.0
176
     1
 40
1.0
176
     1
 90
        0
176
     1
 62
    18
176
     1
 90
       50
176
     1
 90
        3
176
     1
 62
     5
420
      255
176
     1
290
     0
176
     1
 90
       50
176
     1
 90
       50
176
     1
 90
       50
176
     1
290
     0
176
     1
 90
       50
176
     1
 62
   256
176
     0
 40
1.0
176
     0
 90
        2
176
     1
  1
strokes_ogs.tif
176
     1
290
     0
176
     1
 40
1.0
176
     1
 40
1.0
176
     1
1001
ACAD
1000
AcDbSavedByObjectVersion
1070
     0
  0
DICTIONARYVAR
  5
7DC
102
{ACAD_REACTORS
330
7D6
102
}
330
7D6
100
DictionaryVariables
280
     0
  1
1:1
  0
DICTIONARYVAR
  5
7D8
102
{ACAD_REACTORS
330
7D6
102
}
330
7D6
100
DictionaryVariables
280
     0
  1
STANDARD
  0
DICTIONARYVAR
  5
7D7
102
{ACAD_REACTORS
330
7D6
102
}
330
7D6
100
DictionaryVariables
280
     0
  1
STANDARD
  0
DICTIONARYVAR
  5
7D9
102
{ACAD_REACTORS
330
7D6
102
}
330
7D6
100
DictionaryVariables
280
     0
  1
Imperial24
  0
DICTIONARYVAR
  5
7DA
102
{ACAD_REACTORS
330
7D6
102
}
330
7D6
100
DictionaryVariables
280
     0
  1
Imperial24
  0
DICTIONARYVAR
  5
7DE
102
{ACAD_REACTORS
330
7D6
102
}
330
7D6
100
DictionaryVariables
280
     0
  1
1
  0
DICTIONARYVAR
  5
7DF
102
{ACAD_REACTORS
330
7D6
102
}
330
7D6
100
DictionaryVariables
280
     0
  1
15
  0
DICTIONARYVAR
  5
7DD
102
{ACAD_REACTORS
330
7D6
102
}
330
7D6
100
DictionaryVariables
280
     0
  1
0
  0
DICTIONARYVAR
  5
7DB
102
{ACAD_REACTORS
330
7D6
102
}
330
7D6
100
DictionaryVariables
280
     0
  1
0
  0
DICTIONARY
  5
271A6
102
{ACAD_REACTORS
330
271A4
102
}
330
271A4
100
AcDbDictionary
281
     1
  0
DICTIONARY
  5
271A5
102
{ACAD_REACTORS
330
271A4
102
}
330
271A4
100
AcDbDictionary
281
     1
  3
2544302163968
350
271A0
  3
2544302163984
350
271A1
  3
2544302164000
350
271A2
  3
2544302164016
350
271A3
  3
2544336633712
350
2719F
  0
DICTIONARY
  5
271A9
330
21B
100
AcDbDictionary
280
     1
281
     1
  3
ACAD_XREC_ROUNDTRIP
360
271AA
  0
DICTIONARY
  5
252F5
330
21E
100
AcDbDictionary
280
     1
281
     1
  0
DICTIONARY
  5
237AD
330
21D
100
AcDbDictionary
280
     1
281
     1
  0
DICTIONARY
  5
1D8
330
1D7
100
AcDbDictionary
280
     1
281
     1
  3
BUMPTILE
360
1DA
  3
DIFFUSETILE
360
1D9
  3
OPACITYTILE
360
1DD
  3
REFLECTIONTILE
360
1DC
  3
REFRACTIONTILE
360
1DE
  3
SPECULARTILE
360
1DB
  0
DICTIONARY
  5
1D0
330
1CF
100
AcDbDictionary
280
     1
281
     1
  3
BUMPTILE
360
1D2
  3
DIFFUSETILE
360
1D1
  3
OPACITYTILE
360
1D5
  3
REFLECTIONTILE
360
1D4
  3
REFRACTIONTILE
360
1D6
  3
SPECULARTILE
360
1D3
  0
DICTIONARY
  5
1E0
330
1DF
100
AcDbDictionary
280
     1
281
     1
  3
BUMPTILE
360
1E2
  3
DIFFUSETILE
360
1E1
  3
FBXASSET
360
698
  3
OPACITYTILE
360
1E5
  3
REFLECTIONTILE
360
1E4
  3
REFRACTIONTILE
360
1E6
  3
SPECULARTILE
360
1E3
  0
DICTIONARY
  5
271A7
330
219
100
AcDbDictionary
280
     1
281
     1
  3
ACAD_XREC_ROUNDTRIP
360
271A8
  0
DICTIONARY
  5
1580D
330
203
100
AcDbDictionary
280
     1
281
     1
  3
ACAD_ROUNDTRIP_2008_TABLESTYLE_CELLSTYLEMAP
360
2719D
  0
XRECORD
  5
271A0
102
{ACAD_REACTORS
330
271A5
102
}
330
271A5
100
AcDbXrecord
280
     1
  1
AcDbDs::TreatedAsObjectDataSchema
  2
AcDbDs::TreatedAsObjectData
280
     1
 91
        0
  0
XRECORD
  5
271A1
102
{ACAD_REACTORS
330
271A5
102
}
330
271A5
100
AcDbXrecord
280
     1
  1
AcDbDs::LegacySchema
  2
AcDbDs::Legacy
280
     1
 91
        0
  0
XRECORD
  5
271A2
102
{ACAD_REACTORS
330
271A5
102
}
330
271A5
100
AcDbXrecord
280
     1
  1
AcDbDs::IndexedPropertySchema
  2
AcDs:Indexable
280
     1
 91
        0
  0
XRECORD
  5
271A3
102
{ACAD_REACTORS
330
271A5
102
}
330
271A5
100
AcDbXrecord
280
     1
  1
AcDbDs::HandleAttributeSchema
  2
AcDbDs::HandleAttribute
280
     7
 91
        1
284
     1
  0
XRECORD
  5
2719F
102
{ACAD_REACTORS
330
271A5
102
}
330
271A5
100
AcDbXrecord
280
     1
  1
AcDb_Thumbnail_Schema
102
{ATTRRECORD
341
271A0
  2
AcDbDs::TreatedAsObjectData
280
     1
291
     1
102
ATTRRECORD}
102
{ATTRRECORD
341
271A1
  2
AcDbDs::Legacy
280
     1
291
     1
102
ATTRRECORD}
  2
AcDbDs::ID
280
    10
 91
        8
102
{ATTRRECORD
341
271A2
  2
AcDs:Indexable
280
     1
291
     1
102
ATTRRECORD}
102
{ATTRRECORD
341
271A3
  2
AcDbDs::HandleAttribute
280
     7
282
     1
102
ATTRRECORD}
  2
Thumbnail_Data
280
    15
 91
        0
  0
XRECORD
  5
271AA
102
{ACAD_REACTORS
330
271A9
102
}
330
271A9
100
AcDbXrecord
280
     1
102
DISPLAYNAME
  1
Imperial24
102
FLAGS
 90
        0
  0
XRECORD
  5
1DA
102
{ACAD_REACTORS
330
1D8
102
}
330
1D8
100
AcDbXrecord
280
     1
270
     1
271
     1
  0
XRECORD
  5
1D9
102
{ACAD_REACTORS
330
1D8
102
}
330
1D8
100
AcDbXrecord
280
     1
270
     1
271
     1
  0
XRECORD
  5
1DD
102
{ACAD_REACTORS
330
1D8
102
}
330
1D8
100
AcDbXrecord
280
     1
270
     1
271
     1
  0
XRECORD
  5
1DC
102
{ACAD_REACTORS
330
1D8
102
}
330
1D8
100
AcDbXrecord
280
     1
270
     1
271
     1
  0
XRECORD
  5
1DE
102
{ACAD_REACTORS
330
1D8
102
}
330
1D8
100
AcDbXrecord
280
     1
270
     1
271
     1
  0
XRECORD
  5
1DB
102
{ACAD_REACTORS
330
1D8
102
}
330
1D8
100
AcDbXrecord
280
     1
270
     1
271
     1
  0
XRECORD
  5
1D2
102
{ACAD_REACTORS
330
1D0
102
}
330
1D0
100
AcDbXrecord
280
     1
270
     1
271
     1
  0
XRECORD
  5
1D1
102
{ACAD_REACTORS
330
1D0
102
}
330
1D0
100
AcDbXrecord
280
     1
270
     1
271
     1
  0
XRECORD
  5
1D5
102
{ACAD_REACTORS
330
1D0
102
}
330
1D0
100
AcDbXrecord
280
     1
270
     1
271
     1
  0
XRECORD
  5
1D4
102
{ACAD_REACTORS
330
1D0
102
}
330
1D0
100
AcDbXrecord
280
     1
270
     1
271
     1
  0
XRECORD
  5
1D6
102
{ACAD_REACTORS
330
1D0
102
}
330
1D0
100
AcDbXrecord
280
     1
270
     1
271
     1
  0
XRECORD
  5
1D3
102
{ACAD_REACTORS
330
1D0
102
}
330
1D0
100
AcDbXrecord
280
     1
270
     1
271
     1
  0
XRECORD
  5
1E2
102
{ACAD_REACTORS
330
1E0
102
}
330
1E0
100
AcDbXrecord
280
     1
270
     1
271
     1
  0
XRECORD
  5
1E1
102
{ACAD_REACTORS
330
1E0
102
}
330
1E0
100
AcDbXrecord
280
     1
270
     1
271
     1
  0
XRECORD
  5
698
102
{ACAD_REACTORS
330
1E0
102
}
330
1E0
100
AcDbXrecord
280
     1
 70
     1
 90
1959938040
 71
     1
  1
C78627C1-2952-4250-AD13-4433CC6D3613
311
504B03041400060808002249EE528CA2DDAA35010000A80100004F00000045394646434135312D324339412D344237452D384246362D4437463232453434324342392F4173736574446174612F446566696E6974696F6E4974657261746F7250726F706572746965732E62696E35504B4EC330101D588058B040E2002CD89A
311
241E27699010CA97151B38007283A7AD94A655D3882D4BAE3077F29D8C2DCA48CFF37B33F3E41F007027F3219C797CFBF7DAFB17339AC3A67FEFD766ABE1225486DD520FF73E2ABB58658D94A22D168D50599A89AA4D5391C749829D8A2B55C973CFBBF4680CE979388695AF9BA937C3A047B39BA71B5F38DDB8DBEAA3BFA5
311
878730740510DCB707FC37A6B069F5A72888FCF2D09FFBC7673D4DE6F814B545D7D5659A085917A55055DE8A45D565A2C93B295BA5645D15D19B9976F3A1375354E78B4CE6B5A717A9144AA6B1289B04855288759D359825181DD773F89ADB206339EACD10C5D149C2C77E5C31A12574444084148C892C912306620C1933B1
311
257664812C86A665B296AC2307E4D073C931394BCE31000386516006CBE0188111C326FC05504B03041400060808002249EE52F6B7F04515010000300200004500000045394646434135312D324339412D344237452D384246362D4437463232453434324342392F4173736574446174612F496E7374616E636550726F7065
311
72746965732E62696EEB606060F80F0540260323103700495E20ED9E9A975A94991C9C9C919A9BA802147036B73033327736D435B23435D235313235D075743134D6353131367676367331363334664768046931363471713532B5D435052AD235313332D475727372D13534373670367376B67474B5042A03DBCBA019D37F
311
E8ABC6157B20CD04146B0062181F4C03F940F0C11EA29A8141C08141002C0426541C106CAC2CA046088033B02A030AC2157C6006F21A8018AAF50194E6010A610250382264E08660284CD9E98021862280A91564B406929A0FF62C401E28B6F88038B83CB1243943D7A928312F25350524030321A91525F1AE29E9A9FE7E30
311
2114DABD28B120233EC8DD29A0283F0D4506C281C8BBA4966526A70255310000504B03041400060808002249EE5288E57597CD3F0000904100006B00000045394646434135312D324339412D344237452D384246362D4437463232453434324342392F5265736F75726365732F43373836323743312D323935322D34323530
311
2D414431332D3434333343433644333631332F7468756D626E61696C2F302F67656E657269635F706E67355B773CD4FF1FBF73E71C0E67EF7576C9DEF3EC995D46C6A1EC5046649CBDF79E192942562825CE965D8A868C2842C8DE9FDFD1F7E7F138F7078FCF6B3F5FCFD7EBFDFEC41B196891913091804020321D6D7513FC
311
77D8C5070EC3FFEE51B21F068154CC75D455CC028A3EA68992803810109FDDE5D5CEC5521B28A1B422BF80741695D5B529DA1C2D058AD2388BDA9F476F7C2CADC939304173DBF48A452BF8A700C0C70C3D121C1AA15A5270C22E2B9E28763651F7DA0D12CE11077B2ECD0D560B5E3DE2368B1E65C5E1C87384A4CC5F2D9FB8
311
BE39E9B77C753783A37998F5CEF1B4FEE553463245C9712270880DF339E0B882A6BA713D865F6F384C842D440934EF264F4A304F8DE4EEFA1E2BF5E2D91F5ADD9613D6E31DDB33ED31DB1D7916CAF091286EA3D31B9CFECB78BB0060245B943C4C040119FF780A74DD308BA9D028678674EB5504ECF284EE814DAED07440BA
311
F649BE4B55DA2890F4D73E2D489A59EE54FDB0A85B59F2F52C4858A02705C4815A792B0C4A996A2023ECB195073E115E3E3647F64243A8338F2000BCB58DA5692C7E7C3D413F963FEDF3CF00FBB0F831A9D51360FECA43819F527B89FA260EB63C5DA676830AA3626A3693B23F1A17A0DFFCE3EE164E31B5365EDF0C89EF64
311
D8E38AB0BA9A1117D7C3A0EC44F44F4023095E80BA610DE336D0F99593A88BFC5306E72DF98F7FD132ED95878DF2964EA7E43071359FD83B2BDF9C6B5BDF768F0F3C0FC351199526F53D9460A34511F75D1B63E488178569472C91A94497807A3FD4A390C6558F26D416365C3656DE6E769DA9D8FC73774E1709812842DD8E
311
F96AED1960F79D21B395CDDFE6F92CB4EB962A4668C76990E2EF29798C8941D67DA50F4A5F947872460F1F6FDB794E8A29FD7AC0C0D6E0714339CE258FB17AE8535221E3464A10F29A0BE5EEECEFC5675926A89F49EB14E5711894F6586DB5754EB4D5DA9C6437EBA57DB97A24F8B8A8DB295FFD73266CF57E82694DF5166D
311
DF93573AFE9C9C5EB05F8FEF8E89E0A8917B0B3724DB7BEBB53252581EFC3E38166BA131A3A5B42FE2AD00A769BBFA4458D2DE7822F8C4F63D0B8E21B285AE13325F3410A435C648C9D91FDEB109E73CEDA7BC796961AF79175E1A3CE4C5E8B0D009B0C9E29EFD98BC8E97554E3D8D838424E270F7685226E5AC268E021EDE
311
3522D583E8F20C0BDE2959EF5BBFEEDAB32FE9A3ED0E39F211A86AA9DEBFC68182EDED132AB8BB794442D2D7EA9F4D8BFF52BC4D55BB165124EE90A42D101E67BBBB292FFB4F66DE5BF2300E44546757DA7CEF8932BFC9F92A0707953491A55C5A5ACEDABD9FA1AEA01BAC3DC5A24E22E7C47213493996EFBC369D086ED939
311
7C9BA6C7F9855C7BD5E15BFC8C53DB3D2A4C5901A57ACD2FBDF4D1676E95338B2C2BCE65FDA4C64F5FEFDC7D9CA5AA1FCF11E193F2FDABF0F4916BF13FB916A224380E6462A9815F2300DC49CC4DF8D055CEF76462F4B7A7ACA7365C2707891370BC1D0AA6203C44CCAB47084FEC057F27FFCD57F89B8B9852459798A675C6
311
6BD7CE572CAF71FF7E6D7ECF7BF62CAB7B3F1107DCD04DC55A3F9961700286141C94A4F771FEB2BCDA2DDEE0CB0BAE402FF1DB0100F8E475DFFFC074DDB4498AB7D186A7654DDB1CB680D703D47CEB4E72F8CB13D86A4AA68116E26387B93FD6738779B34FEDB8E517EDF2BAF28D9BE93A1D3A164320E07D42E514725C2951
311
5FF361754213EDE06B079A2E99EB1CA82A02019EADEEB87B9AF005BD04BBCECB14AACD6B24EFBE482194A97DD32400685FF1FEF1544D1B14EFB1E7F08E6D2CD2AF52DE757F35F5E62332EE88EA26417AD5C3E0E319D68F25414E6D672BD4522B278C57D18F0113921C71D96527E091F00CEB15AE23D24667369BD3CEFA10C7
311
549D930890BA4366F4EBC55F01F746109F98ABCDD5A3EE06619C6AD78AB33E48E4C9BD21BF7478B385EC05C4F8987E2C1BFA0A60EBEDAA0AE0B015C2720ECE180FB6F2DEFBEB822D96338C9B63822183BBF52FB664A7AE57003AABCE512BF77E7E31BDA2E739AC4C131657DDFE5225E900FB56CC01CDE808FA4A9C9DA16AC6
311
79656BB64796283D89812B8F91136AE18EE5EBBAF47A73BE3C153EB5D4CD491B4BFB4FE690A4CF9ABA08C0D8AA64220C438C96EA6CA80B58FE5761E697B3A292EB9FBDA502FA863E49FE694ADDFFF9D62C520BDD1A22014147A0903A05B9B729F54272EF83931FEEC057BFF8C8055C279EAC5C0011804828734024F6CFA319
311
C9CC6867C727184465CD9BB7ED386AFFD96B294A85E3802FAE47244602D8273615952B98C4F23F7EAE4463D9D638EEE374A20959E0FE519C4CFB0FBFE5DD80C2AA3F9DB961D1BDE57E67C9BB47B77FDD74EE3094F5DBBE3EBC1FBDB7393F5116263009E2EFE1AF9A221B2AE234C902BF70E9F280ED23E73908361565964333
311
A3F01D0B006AF32FB21AA1316744B489D5A198E85299241735BE559675130955C902A8ED761FC0DBE337A9F91919AF5CE32AF902ADF9AB2615E00E8A94586BA1A90839B61832FF1BFB76D2EFADE6DB1BA04CCAD3DA649E7E2A0219F592E22F2AD54847EEA8E42271011E9074F8F3DD9FBA6CDF88FFC9FC7E811AD1CA8F4557
311
CE4AFC7BBEDCF0114A48689F20A584520C74DA8127124B767E2FB91A6B186246727BE63C9445BAE02088D58B8EFDC0F1072407CD9B89A13F6303B4A928F593AD489B58E6869325790ADC406036C591729FE14021F94B7796BB11848D463536A092A26F077F94639F7CEEE2A724C66EC885F4A24F8B8A0AC321F8FD149BA529
311
460FAA34E4663C02D41FDF80BCA222D42F0ABFF8490F4FA74C673807C2051D8E467B47B616072860069A9A303ABA9B319D58404461401B0A0F9BE5E1E151C14BC33B32ABE03DDE91708DFAEB15E7C0D593C86BB7D7EC17BE56E57975F077BFD5525F3A1A361D584A75E08CF29FC7B44B2B3085014F3A5A14517377C3F6B8F3
311
7E59514C3B12F8AACDEDDA4DFC49BE5710101534CD6FB6DE15B50F11A09472AABA727F0C49D9CB906B158030065F48EB3625E010CEC1D511D0053474B11E6A4F01C0D6EF1BED3A944FDEC70E0DDCDC756C86545910E0DAE3BE3AA9A404574C2995CD5CAF9549226BC94B4F4F0F5F9086F418F6B32346464610D8BC7391D3C3
311
A3CCF04CFC1FB2A3A3170E369511868F14EEA4E5E438CC73DB1F3248AA94B6B2FF33B222FF3D1E7BF146CAD229770158063BCE4F5391964DF62F7E52A7BE0EEA829C9E13C4C147D6F93FE59E111DAB5E4594D6F3CD1AD375EE039930EFE5AF2BB2D41C83C7DABD8C659BAFBE8FAB392CA634F3D15C1D945DB4588D2B0824A4
311
EC928AAC565557CA2F0DAA588CA5BE30B3A8004F7BF005E96CBF891D7F18112A3619FDF530DC8AA64954258E1811789B5189B49B4EB53F5F89F7D37523894F3EB57B373763C91E502F52CC99EB7BDDF933FC324C4FFC2561DFFA7339FAFDD0A4BFBE6D3A8FF9ED1FC49898139864602458968913181918F719CCF5A68B2EE9
311
C1FF050E34E63107003B8120FA982C21B30A874E4F5E4B38D5A8290C4B8D9BE48A0BE31EA995BDC37AC6DE90BA17D259DEF53605D55922FEB1855D915B659FBEB350EE0DFB2F9F766E1C84CC8964B75D08667445EAB966015F63A18A9E0A325C1B3DC628C0D3CB60F767FA93CC65F25458BD23C3B312716E5F40E5858AC06E
311
BA9AB14F95DB99147B832069201541D09A0D856E12C629CF32683760EE855537D1901988D5EBC156676C7DD51D7207CF3267AF1D76C2AD867315E44618015313A98B19941C696FED3461CAA9B5415F918556D7802EDACEFD6B2E45853A9735DFC9DBF7E440F9319F8B6805A973BCCDC76C069A9144E51F187EDCC12FC31B5D
311
EAAF0A76137199B106EC84ADA6B6EE697D4E6A96E007417F4E880E8B1E89B4BCE9D81EF611E2ED8F0C1A6C25F620FAFAAB656A7C42D464880E8AFAB0E0FC8EA38CA9A8AEEAEE3E4648BA4680270A89743CDD3E6C6CBF34B7B640EFA285ABC7EA0A1E28F3CC963D114A80123EE66D0AF7D5380EB41909B605AB4765B709B808
311
590458157E69BA1378FEC4B48CAF6A730E3BE3C5EF2DD1A5EAF94B1DDE50CEB55DDFD7EE9A16747FA4B223359FB1FCC69E1194892BABB93A1D5C4E807AC0EA2E30180811E77A2291F6E7F7FAA5E0F60215BC6024E48DE436C511F0628B8CA189982D4D83CCA17D305A7E923C37941CFDFDCD93ACAF735EF5F0E61BBD3E6C41
311
A59B242790D3A3BAC7064DCD89AA2E37214EC839820949D5CAA31E240D2948E48F690298974A96BA9A8432BC90F5071D6537C9666EA4564796B7AFFFA548077BEEA75F63083435074BA182F3699557397F71548383FDA8CA34D99B981E72835ECDA5DDDC151315173D05A21F651AAF8524E88209E2E7A737ED1045800CE339
311
0050BCFB8BE588DF111617874C62575039CA588EEFDEFEFE319B739DE2EDC147092A262611E159650E787917885EF08F1F51B8F2D8A71D60B58B190FEF9541A1BE94BC19FEA50784DA1419FE4B0FB51B8D36B5FF8E1286FD8AF42B91E59A5F1CC4D60174E764045FD8C57B18209B217F89A62252BD20BE0E63E12B8E8F029F
311
E19E0E8D0870F58721A557082250D5424F7909369376E41666C0EE77CD87CB283F661D5FB6D0DA023CB67320A20DC7BE661E9E1BFE5463085C557DA1FF9BE835733766C3D139F2CF9E2208873AD0EB4814DE9E6BF2CAF81614D4D43906ED1C05A3265CABBFE192770FC2F64F940CB6B17B5F166F133C9AEEAD2641807C3E69
311
515171DD74C4A85311513D6EC9530B3B601B6BA3EBFF3B5C3D2F7D69765141E345F75433953D013ADDF8F6AA7DC3F4A7563FE5C7D367937E2900D7EAD0F9FC9A4A1A9B5BDF1FEF08532660C01C5D6DE22199AA774383E306DAB87E301ABB7D213887F9869D4942D0D71E94B27EDF216A318BD488D45DF84529EF575AF3C393
311
8C0AAA0215B01994153E2054A0B894DA5C784980633AAD48576957CF4AEAEAFADC7C587368551C73DBE1E57C58AC713303A8BFC258BD04B51724459FF9E24C03A81E0E0679CEB9B348C0DC998FEB9C6D6EFA77D247CC8F92D3848599ED89A23218D0636465AD1CEEB7DC140D7426F83491C4E8E8281C2FB35240918FFECE88
311
0CA2A42D70E8B20B34DF5221C7DB0CF90ECCB9C745B37A47E9B716FF7A97B7A252C1F3814DC7B1E1A7F72B8751D524EF7CAE45B0C73B3BE7D08ED39781B380DDFC9AA4A4749C9493DB5BAD07A6EA6C092FBD0E85DB004DF06B8C9D3089C5320187E4CE1846158C7EA7DDAE8AD9AFFF21AA3A1026BB06A259845E8232DEE628
311
11A4DA9CEAB3A4887320B76E2AE5615EAB7BDF738CBDD01F1E64064BC13D9EC53576751CA8CACD58B3CEB0E6CA585BD089B2A59B9FC101403387AADBDBE70586B93D64BF3AD4453EF9C3B6A93817E8346991798601344F79A83C51F3D50F7BF2683A3605F51A72449489E0EE6169C749C60B1035651103AEE24D24E51A759C
311
840DD3FC6504DA6FE107510E447B43461C79D22970B75DE5E1BD3007D1AFC619A4A4A69B5626AF5E9B8374E20677F77E2F8E73DF868E8BEC7EBA7B6A75EEF7205E1AB9486CB642741D6E03FF13FCCEDB1C4AC129886268B01CDF4B124AF797CF784F3C6DEC97A17D4B558070A0F1C04DA4FF9BDBF34159AEFE958479824B3F
311
58EBD1E19088A2AFDE501B6F2052368A3FD0E650A179EFAB1561E1D27527077136E652676C3670F42DCB3352F48F6BC86D2C3B0051727E41A0A4DC6CE2BE9D47F5CAA2935A3C0539AF080665997194ABECD723B08129CC5B6B21D2E7D54CD4D12610E7E9FB8306771A89576C7A982002775ED44F3F744CF21EEBB27A631671
311
D921938AAEE3EB0D19CD1E083727F607823E817BF599DCED5394E37EEBC2E88782E638920CA641EF74D4CDFCDEF06F4278ECB18E31E7E9876F2D783C8BF429C75395F57E98C2B495A3DA077EB3AC3C158608B6B57FE3EA48484D9A480096FCEE0DE880950E7E5A5714131C5C41AAA29FD19AE81AC145FA1B9E85C7169A5AB8
311
37B213493DF7E9AA4B5FBF9CDEB36EBD21EF1181B7CF7366AB2A951D01E37AF4EB835D1BE8C117CFBE7625D2EBCDB0B20C5A4B45CED0BCDE3EE8DA9DA78C2E21DEAAFFD1197E463C33CC6A80FB785669B856EFF7A8CCCA2841B5A5369173320B1170C368B2748D81062EA0296E5E2D95D7667A4A46D98A6FF475C76AAB0A8C
311
8D45E226FAFC9FE0133EA9F60111F99CA81ACE03A1D14C89E8B0D69079C91464FA1D99E651D0EAF606F345C42A8A1AA9BA391031582B96D5B4176A77AADB01F12FD298A75DEEBB2C82F0B8650E880722F8DDD90C56A7A058E5FDEF1AC93545BA27367C76F5D8F9690CB6F8DAE141EDD7971F0FB548A2AE435F224D6E5954CA
311
155512F7332029D5A1230854B79F258EC5FFDB09F5F6343A8EB193229B7F7E79B3E48F8E183860B38C8269D1B53738FF1E0BACF6AADA6D4869E9DE708E79B5DADCC09B1BC76F649731CFAF59A83FD8BAE4C749D66FA87A3810D4D62FFE826FA400C0F325D2BC0F3CA35F5847B82A2ACC7961745C823E4D863D54460AF792CE
311
6F79B5C7A33B25C3AEA6CDE15A919B6367D781E9D44F61BF828672594A3E1D9EDD6DF179A81F27EAC05B936575D73E05C209DDD2115CFB705DF9BBF3C911589B3640735E9E618FC9C36A7326C82B2205E244C55D56FDB9D5DC93CE958D4BF8174D2B3DA54CB3C09F2C2A6DFF73D23B2197355761AD421EC581284A7EF8DE2C
311
E3497C0C804D49B41DFD6A7360844E5BEFFB495CFCDB97A4595911CDBA623274CE852B5E278AF0BEB1770E9D37CD977B2766A7DED0E94B840E1E95E8C77DE5CB6354AF7871427C28ADBEEF7BA0A28E19DE9ACD75F379FE373EAE6DDDAE3834692F9C2B03B4FCA8FCA9ABE8EEEBEBB725B88A7C90941E850682CA04061A7DF0
311
CE82ED49BFAFFD42C309818FAE14755CAAE78B0F73243ECCCAD7DF58FCB9CDFAE7A4D3E6671A613639130D056C8383C8F4FCF4808C331E544DD26E4755D09EA05253B3049A1E32587CC25D72E073E2CD96D04A71BBCB0038FEC3F53D254199C3CDC67CD66640269431860225392B2CB3ECD0B4498AAE78BA1994246AE1EE78
311
F2EDFB79F6C6CB6B5E279C4D373FBC21CB2698C9ACBBEB6A4BB6B39E16AB0E421CCBFC7654D81ED86022F9BB522146F9F4772E2D0E4FA70120C95A85A417BF5078B232F4754363EB1750B2AC2148EB46B1EA72AD9B4D23ADCBC589D70106C3EC2ABEEED84DFE28E718C6C83502C28E9FDD3B09DA0A6F6F7B72B706A31C9E2A
311
331EE70DA56A083D2177BFD63C55B11D8D949FAFCF90B23A1E24B9B5018B9A17E99F2890EC302F330FE7936E2C23F0D237EC8916F5166AB84B62A21BB0B950146962D754F92CC2C8877BED8FC7B7B25726DD19545392570B3A2C66B58F027BEF412E552D12A588C4A3CC5C3193FCB3485EFFF700D0B9EEC077754A33DC1FB9
311
E25AF814628F91DDFECB667D3F7690803F38D13F8AE39353523BB08FC6760144AFA2CE28236F65EDBB3D5F59A57D612B99E3D7E5F8A851666BF9B5A6658EFC96EEB37A378ABB0EB3FDDF1303AF32C41BD1C8560745D7BD81066B0D6313359CF488563D3BA3F8E2185D1FAA3EBA1397C9D0E3DD232180A4DCADB6AF25DB3AC3
311
CC26589C8239E66E81547BC7E2F328F9884764CA37EB5DBE390DFC03A5246B456A7C3684C4377D0EEF9A350680FA9A077E8B2957B489E09AB1AD41316944C2254B5984830F691C93CAA767EECF976FA5647538830B5E63236A6F0365C1E0F3E327F24FE35EDDBD7360B0F7374837409F7A6311BECC12B7026D4FA1AE204FA3
311
F5FE904B1F420C7A9044AE58E403E7C4848E7DA25DC9EDAC79DD756FAA26B9EA83ACE8A214A2612A22AFA19DAE7DBAC5F8CDE1292A485F98DAC731A29FE01A3966E96BCB9FB5A4C8830E1B9AF0C54B87FBE221A097036E5D28D1F869F810C06A9BB0AC0612F69AEBAF893C6E7AD59460208BAB3A6B09CA4F6BDDAB8CF0D1F8
311
4B72487498395A70DCD754796E271099A567A55CF242BBED64696378BB6CF25EF0FCDB589F3A82F1116D010A9AB9FA4358809EE0C973A2B4229BAA876A70B03AB49CBA7FBE71DB1832FFD32F9BF2C8E98075CACAFB36921235D0F552B6A67E94E094097A5D7DF681B40623DA535ADA7A9AD8E9A62407D7C9A5AE51D62A17A8
311
3A23728DE86BB56115804D3F2675F2C6B87541A0FC497BF0CA86420F558C9859EBE9FAD62747E323E3AADC03FDCDDFE7407B09DA90B44E3185723C5381EAEF589765E2F7A099BA46695BAD60CEF3491B8A171F5F56444F7CE9455312C3498C74173AEA0214EC029833B34B650CBB5A5508D5091665309642791708ECF27CF1
311
1DB3D797D6CFE474453BD4BFADB768094B2147814D81C7CBAF8228DCAF5564B5891F5EF6A860EB2E323CB82AB868D8EA048880D63B0DE5341F1B3D53297B928A11E15F25E5148990F710747C3509ED14909C552EBE3973246FCE55D00564D8310BC3EBC5085D08D806799B77D6C57FDF5E55837F9E934F09C03C729271B64F
311
12D0A9F9E938107CAF7BF1EC8CF1BB9B42363D33070F4CACB425E605DDB0A34A12BB936DE286B9887A4E2E558F0886498BFF49C311D96C277CF6A9FC0D75AD0ECC5226D7E0E3572012E56D7FDE4410CEC7A6D0F997F225A2055B8B92E3956E875AE4993CB3D4C9063AF98FD45E1BAB165640A43439A2C9181A7C355B297C0A
311
0CCFFAE19B6FA3C2BA238A885FBC98B8F6DAF4B94B97304878DF4D8BFF6A4AEDF79E90ED4E68F00CD7299F4E0D83E35601AF0CBEF18C1E870E74758FA91F5131075004DB3CFCF09AE1DABC11957FD9808C92E8A678CE9DBE40DDA0E0D1D505AAFBCBA208232BFB6FB3704E8985E61ADE53DE74152F5C7DE74B1DEDCD37DC3E
311
8FB30D7EBA8B9EFFC3606BF90B8D438279CB7709FC7C00D327F41817EEA71CD9E49FE9C8C9A81C70915D9F0F15958EC5AA4C3BBFAF46986B90F188BDB24B89DE3C6F29EC3E6F66D84856EE96A35E657CA41B41EFD8DBFA16AD6E91439EA92B40B21C053249F51AE50EB0B24C770FFAF40DF12C8436366819C48E36547D4E7B
311
72FE2BBF10828583057814A668BDF183F6B2E58DFB151103E56303E63D00F39C27C4661605DB644D19175D02E3F0241E8FC3458D17AAAADB117CE9EEA690D0DB01E634878C04C2C9310B69FCAB831151E3AD293BEF6E46B0ABCECB50F5939B39C613D41E81FAE8D34CAE3C4566B761D37185FE864AC32FCB71AEF39DAA5BAB
311
88609BB980CD2F07A8F941653B529567726E2B2A58D079DD57E1E5E31426CF184A04D7B03B985F276D47406AF276FE32E3328BA866EB1FD39BEF57863A317634AA5FE467409B3873F5069EF0D71AF00AD189D17BA1974ECDB2D623E9E14086386A6AAB5807825C37B015BFE892AFD154920EC437EB945D958E18622E1E0FE2
311
FA06557CE4BB9BBD05A2D40E774DA2B65473791E314B7D6C886820B2FCFE4AA272B3B8B15E7344A145E8AF919B5454D89D36D413E87211186BF6F645E5EC94DCCE8E1C799022E4EC9BC86D7A0F2AFB1FC4B2CE48F84B3F49ECE65BAD24CADCC07EFF39AB06BE9E6B27A059938EA7208838455383DDBCFCD967DDE4650EF92A
311
14FF933C975DB20BD7FEEBC4487576485963D757D16340D9599FEB362F775F38CA4185A86F74B629C81B133644A3B18FD056E997E0734F9BE26D11C0AAFC669E2AC9FC41D281F8B2E1C35AE27BCE05F3DA295488096688719D974DF1B5D182DB7792288697F8763CFB43562C1CDEE11C4AABD5C22B6E33F6F389CFC3477C59
311
19DC0D533F8A7A1846B7ADB60ABDC26C43D0CFC8910B7C15EE22675BD02702ED39DB77A87A192CA7A543E6205B979B9F5A6B512A3CA799E198B2D5797C0AF8D1D872CA455D4D431A7879D4DD76110B5FF7F4176B54477A9EB5E4A5D11214FDA585F0382751D8E2582BA5D2075053298FEB8F1537304E32CB22C2E2B693DC0A
311
760B1DFCA751BDC445AFDCBB12820ED85F6D5298933C7EF1211E9E057684056CDA3FEF3BB6052355E162DF27C59E965A8DDB7F9437EB72CDDA3A090DE65A5B2F50326247B7EC67B73ACC7047FC9B353D6EE990F772207C6EC52B39DC2F3C0754821DAB559F7C1809C7D0DD5B0499D0442E0A6E391B3D5DB46D11E731E6794E
311
C77523FBDAA242ED67F9FA1FB684255671F63C9BCFE6E7E896D51001A6113EF2298BA494E0B0980D1FA5B9D60796554C02256B1E0345FB7C6186B6A19D2DCA270416262845FA4F42DB5D9B0A0B6F07FCA2E56C242522E001E0CEB734AF310FC8BFB57E38E03AACE93B3326A2197891E68452B26A6307FDABFEE0223D3C03C3
311
C73D2D5BC054C8311F12004CAE488E5C29287F8156A2CAA4AD0D7BE6B97264E4139F437CE73ADF52E5134C52B819777C18B323A5924E4F67AFD13B1CDC3A61793A79FAF5C0CEB718E441071E797C6DCCB9EFCF7E4A1E9F3DF3C2F9C9E8294E9586868788C972857FB0556D7A26941A7EEB9B580AD78EC40B85DC906B4120A5
311
63CA3B87797ED612D3B035962BB75F6515A393F4CB057F564CDF54F2E5A024514E6A1F901DB80C7E70B1FC05E356A7E72FABF4775B3E3FB8F70A2A8E7B6A94542BB304157978CCC999E707A29CC795E67A59CC546A5D47B368954CA7B6E75EC9E1F6FC73CE3B4F71F8CB1A6B15923D61EAAEB14626AAA9D04A26EB9C66CD1B
311
E86CA31A5D8703DE04CD1EBCE4F5CCB62F93909AD11E55799A781A956ED27D3E738F4538CB04ADABC7DAEF20BC35BA6A90BCC1DC61BA05F20D8832FFB9BC9B15E2DB838A0AFBB7E0C82A562127E0446894F427794C3037186F622BF24DE1B00AA10A23BFA47B2A180D6DA5AD6F7326FEB8C100C2D7142EB2A0B2A9D1008A09
311
BA343D70E054AB69E2A7EDB783CBD92537FAF4A44D1296AC2792729104B3276C276C951D0CF3CF3F1E6B017720A7B8505A5FF9589365979678C36F1BAF759EAF57C60F1FF5FE9DCF5F8E764FF25A2D06CF25117A8FED51884C13B2B750DB0E4F5E3D64124FCF11F0AD8F1CC3B3DA4B38ED22BF1CB2585EE6BFEBBA63FBFD44
311
F9537B9B37BDD6B358720F98A8125AED4349CCFEB0E135F19E208A04CA7E2B10711185D72E381F448036EF57C9F874E54A971CA37A639E986AC0226DC5AA00D5B14FEA9192234B3DE617814FC221C92F33F1D392F297731B567FD98FD91D989379AF567A65B8ADF177591DB90FBEA99BF4ED11B16E50A0AB1DBF1156D034BB
311
E04D69D08F939D8E92BF525A1DDAFF80ECBC95D8F45D3FDD289FD23F7D8B452F8EBB34EC082DEEE68E18EDDF072060FAD2AB1504DD4879BF67099FC58F6E9DEFBF645D16334A3E9A127C6F1AF6132CF287E433B43A0EE93812B4AA0B194E03EE3FF91EF9C6ED0074A2F6EB18A96A7C9890B1FCDA1F2095E944DB911ED54C60
311
DF16FB74C8CE9BDC7C54C4F14078CF73C2FFF1F1BBCCD7CF64F71407EA1683DBC410D226627F66E509060D5C0AFD611DE681D509DB8DD12FB1265B03C6F5C55FF4C30BD94187FF692B4F152982502F193098A789526A038AB529A52BC0DC4FB6285CBAC10A8B8DB75DCD9BDABBB221E27D1F8DA9F5EE5926A1C8AA9BA9BC09
311
239C6A7F12914EA3B59EFF7AAEC3FFCCE56F1C5C2980AD072793527565E774F4631DB178CEEC691B1F367BEA0CF2907E1D6B854D527065979DDEF002D8B2ACEA7CE21AE297737EDE1D45B31233B73FEA35BCFDD0B09721FDBAF6432681F2FD10C3E9EFB246FD6E854B344ACC9D8A0EEF876A7314B49B6A499FC650B099D650
311
DBFEC7638ADFD245E2B7839DA5AC5F7D5623FC0ECEEC8653FC9B2BDD1AD4D00A566FBA7186DD3C9CD26512551637498CADB950FEC71ADB9A5524285DE328B8EC7EC75D2345AEC6A27C42AF6D9B92155315C80DBFCABBB7DA0FAE425C4FB896B15C9BFAC4FE67DF5A23D30C93DA4D8F36FB15D100050DA6062E22AEC5F4DAC4
311
F6FEEF97AE05DE63C6D38F9E068A20BC5E3B6BCD75320C5090924E7F93640A7735B1A43451C2D91EE62C6238B797349E59890AF3A520DF4A87095F3ABEC2E61F0593416CE46CDCBE0E00E2523FCCD04408588B5B6C9DB6459C786CE378770B54F51DA3A5E1DF2A3349BEAAC234A6CF8993B598B3B25B4B113E353A4D750FA7
311
534749430F3EBF2512E7EA3FD43C6AB9A1F765A58463B306721A15D224FAFE8C6F5E3432D57EE697DA0DD5A9D4866A8BCCAAA9DFF1F06047851408FEC060471D0E3EB86BFAF46E4B5E60311DC3E3CEA147C75CF971BE74689507154FF2D2E92F15CDB2B9182B11459FD8ACAC5A85F174BC94A7F4EE4C4F5CAFA7C02E37BF0B
311
C77B7DCD0C047BC316F562A01A441AFA7931CC84A28CB9F4AA367EB515778F29BFE61195FA671F4352E5E46E3A64773F1F76EE5EB36D7BCE9BCEAD837A4D77F8DB8C92AEEF6711920D7C7D0F76B0FD0EB7AB83724CD35BCA7D36DDDF5FBB7FF6F04A91F3E2BB3B8F1A43CD659639507FF6331C5F697BCC782AE57D757A27D9
311
7F1AB9E0AEDB43F92F1B2AACDF5FEC8ADBAF9F814E2027003BA2F9E144B1938A7A04050AE5D953B82C45619165C813A10E76DD6906B3C16438064D14CDA713AEC420034613E1AC7241904A49FBF87409AFB1FCB9B72FE7933A87D8FBEDACECE4EDCF6A4FE9FB94D5DEB74FAB7CFEAE17EE965DF980DCCA2D04134994F9A2E9
311
4D2265DA4FE6AA7B7AC15FACAC2B5ABBCD7DFF542C5314FDAB2E1B9D8B65220B8E2B638BE008E8DCA22678C820C5053664D15E89F2D735B51A84955E81A443545E9FF787BE0FA700A76D136C27DA179A7C6E8939E01BE756E19CB292798063D8B97F44E8A27BCF3A614FEB8BE974A718E86F7EC99B53CA35FA24F61F2B0726
311
6684623A3D4CF073E511F3A10A8FDAFAF0078C577F4DF9D339FE7862E5FA47CF4344209E5BF76D783B1B48E152AD281B15FCB934DCDA49CEC5706B1EE8B460F435324A5CAD154725E21AB8044B75A557A79F6C807B9340AA3D92503E866F4274412926C8C504E4D5EF8C0E68DD0B028781A6B4054F11CF18941F101C57CCC7
311
96773ABC8DED9CD91FE5788806C05E548895354AEAC96546D55B0E94A59F148D061F42AA398D822CDECA4CDE79E13469BDCC44FDC990F366BA5978C15F97ED80CBFD73B0CD9B8B83A4F6845BDFBFAF034019473FB9A63BD55D3A4A7284757071574029A4D016DCCBE95DD679EF3C4880BF169422F8C89B68A988D2B13793CA
311
ED4F74DE7486C72DC94DF46B8E93D8E02EFCB1FF9B3BA10C8AE7F653DF94F4AF466CDDCEF5776687F7C4C14B63E4EED1719DC2EC482D7DBCC7AE518CDE3D5FF86D39000EC3673C0044E1D308BF05F74D1B5F033A7D1BE7F74BC55BBE3E4A20F920946CA0271EB17BD2B80E5660ACB8A29A79F5E4BBA49D4D945B6EEF4A7EFE
311
AA65E5555BBB57A7E15D2F83C69F30BBB978D2B39F1F26FC097424D39BB33CA3D87ABF64E307938B685BAD44F71556A30B7E712CA4FE600613C3E554B69ADE949A7CFE214DF1FFF05CB82151EC6FC31950239F94CF7AD39DC473F6EA356E5EC2C4EFA04383CEFE985A127484366FBEE3C0EC4FEA363E4F6632AE781392FD45
311
D67B63FB8DF70E82734F431FD3443172A0E30A83D60982D55FA6A2CF86DBA8382502ACC6CDEF3B907982EED1160E14863FA242F9757347E1544275CCDCF71ECD5F8621CBEA326B8BA884AD7F825781923E66971F04010D574C541D8427A438A37EEF8AF88240EED7362C953F5A81DE2D56109CDE2524EA0F5D2F87308C0C47
311
BD97AD605878AB8589E17CA83930CB5E0DCCD75853D68B1AB136594926DE426C367428E9334AFAFF90ECE221BB5DC9E5BB53D2CDEF954EAA9CD814F0E5725F1965DD458E5F8487683AD86B9D0076BE3EE91EB1CECC5331A67A3F79D8B27587C12EC2A6A70474749F27B4C0BBAFB94B34189E88DC18964BE4121B9137FD516C
311
7755356E50D6714E31ACD222621EBBCD1CFF81D87479056A9DA0E0B8EA19D24CF937DA89F78E8650CCBDC110AAB6C4E46DCBFD0446BA9E2060E81F314AC2031E88135E5476AC0160EF5C0DD2EEF1B8B5CB2D198BE9A554A9093B5F7D7E4B5407DDFCA1D9C152FD97F55BFFFDFE802954DFEC8995B983E28AC92F1971E28F53
311
1DC407A1280EB125F64A72E617EFB27DFBCEDCDA2D6F2BDADA36873EE46B9BE1782998C63DA7182BC383FB6FD15DA472B175D7E8B4FC88F38D6E07FEAA3FA3CBB8F6B449ECF14D2175E5C5CCA3A42ABF24CA6C9395AF74535F4DDB38CB84F56614B0FD32D7E19CA5CF988DB4449C40E23DF2B16772594554579094450F56F2
311
53CD25EA7F77366FB1CFE79696C428BB64D5A41E986189427E5E4D7E2DAE3D5BB4972B3DC44EAABDDDD63A2264ECFA5C786EB0EE1FDC5BE34FA0F08376869FD1E61EA06CAE15191135445EE8F0394161C3266A596AA035572BB0C8876180D8B9C77D307DF9DCDF7365ABDA6F3A2366436457A4DFC1F259666569A9E4A79C81
311
7BDD5610E5200FCE894A358EC72858D50EF67545DA81C6FACE3D457BAF70367E1E6BDD9A952FB4F56247F58F523B97E640246051A72F79BE42FFA0B3187F63097F91C48B868586F714B0EBD5A00A8412C1236E1298F60C72BE6C96B82B404CADAA304AE9F303176B14BA53FBC2D5E86377E35542019E24D97B96A49B2C0E50
311
06E7795954DEAF5DA58958839043C6C70BD3B1B33B6DC5C31316D8A6923F142E26F6711A2258AF977DDF1F970ECC4F1F2B434B96D81BEB6E89BF3BBB3C7C8CC80505070723D6D7D7D3C8CA27CA164A26024FED94B12A86031867241DA53D929636DA600F050BC40CE48B8BA03D69224720DEE2ED2127390BDF5E6EA64527BB
311
D4C4C63FA76BB801FEEC0E61218EC98A8A86CD8313781617877E66692839B9468CF4DB8E50A73986E558E309C0D6F676F921BE02F1185454DC75B111572FF9D27D85EA14C05AD7271225B391C4275659CA4A43759D0BA44639BE4C30A84DB7F67A41399FB95CBF923B1B1672ABC807C1590557FB18D811983FA97F5E609516
311
D62281D38B1281F68FC75528C35E4CD7DF0F7DBB5E5DD69C414EBEA2F4A5B241B996BA77AE6C772E367408C633EA3E438B68563EA8BE7667F3A4C4FDEEA52ABD78A2820F443B7914A15F180018D231E64519C56A12F6CA7C8DAE18F06F6B769DBF92329EF6A5D18FBCE600F36BD8E8198DE5CDAA96181F3A756EBA5501CEE5
311
8F497EA4F418A2B82565B9BCC611713C0B708CCA1F398B78C5F7D03B3437CC18F13061F55C7BEDADD5ACB1DB0E36D3CE47FF6EA1A563A57E9649EA5D14D1A50EAA457463381C073777EF1600607BAF6428A7DDC079D47A204EF1E1F1F0589FB054D45E02CE623B3823C317C601E589E22B1E88B448524B86A82828E32345EC
311
18AE17214B42F8C41C6D428016D9BA31DDCB47572561E5A402E5BA4FCE55F78AF7268524AA04130F3A20BA5D1E9F9948EA48FC8F5314FDB35E21898198060034ACE5E3E2BBCA34092518F275190AF65F45867FF0900AA4B81F25427414C372BF51DC29AA855C5428EE1EEDD6B849AD60F6E73475C2D2523F8A2772C840A478
311
DED18A8C5C91B085F255DC4F54EA7AA8947354FD17ECF8FB3B4A0DE7B483CAF3A1165EE05BBA413E5C1FEF3DE1D6B8F2F3F3251C17D9FCAB48A9AAF63AC773A0E413BBC46A9ADF84A566FC920E4D8C52C9769EE3301CADEEEDD92B312E02E2A7E35B7F1E7D203FE5A7D75578B06E99D0E46FFADB8FDA17ED8880390DA29094
311
202D6F645F76F6F96409CDA05495A96E84B04A00D1A6C6C81D7F3DE9376E828CCF144EE50E364ACCE7237EA0BFB5607ED1AC3CFE73794E5B61739D14DF1743441B1AC98F00ECEDE9E7301FA29755FBEFA68C91EF2B314CF510537EF1ABFC9A762496280B546F5EDAAF8A5B387D469FC9A878A92828C88608453ACEC6094DCA
311
54111E7AD5B2663DFE2DD151B7F123B9F4FEF8EE36AB125FD7AD52A59B1B765B3E3F73E3F73DEA93875004D2AFFE3CDE9493B87A9904DD052028949041A91DC0E1BA47BA714343FD5B25E0A6A09503AFC17C790058A836A324FE31D7893512E28230332F153181C1E018E1124EBE1BA262AA428A518237D1EA7275E48C5C56
311
1BD19ED6912EDD8367DA0F31E40EEAE9683DA9257525AEA7B632B97119E17145A90231768A4F3B9120FF32E8319B015E3CBE26F1A754177D8185345817C096B0CE443A955D13AC15E1FB5DEEA0239EC32A3C92241A237B0B02FFCB4F93CF2B02570C8D192E2F2A68CEEB42F12E6F8CEEFF46C251E22B4341C56FB08CCE550E
311
7A9D6F4D6564B9EA52A83D5BF2C6E03FA19D2775E15A8A7ACF30A13C259EE7F5EF2AC3BA354F1500E1A07FC63FB4686E2F12EC69719F9ECF5FE3F35598DF2CE944008CE78F0911BA5BE5D0A34E0098FF038669C26030BA9B300303039852A8F6F496341737CA7E0D2E3AAA36DE0A70AA7D9CA0D54D9AD84B18A44C9E625475
311
E1C97B93BEBB38DCE7D227E67A2D00F531436136355F243D1FC0D712C5765754FA22FCFFAE97919161F46D6E61ACB37D83777B385889770B50765B127768443A5C4D3A4E35A3151111F146B7CA116F918A049F1C272F2CD7976C69A0068773451659A97E0F4A08FE604C3FF6CE7385DB19F4D3ABC8A0D80DA8A42096AC377D
311
B49382B36E270B6FA7570188B4B7D1DDDDA82ACA487CCA5D38BD3BD039ADBAFA4ACFF27809239B722081E2EB9F145320553D183F28471C388BC8814E5045676767AB58A8E72D1CED2CA731379515D2E533E4CF0B39DFC625F97AC4836831A4DE330E87A8126FA17EBE583D614E71E22A8DBF2825599743E0640037303E8E1B
311
1E8EA4E1ABFA4F62907B5E4E0E5DCFDAB417C36C6848A2B8D15F1E505434C0707E16B1CFC2A1C36A42BBF55734F8F4301DDC2A5110CEE8C0747F69519265012A2174BF4E955ECD4FDE095A3ABC70536B7AD0B9D7892F81287D667C108703C9B66A221E9A0929D030008F77FF6F5D2108EF5706FC87A3069B976F7C9FC3239D
311
13D283CDEA83597461079FEEE049B0F392889898B7D87D31F8D60ED7B56B91823A8E4EDDB36C6172ECEE42BD42B12CD67994FA0F0DFAE9389356F4CD4425A4B8AA55CBF7ECD585C6A2C2316791E43D5C06841ADBB226A87FD61515FFBB0167B74E56BD7F3E90A57A97FEDCBDF483A0D6699A8C0849CAEB4947FAA90D8E332D
311
9DEBD9F4738C37DA0CAF9CF3DAA68BCB67C420459C7A64498D6E848E5CADE92BB6901F607AA331104A67F7CD650EE169B1DAE94D2C31C2F993632259B6957E246EFE4C5481107B07118607700040E5812A2A2A38DA0076875258C753F60E0F2662C748EDD5F3F3686B8FC3BD6FE631ECCAA1E8B1C1E565AD117E54893E79F4
311
672E32F9E46B2A183DFDCF3EECB4D4D077DBEA0DA254D256045109670050129E9B9B1A9E4A11344D61497A992778095151510C4BB7EF2009B63AA4360635312E4CF668B7E0D3D85A8688E2BD83B569439892ADB63461930D428E0DE42E4AC57CE48DA5CC1449530D8BD3D6A0F08DF20C8E8F570F2CFFFCEA286E30969B4654
311
D498A58D9DA782E19FE3F002181838925592C4A1EF0B332D88B61A92C644547BED490D3A42CFFAB70E36D961F694F6307F72FF15A1C79D5B1B5CEFD353D9E2B52566DEC8F8F09CB3E8359C0F68EBBB7898243E34E12A015B2685AB303C04D3A9E00671FF3DFF0A184E4A2ABEB2B666AF5B3A209C73D8EF29DCDB069C9F391E
311
EE9DD0F74C7BCDE16F8F02E3B8816122BBEB50665775B600549D8BB33A54A6BF940C028118BC6878C79958D6784F9DEAA6E26748386FFAF8D0D0101E2847B6563F5D8DC1D78F787BE00E2C941AE12148D4A81599FE8F68D4DA5CDED75530ADE138240300EE13B0FC13A1687FED6774662C05A2B7DFB186732F0D7A93545D8B
311
0A6390AE5054D9CB582DA846D7A061B3358B45E2B52DDE63E114397EDB7E09233A579155D795BE76102CF277F4DF8B188C4F2879BEAE3C08347124BF9ED23B128259FE107D31E34A652F090B30B39E0D9AF917B76A2806135621A8A60681F16AF216514BBD02711585B5B1AE823F4B2D0369EA5B6BCB863072727FFC871CA6
311
C9AB79A814D989057E9470A3D238BC87CBB4A0EA49AFE2B86F22E499793CAA9047080450166BDC357524561E258C77CB697F1ABB32562CF87C3B7AA12F911EF19FB3E5C02222E887D08202A60A17151F5E053A86B437771088B4FEE14D652C43E8D939995D34545E12E2FF93D4E366EAD25F10CB7DED141563C3D0C447AF06
311
078A91135FD4B9611583CB4BF3BD167F2399CEAB0E0100F8FFC305F00F1711717173138B4B48C83022295DE657EFEDD97F238ECA80F528AFB4F8D67AD4E2594B9A3AA86D7487EFC313BA95745C186F0CDD84CC12DC9CB0424B42203D351FD9C0A3AF10CC7F388E0329279087386421F194F4A29464C1DEF7EF8BE515E4A199
311
DCD5B909342598D8FE6A231F71336248D5CEC5454455C7BE383B3BC7B260FED27F703FDC39A170F3827239102F59D4DEE7FEF82EAA1A5E4BA94DCC4CC44E7E2EDE20F24244E4454369D2E87C3F823F193FD4FD27E1C23984B01898D15ABC20711A8A558054951A6AE280096BA36CBA439603B7B0B4C45F248C14B2383B4B5C
311
D8ECECE4FF859AD4A6CA2326D020EF090F4041D28DB66E5256B56232CC52829DE8060BAE6BBF37D4B7469B822454FE93210A3E8D15E69FFCF01123222611C51C4FD0A041A0CFA2471CF6BE38D2B20FA4C3525B5B8B586759475CF80ADFE67A284AC24651E52B8E683D24C2622642F27E7C3C22783BCF63648BC398BD6CD0D9
311
C97E7E7E3EACB6126DB7A6C1FD9F1031302EE67ED96F22B77C7CA0239BB324207559B105E4693EB26EC46182A92C9C0DBD24F29B31C5C5AC1F84300E0E17CEEAC15F5736FA4A98971E2F1423BFCD68D4BBD5F86E74B40A369F39507C88FCDB35D2DD8DEBEA4AF999E23CF2816D204200DF6E611781B9884C1AC8888B4DE397
311
320472959434323A5A36B22A8E1F721A270DF3BD65E4A31C11FF048AFB0D8B7B6881423793963A23CFCE935FC189ED36FAE35C46DA3574C979E4394BE52084F3081837BE033396D2EBD80F1F691B273F660D2B32FA27A33B1DE4ADA5F0FA4651511102DFA410DDA86E065272CA314D5249DF91B06BB92807B28EFD54F08F7B
311
525252782CD276DD02E6B0319B13DF87B1F6361AD6B28FC0D711CF445429B9E5A433CD493051C49A9E03DDB1B147D880253514A5DED88009018620EE229101C041950E2D8AA8E1F5F5438E0C0C0C60EEDEE9E3E0C051948C69F84BB7B2A48A1F3C8EB9E6864687F4F4F6F6E2FA87608ADAF9C5E117B7C1A737E710769DA1D1
311
5ECE6A84502AA855398712D5FB51BE92E4EF824969CE18278798AC303C2C7980DD2500ADF8FB1E6D6C2FAAFF9987178923334A244758BAA01A9A1B70FA5097D01E1CC2A58DAD0EC94CE6430AA9B0C10D75E3C6BAC670EFBADEE1607739CE0FC18A2587E3EC3058562014C64219C69BC269082D5C2F4A659278D58575591217
311
6D78A1B641719C2A394CED495A1AC5D583FD2F5EDD93308EA7EAE8A6DD396598BDBD3D4CFED62D18A5BDFDE0DD5C80D1A89BA62697B131AE7CE9A6594138582F1B37D68F1749AC7CB67A70695D48A4A056AC1FBD4E82358CEAE38F54B95A9016F9000F9879C0D9D131768635CA798895F27D6F1614F11F2838A83611AA51C9
311
A3DDB539D42979C29F10465655C17BEC3E2760B80DCBF609198C7B171A531905F3EC218D696025975E986C6B4C666666787271F202805577DD5A3EF0CAFAF91B62DC4B2DB4217A7606282F31D8DDBC290593BAA93EA6353AFA9939B877978481E15CFC9F2755CDC00C538F63A4BA3E80AE009B73CA0185687D339A507D165B
311
74290D6EE46D5C58148F020C3668ABE9EF2F7549170DC80DB41FFC1D678FF19AEB10C7133832B104B80F691B3138F97A92D26E551F1F110400D45AC71A9B9AC41A1A1B1DAEED0B0810638EFFB511D46B121C6FEA0F38CD00E03CFFEB9713FE1F9C263E4DDEC160D0497FA9A132BA608584057FB15380825DE6C7FC3C667EE9
311
47D488A09898D8E939C4953BF4EC9836344D2CC6B2971B2A21A572B06096F4982D2CC7232D46E8EA69DC83722E267754D777F97F96D5DA74E1E75178084D0E70F12AD33E5F71EF2AFA599B2BEBF60A5BE475F444F240CBFE8143C334E7ED9150FEEFEF7EB020C4DBED388DD1D6A167A76F3CBF119B578AE8CFA7736ACAFA44
311
40A1C47185638A0D2F3EB5BDDEFDA958FB13CE4AA4923D5BF840392D45544329525749734866684BF7F8D9D54D892E19BCA9F829A0F8BFCBEEA6CFDFC61D74EA1A645ED7A1FF241739F15694BD835B66FEC5677E40FE69BD3F91AE402F036537218A401CB0828604AD189E575015C6F3F6BBC8AC79CF6C70653847254B3155
311
1EFCBEB5978B9DB85D58D0FA41A9DFE9C624834AA04949D24B5AE6D299E072D152D12097920F14AA92C31C3B97E28B6C2E6E9C23D63043ECBBC0A60FDF5BD0C33C127EA8A3308B8B6AFFEB28B4455BF6E7AF4FC6222728357EB8E46E85053E6A8843AB23295BF838ABDA94658FEF3F832F147046B4ACD6F7D48E8FCC961858
311
2961C898D1C7A253C91BFECBDA6BA18A1FCF70755DCCEE2222F41B76D23CA98D0CB3D95F0CF66D57FFF65E2A90F5DF40FC3187621E981BD0BC1D992787212688976B94A8F0C6EF646624B570B78E068826F87CE27041A95C9A4871FF65CC17FCB1639629AD6A9517000D63AC231F3D741CB8430777E7ECF80CE7A3F73C0F16
311
2F7E56AA71F4DA80A33CD6ACEE78E2C11FAC03DAFCE929B106F8F6B3ED2DC71FF994BD9CEF4E9A94896EF1B6E2B7B4978168BCF0847A3D2A4F1B0500B926E634B174548E9FBAD27153FB5FC36799B1E6C7C38A94E1F9E996796D7B485E635D5287A2AE76FBD11A341DB3F8F810385BB7296391973DC6C37C452A9305AEBBE0
311
CDB6C566DB59FE60C8E94B1FD090354BF51439FFD1B48D725228FFA88C84F686F547107A7A235665A4593B7C34D748C1AC8D56DD5DA861EEFBADDECBBD65117E65851F90351AEB65F0EFCFF4BCFEF24CB7A5879699FAC437A7AF9099186CF006BB923A59E37D7A36A29FD8D2CBB914A5E9D0A8FD212FBF796AE9A67958FF1D
311
5D8B85F78F96219D4714EB919929241B6C018AAE0C02069F8D919961EC5DDFBFB7573E3AC8E08BFB7C8534BE6DE045B3CD63DBD71F7638BA2309CAE398EA3A7D8F98BBBC7AEB367EFA5CFA27A9F8F2F52FE878058E6209C026453F8E7E8A237DFC389E9590F6059B397CFD65183BBF936E86896612A5B5FEE49DAC8455D026
311
218AFEBEC12B3523A45B57B82C9C97E02ACFA1184DB18E48CF615DBF39C3CC6F0B4AE6BBEEA2E39D944E290302FA3DE33FA7E40296E2EF7BF1CD855BBECFAD0FD622BEE9746FC4FDFDE545AE6E3BC234CADF83A0FB76DFB145BF3828AE3436368AC24989454F8FF70A177672C711CAA1A76107218CF948CA01F873520E7A2B
311
118EBB161ABAD432932029628B6761590C98AB590C8C8C79798CE9F715BA696E839E9131A4BB68BE923F1747FBFF165331FFDD4D05997ACD168F12CA75348DAC04C7F509FE83898A8B421181AF492861CE81E4A2DD0A30850CFA95E05F097FF70F9E777310D584A75BA7018922E271DAB1D785671157685B7D383D3E074DDB
311
4F1E44EF04B07BAAC75A062077C54B9752C738C9D804D402E02851F3F89605AF189738C18C021D2139EAF72513824E10DDD3047BACC8521ED7E98B257D1166903B1B08FA6F918FD7E162913FEC7D0EF4787E29C35FBA8C6E2C9C20E9AB30AE42CA2A01A090E7D010C1B5BF9CEE2A304BF3A987FB40D836979B79E18D70F257
311
DA61E808472DD85B82761825779D6B90CAEB0F23360C6F80A7D7D77545E95B3DFF0CF96A827F9B5BCECD2C9698718417EF80FEEDEE938AFF55859D0D540B7FE09435583A6F04874A0C7E8CF234DF4879722000167F5872CEC6BF3EF7E5A8CC8121E6A359227C8A29C95212F9F735BC72A887D56B8F309FC525BFB4FD767AAE
311
C4AEFF249CFBBD2DE1AB9969A6155C7D8DABC307E47324C1F916C7BCFF40ABA5644E9FFB9238D19ADADA49D9610F01ABBA57E4DFCBDCCBB2B93C8953206C91DE01B0E2651A6D6C31721915B31F7B7CBCE55466F6D70402788FA91D73BE4ADCBA99A35F17D6B83383704917D6833F0FA3CD45C926ADB8BC17999A4A0AFBCE25
311
41F7B8CF4C2F5FBA611B3E626D64407CB32C122DFF4EF8674D6EDBB86C8F7C6A16D50FA685E2CCA34F8F7D1D8265BB0042E9D7F1F666F7BE5FAA5184DF58E12122A42EF02F461B3F369AC746F96528AD208512AB56844CF75B97F352DF7995024FB02855385854F3798670D01CAC771AC3E1889EC25F61A20C1F8CAB468988
311
17F9C47E2CDA1F286BF2F358298709FE567C91133E2638C8B53975E753EA8BFD3578B5F7186B7BF084EBA3F77BAC3132A5779902EC22AF2D2E79F42D324E083386DAEE9810D1B44A5DAA54513C7A71E52A4AB9257D975B621308FE4D2141CC3DCFE946C154A3C1DFCCA7629EC69ACFA831634ADDA93C0388D2A9A2DDAFCF95
311
7C6995BCE7FBB6DC4EBAE79E63EB08E9A25F52F67076F7093CA545CA3053B5BF576DEAD4E0017143C5F759F32B2D6F145B52B67B48909B7C7FCA6586EE385A2189C16932CB6DDFD9152AE317C430492A578ED27B72D85D40C7C93C097939E1B50F4D67F05334FE9DC362C30B7FF561B95259138ECFD9274C8D695C31B14D4E
311
AA9F3D7FA8DDF652F8C5DEFA23284C799B7D94416DEE81E05A866302DC70192A5368EA65E1CED8BF107A1E2D3119A71E85DC1A7B0C1E93274CE04DD0F2ABC8AC7C987FDB002B6F81757B43502EF7A0D92E416494FAEEA4C9C090CD9557AA4D532F4996A272B94355C5A0E4974EEA9627476F30809B94D8D8D860062E022046
311
43BEC7D0438AF800FC7E2B26955D595421E83C69E1A07E0E3122285835F014AD538188CF9737CE76D464A353FA55A001AB2526B84E985083693BC76FE211CA1D000679C889E3C009832C87E1AC2EDD05C302557422DF0800E316FCAC86978A371F025A6C7DAA9F333E7BD160403A1A06EA75AA9888FF01504B030414000608
311
08002249EE5228BB58AF800100009E0500003D00000045394646434135312D324339412D344237452D384246362D4437463232453434324342392F536368656D61732F436F6D6D6F6E536368656D612E786D6CBD544D4FC23018BEFB2B96DE15493C78601010A34B880709DEDFB52FD0D8B54BD70DF6EFED3AC0B12E6442E2
311
716BFB3CEFF3D18E26FB440405EA8C2B1992E1C323095052C5B8DC842437EBFB673219DF8DA659866649B798C078B48AE6410122242F2A4994AC7F93815DF85C049C8564CA0A901499DD886B2EB9B1E02448F358701A9235880C49A0119892A20C89D1B9FD768815CAD268CB5E0355B40B1E47F3E37A2020464BED06AA57CE
311
8FCC20C3C3446D46761A2632A8C1283D07031EFF2AE7CCB1BFEEE916E406DFAC8E36FFD99A9D60A6944090EEDC3B670C7DC13DE86B6B2C5C240D6E503BB85ACD579D513F1B9F9A69DC9CC22AFA80C426D40AF0B21EA168559156B6276F0F726A6BFF04DCD513A87A62CAD41FB24FCB2858B3952E3D852084DA25B9303C1568
311
7973CC8E8AAE11DF2836C38C6A9E765E8C1BA1BFB1DC29CDFE518C8B5A7655A4ED7E77291ABEB80DBD82EC866ADE1B8D05AF9E35CF09D7A061F38A986D9EC412B8F0F65E5D81534D9B231D1E5A8FE577A241F3A5FD01504B03041400060808002249EE52E336299B9F040000341300003E00000045394646434135312D3243
311
39412D344237452D384246362D4437463232453434324342392F536368656D61732F47656E65726963536368656D612E786D6CD5585B6FE238147EDF5F61E5BD1498E9A895A02398AA5D1E2A5665BAAF96710C78D6B9C87168D95FBFE7F81242134A968E469A4855437C72AEDFB965F4F53551642B7421B3741C0D7AFD8888
311
9467B14CD7E3A834AB8BEBE8EBED1FA3495108B3E01B91B0DBD1F3EC8E6C991A470F22155A72F73CBABC1D4D5921DCD1934863A11F990102A6F61466977B8AC49FB13C174CB3940BE4504A22E3713489B7F82406516225536940BD88E4E552493E8E564C1522225AB0384BD56E1C195DC26FAB13882C2EBD62E1FF9E5B0FCC
311
453132C99548446A1872B62267078F1EF14C3DB1DD1952DDBBB384AD456779F387C51992E0ADCE12FED2622BC5CB1952FC9BDF3295E9206E961AB116DA7ACE45F76F07A26EFC3FD762FD7362FC3C0BAA4DB34C09E682CA5167BADCD16CF94370E331E2F1A3D852008AAD5D64BA2373478338AEB1583B905396D158182655E1
311
B938D07926CF007CC7E85E6709999B0D3827C0BF406BEF55C68CF5579DA32C8C85BE03EFE788787E8FEC95DC85C3E31A615658D81F9A34499612004CE69CAB12531B15A887ACA642C110F8C1A8C1974A85853F407794695C905C688E69B116550ACA946B9B4785FC179E0E229240B62665328E86D5BD2C800CF5D80289F35A
311
C25E3DD51508F4BF9A74A0F5A557BB3D284BC6FF59312E282F956A75C5D453906F48D11A876599E49425602400842995BDF02C4D012E226658F78A710416AC552831FDDEF0E6F0BABEBEA9DC36718CCEF4DAC5A0DF871AECBDD8F448F015F8DA113A473609D1751672B723874B2CAB21ECD6E284E51DCC7D1A47A00F60EC21
311
DC4CC3CDC406DC03760A4E6C772F2F4D561A9AE58C4B03F5B4838701472139EDCB36819A66C472B52AB1139C648956F43E0DAEC067B56B0818F5961D3D446B8F1E1E78C0EAD7EE02AF2895D813E88AC5014A7B436DBB20F778D40A1D9737EFE45B47D49CC8360F9966B15AABAC802C1005548A93EE469F5D55317CD8BF0AA8
311
6CABADB2A009D4D6F60CFE53AE370AFE8C45415B15D362A5A038E766E34B00F8C2E3E7098E2093B1C96349FDAEA158903B4BDAEA665F473FECE72186E3BDDCACCADA31839CD6D4FA7D47DF5469006ED340EBE71DF960DDEE88A3E17557039B58C278A1795BA8079419DA8FC5BA1BAA1A66238BF69C7B2BE4E6274839122B7D
311
00BE8B7D52CF61B2D63216046008C8B330FC10F8907787DEF061F47965BBA02FD8F53BA12F9827614979F53563D0BB1AD67A03DC0E00E2FB2CF3EFB457E70E65A3D7C78E7D700DBB45132AE9BBA5E468CD861408961AD8B00A55C2FCC677F4456039FD9F1907A5B3E2D0EE845FDBA2DAFA88C64195671AD6D282DA2E45B1F5
311
0A0D632B0D0B6718757DCC7C84A70A3656F222CDA6DBF07E204AB358961D1BE31E53A82C2C0D56DBF61A5608B5A252A932A1DC6E32462430853353EA30417C8199A662E946A4EF352268B8CDB9A9C6762515ACE8E09BBC031C608A02C4BA89C9DDC074E46E0E26A17BCBD4ED43270D03E3645ADB81F6D62CC07A3243EB81C0
311
7E01681DDF2DB4730631E6DDA6CBBD048BE9F06AEB3CF06B31DD6C9575E37E9FF17161342C4C76D95519672A6509E0F5C4E71B4B1916440059F57D0921F496237E473A83E3E4E06353BD9D27593594D7B6707C08D22FEBDFBFFE03504B03041400060808002249EE528DFFFC99640100009B03000045000000453946464341
311
35312D324339412D344237452D384246362D4437463232453434324342392F536368656D61732F52656E6465724D6174657269616C536368656D612E786D6CA5535D6BC230147DDFAF08799F5FDB600FADA20EA430D968A7AF12D36B1B481349529DFF7EF9A85A718860DFDA73EFB987734EA3D16FC5D10E946652C4B8DFE9
311
610482CA9C8922C6B5D93CBFE3D1F0291A6B0D26A3255464182D920FB4233CC629881CD49C18508CF000E3EE309A100D61622AAB4A8A33B2483F11CB639C545B0E1508438C3D3C0361192846DB7ACD198DF186700D182920B914FC1063A36AFBEE8FBA03FFD3CC1D1F4FC9E151A2AF59F628C5B7821D83FDFD3489305080F2
311
EE04BF962195FB285E9D2DD352320A9E827AE357594914E42B1F5FE35F83688F60C4C91A6C946ED0668E8F244BC2EB0BA6E3BCCFC0B6A4B507F9F9F8D51EB315D9BA9E08D308E89F96931666E577837E2B4172199C68C4FE306156D47DF51C698C7B9D97FE5BEFE2190C3C38BB054E6E8163FB039CB4B993C80BF18D969203
311
116D6BBD26238B821F9BB909AD6D9C71B85BCD8C33D66FEA3D31B4BC0AD45BEA46BBEDDFEC0F504B03041400060808002249EE52E68DE2D351000000570000004700000045394646434135312D324339412D344237452D384246362D4437463232453434324342392F4173736574446174612F41737365745461626C654F66
311
436F6E74656E74732E62696E536160607036B73033327736D435B23435D235313235D075743134D63531313676763673313633341602AACB4D2C492DCA4CCC492C28484D2C4ACC4B4E050A82012F90744FCD03CA26072767A4E6260200504B03041400060808002249EE52C55C663656000000680000004500000045394646
311
434135312D324339412D344237452D384246362D4437463232453434324342392F4173736574446174612F53747265616D56657273696F6E5461626C652E696E665D8CBD0A80300C06F73E4B29FE6CDD8A2E82A083B8B7F209014925C9FBA3AEAEC7DD2555D896CB85E51C2A1BD834F6A1F56EC4494C4695278364ABB24ABD
311
2146F88CCEBB89D5321FF8F3F43D672A3B44DF3CB6A1710F504B03041400060808002249EE52B16719C436010000A20400003600000045394646434135312D324339412D344237452D384246362D4437463232453434324342392F4173736574446174612F636E782E786D6CCD944F4BC43010C5BF4A09786CD216C53FA459
311
442F7B5270F1E06D369DAE61D3A42453D16F6FB2DB83B2E2690F859C86DF4C5E1E7923579F832D3E3044E35DCB6A5EB1029DF69D71BB964DD49737AC582919BCA71F182B1C0CD8B25C664AEE829FC6B9D4610F93CD556BDC7E2EDEC788B481ADC5A7FEC13B42479115DA428C2D8BFA1D07E03091EF30EE790704BCE601A39F
311
82C63489CC80F3241D10083BA69AAAA9CBEABAAC2F37D5ED5D3E576F526452C9ADF776E64DBA2CF8F1A2A9F4F15EA62A2932A0E414CC4CE5D730F5974ABE354E8A442A19292457E60EFA1A53078CA3351A289927BC26A43241088314475849915DF8E5C523F6C699DCB24ED2807C784E023190C1057AF29FDAF37BB37691C0
311
695CB223A71ACFEFC3CBE117BD1E6379C8CDF2D272AA911BD79F212BE2B04E5274F27651DF504B03041400060808002249EE52D0410281E6000000600100006700000045394646434135312D324339412D344237452D384246362D4437463232453434324342392F5265736F75726365732F43373836323743312D32393532
311
2D343235302D414431332D3434333343433644333631332F7468756D626E61696C2F302F636E782E786D6C4D904D6AC4300C85AF12045D2676C294FEE0782ED15537C57534A919C732B65C3AB7AFDD7A31209078FA107A4F9D7F0E3F7C63CA8EC20AF32461C0606973615FA1F0657C86E1AC5522E23B0C86600E5CA1C9A0D5
311
9EA8C42E6D7831C537D5BB70EDE28E0193B31F31EC30586F725E21DB2F3CCC640AD386F93A6D86CD344F09339564B11E6077603F60131AC60DF4229779944FE37C7A932FAFAD1EDF9568A4569F44BEF32E30268A0F8BB454C750FF914A3440AB925CA79A09D077CF2951975A654ED57F87F8162B6462F4CE1AAE3109B28C3C
311
5608CDA1C43FAC95687E6BFB0BA3F6968DFE05504B03041400060808002249EE52A233C2345D000000800000006500000045394646434135312D324339412D344237452D384246362D4437463232453434324342392F5265736F75726365732F43373836323743312D323935322D343235302D414431332D34343333434336
311
44333631332F7468756D626E61696C2F636E782E786D6C4D8B490E80201004BF42E6EE76F3C0F216234B883063108CCF170C074F95AE5473F5C4C06E932E4F28601967600677D21E9D8092EDB002539227A2FCCB80E1168D80A6417297A89C5D6963B7129A0D1E8F2EE73AA7B62BBEB8B27DE50B504B030414000608080022
311
49EE52BE89762363000000880000005B00000045394646434135312D324339412D344237452D384246362D4437463232453434324342392F5265736F75726365732F43373836323743312D323935322D343235302D414431332D3434333343433644333631332F636E782E786D6C4DCC3B0E80201004D0AB90EDFD75167CCE
311
820A4A845D83603CBE602CAC26799919AEEEE0D965E2E908050C6D0FCCE04C8BC355404EB6198129C92351FAD580A10E464065907C8D948F8F166375F655BDC3FDC3B4E530A176BE7057BDC43B2A593FE403504B03041400060808002249EE522F9929E67D000000A30000003600000045394646434135312D324339412D34
311
4237452D384246362D4437463232453434324342392F5265736F75726365732F636E782E786D6C4D8CDF0A83201C465F457EF76EF9276BA0C6B017896521330D97638F3F1D5DECEA83C3778E1C3E9B476F9B5E2E0605E4D200B2E11167175605F958700F68D032C578FCDD008569B30A2A062DD714F37EA2D92E53F6957A17
311
9E27345D2F686708A6B796624EDB06DF47C230E78C19234626082BC6B52A657EBDB235AFBF504B03041400060808002249EE528EA1C99B09010000550300003400000045394646434135312D324339412D344237452D384246362D4437463232453434324342392F536368656D61732F636E782E786D6CCD933B4F04211485
311
FFCA84C4728099687C84610B0B2B1BB5B243B8BB9205EE8487D17F2FAC14BB899D169B50C0C9979B730E20369FDE0D1F1093C5B09089723240D0686CD82DA4E4ED7843868D1411311F616408CAC3429A4CA4D8452C6B970C6C55714D7536ECBB788FDE6378D6EFE01519B453292D241D8E54958C06D29E1A95159D68848425
311
6AA813B2F5D027E8082A832172E6F334F2EB71BA7CE1B7776D5DBD0AD64829DE105DE76DC81071BD98B9C6BA0DD51017AC015294683BD5521079EC8ED63E04AB841429C7DA4227F3D75A49B5AECE6A956B59EC00FE3052B016F624F2030488569F6BE6137BFF16FA098281F8586F2A5AE5CE35FB6F2EFF56013BFC80FA0CDA
311
8790DF504B03041400060808002249EE52E3603EBE7A000000C20000002C00000045394646434135312D324339412D344237452D384246362D4437463232453434324342392F636E782E786D6C6DCD410EC2201085E1AB90D9DBEACE05D09878023D01A1D34A8419C380F1F82DA68B9AB8FDFEC93C3D7C52546FCC12980C9C
311
BA232824CF63A0D9402DD3E10C6AB03A3397DD192872090D3406ABE7CCF5B5D18893ABB1690CF4DCF02282E5EA8A5BB96FFE536F285CB347F95BEFFE81C9ED5AFF9D5B1FB575BB00504B03041400060808002249EE525C45B3C87F000000A300000007000000636E782E786D6C4D8CD10E822018465F85FDF754324ADD0427
311
04EFE1121D13A191B41E3F685E74F56D67DF395DFFD91C7A9BF8B2C133A84E1740C63FC264FDC220ED336E00F5BC8B21EC7F37407EDC0C838281774B0CE979A0C9CC6372853AEBD703AA566B395C2B4C643B602A6A851BA16FF85E6B4214A5448A361BE7A2E4F9F5F2963CFF02504B03041400060808002249EE52CA1DF9C9
311
A900000073010000130000005B436F6E74656E745F54797065735D2E786D6CA590410EC2300C04BF12E5DEBA70400835E500FC800F84E0B411AD13252E2ABF27A55740421CEDDDD9B55CEFA7A117778CC979527255565220197F75D42A39B22DB652EC9BFAFC089844F65252B2630E3B80643A1C742A7D40CA8AF571D09CC7
311
D842D0E6A65B8475556DC07862242E78CE904D7D44ABC79EC569CAEBA537E3521C16DF5CA5A40EA17746733E0B6615DE7217475F386F18B9481C510F1F021CD9FF027EA0E1F5C4E609504B03041400060808002249EE523DEE336E64000000790000001B0000006175746F6465736B2D64657369676E2D7061636B6167652E
311
786D6C35CBC10E83200C00D05F21DCA56CA76D41FC96062B120735B69A7DBE268BB7777961F8D5AF396893C2ADB70FE7ADA196782C2DF776D7A97B5933C430F15651E5469C55D70F80A4992A3ADC954792C525AE70A1E4D6AD9816CC044FEFDF01FE3FDE907802504B03041400060808002249EE52AF51DF49F90000009601
311
00003700000045394646434135312D324339412D344237452D384246362D4437463232453434324342392F4173736574446174612F636F72652E786D6C8550D16E842010FC15B3EF28785AF5825CEEAAF7057DEA1B01CE923BC10834FDFCC26993F6A909C992D9D9D99DA1A7AFF9917DAAD5696B7A2039864C1961A536530F
311
C1DF500BD989D1D55AFF8B0699E1B3EA21C1C0E8B4DAB0EC90B0C62B935063A5DA41EE9CF2908947FCF4E0C4879A79CE838F0C77CF172EEE7C5239C9371EA32168B98F6A19D5F44DAB1518C143339E870EBDB6A44155870FE8325603EABA976B595FEBF17A6969918619F57AFED92E56C5BD92C04A5C12841B44AA37DC1DD3
311
ABDF6991988C3ABF46CFFBD2E40ED8395D3D70CF69B175FFA88645FEAF1AB4F1877257DD265CF4118F7C36182D524AB13C238C3525CABE01504B03041400060808002249EE52144732AFF40000008E0100006800000045394646434135312D324339412D344237452D384246362D4437463232453434324342392F5265736F
311
75726365732F43373836323743312D323935322D343235302D414431332D3434333343433644333631332F7468756D626E61696C2F302F636F72652E786D6C85505D6F842010FC2B66DF51F0B46A835C7A557F419FFA4690B3E44E307C34FDF985D326ED53139225B333B3BB43CF5FEB3DFB94D629A37B2039864C6A6166A5
311
971E82BFA216B233A3D618FF8B0699E6ABEC21C1C0E8624DD80E4818EDA54EA836B33C40EE9CF490897BFCF4E0C4875C79CE838F0C77CB372E6E7C9139C9771EA321A8F990AA39BAA9AB921618C14333BE0C1D7A6D4983AA0E9FD065AC06D4754F53594FF5385D5A5A2431A35EAD3FD38595DCCB1958894B82708348F586BB
311
E7F4EA775A2426A3CEDB78F331345D070CD36247FFB8856DFEDF2D28ED4FE5E1B62B5CDC3F2EF768305AA474627944176B4A927D03504B03041400060808002249EE52CF9FEE4BFA000000960100006600000045394646434135312D324339412D344237452D384246362D4437463232453434324342392F5265736F757263
311
65732F43373836323743312D323935322D343235302D414431332D3434333343433644333631332F7468756D626E61696C2F636F72652E786D6C85505D6F842010FC2B8677143CADDA20975ED55FD0A7BE51E03C720A868FA63FBF70DAA47D6A42B26476767667C8F96B5DB24F699D32BA07384720939A1BA1F4DC83E0AFB0
311
05D999126B8CFF45039966ABEC41820125B335613B206EB4973AA1DA087980CC39E941C697F8E981E337B9B29C051F19EE9E6F8CDFD92C739CEF3C4A4250E2185522AAA9AB9216508C86667C193AF8DAE206561D3AC1CB580DB0EB9EA6B29EEA71BAB4A448C39478B5FE6CE756322F05A0252A31440DC4D51BEA9ED3ABDF49
311
919894386FA3E763697207A8BF85F54333B59062EFFE510D9BF85F3528ED4FE5A1BA4FB8E8231EF9685052A494627944186B4A947E03504B03041400060808002249EE52A8ADB7D80C010000B10100005C00000045394646434135312D324339412D344237452D384246362D4437463232453434324342392F5265736F7572
311
6365732F43373836323743312D323935322D343235302D414431332D3434333343433644333631332F636F72652E786D6C8550C96EC32014FC158B3B368BD70813255EBEA0A7DE904D5C94182C03553FBF90B8527BAA84F4D030F3861976FE5A1FC9A7DCAD32BA05384520917A32B3D24B0BBCBBC11A2467CE7663DC2F1A48
311
B458650B220C385B76E3B7039A8C765247549B591EA0B0563A904C8F7069819D3EE42A52E15D60D87BBA89E92E1699E2F4C5E3CC7B351F5235876DEAA6E40E38467D355CFA067635AE60DE200AAF43DEC3A62947528CC5305E6B964531674EAD3FEED32E859333E004110C510571FE869A533CC53BCB229333EBF690F9308D
311
E900EFAABA24558721690A0273522078E93185794E69D7953D2D3165D94BF8C7D06FF3FF865E6947C961F852D81031FCFFF9C059160B0CE3D96E98B16CFE0D504B03041400060808002249EE523B0DB814FA000000960100003700000045394646434135312D324339412D344237452D384246362D44374632324534343243
311
42392F5265736F75726365732F636F72652E786D6C8550CB6E833010FC15E4BB01132821328E9A021F50F5D49B656FA89560233FAA7E7EED40A5F654C9D25AB3B3B33B43CF5FCB3DFB04EB94D13D22798932D0C248A5E71E057FC547949D19B5C6F85F349469BE408F128C189DAD09EB0E09A33DE8846A236107B973E05126
311
EEF1D323273E60E1390F3E32DC2D5FB9B8F11972926F3C464350721F5532AAA9AB028B182987767C1E3AFC72242DAEBBF2802F633DE0AE7B9AAA666AC6E972A4451A66D4ABE567BBB0C03D48C4AAB222B86C31A9DFCAEE945EF34E8BC464D4791B3DEF4B933BC45EC1996005385A6CDD3FAA6195FFAB06A5FDA1DA55B70917
311
7DC4231F0D468B94522C8F08634D89B26F504B03041400060808002249EE52191FEF8DF7000000940100003500000045394646434135312D324339412D344237452D384246362D4437463232453434324342392F536368656D61732F636F72652E786D6C85505D6F842010FC2B8677143CAD7A412EBDAA7FA07DEA1B01CE92
311
3BC1F0D1F4E717D426ED53139225B3B3B33B432E5FCB23FB94D629A37B80730432A9B9114ACF3D08FE065B905D28B1C6F85F349069B6C81E241850325B13D603E2467BA913AA8D9007C89C931E64FC113F3D70FC432E2C67C14786BBE72BE37736CB1CE73B8F921094384695886AEAA6A40514A3A1199F870EBEB4B8815587
311
4EF03A5603ECBAA7A9ACA77A9CAE2D29D230255E2D3FDBB995CC4B0168894A0C510371F586BA737AF53B29129312E76DF47C2C4DEE007DDDEE74A4D87B7F34C32AFED70C4AFB537968EE132EBA88276E0D4A8A94512C5B80B1A63CE937504B03041400060808002249EE52107AFDE503010000D80100002D00000045394646
311
434135312D324339412D344237452D384246362D4437463232453434324342392F636F72652E786D6C9591DD6E842010855FC5CC3DFEB05AD70DB259AD3E41AF7A4765D6925DC108367DFC42B5697BD7262490C37706CE0C3BBF4FF7E80D17AB8CAE218B5388500F462A3DD6B0BA2B394274E66C31C6FDC020D262C21A820C
311
9C8D8B59E75D1A8C76A883AA8DC45D14D6A28368B8FB430D7678C549C462759EB0B77816C34D8C1867F1C671E6D4F4651D16140E25709AD28CA425C9F2A7B43A85553CB324909CAD4ABB03DD1FC3E905656466E723012F0E2CD9AE3DB62AB9434AFA4FAAABC2057857F57D7B293242DBEA42F2A6ECC8B1E91FC863D953DAE5
311
396D9BCA17F166CEAC5B7C6BF622A1097FB56FC65FD1D659FE33DAE6B0C0B3EF5049E83367C9E710FC1E66C23F00504B03041400060808002249EE52281E2AE007010000B201000008000000636F72652E786D6C8D50D16E842010FC15C23B0A9ED6F3825C7A55BFA04F7DA3C059720A06F0D2FE7DE1B449FBD68464C9CCEC
311
CEECD2F3E73C81BB725E5BD3429261089411566A33B6700D577484E0CCA8B336FC924160F8AC5A9860C8E8E8ECBAEC90B02628935063A5DA41EEBD0A1088297E5AE8C5879A79C6D71015FE962D5CDCF8A832926D3A46839E7F5A85533C280959810B82708D48F98A9B537AD51BCD9392D175D572B7D232BAEBAB560E3282BB
311
BA7FEE1AF47224352A1B7C4097BEEC50D33C0D453554FD7039D23C3533EA838B3BEF4362CE003CBF275F9A6F14A3EFD64EBB208692C09AE90B324CF344FC09BD2EF21FA1B50987621FB875F89839067A10D1385D3096C779634DD766DF504B010214001400060808002249EE528CA2DDAA35010000A80100004F0000000000
311
00000000000000000000000045394646434135312D324339412D344237452D384246362D4437463232453434324342392F4173736574446174612F446566696E6974696F6E4974657261746F7250726F706572746965732E62696E504B010214001400060808002249EE52F6B7F04515010000300200004500000000000000
311
000000000000A201000045394646434135312D324339412D344237452D384246362D4437463232453434324342392F4173736574446174612F496E7374616E636550726F706572746965732E62696E504B010214001400060808002249EE5288E57597CD3F0000904100006B000000000000000000000000001A0300004539
311
4646434135312D324339412D344237452D384246362D4437463232453434324342392F5265736F75726365732F43373836323743312D323935322D343235302D414431332D3434333343433644333631332F7468756D626E61696C2F302F67656E657269635F706E67504B010214001400060808002249EE5228BB58AF8001
311
00009E0500003D000000000000000000000000007043000045394646434135312D324339412D344237452D384246362D4437463232453434324342392F536368656D61732F436F6D6D6F6E536368656D612E786D6C504B010214001400060808002249EE52E336299B9F040000341300003E00000000000000000000000000
311
4B45000045394646434135312D324339412D344237452D384246362D4437463232453434324342392F536368656D61732F47656E65726963536368656D612E786D6C504B010214001400060808002249EE528DFFFC99640100009B0300004500000000000000000000000000464A000045394646434135312D324339412D34
311
4237452D384246362D4437463232453434324342392F536368656D61732F52656E6465724D6174657269616C536368656D612E786D6C504B010214001400060808002249EE52E68DE2D3510000005700000047000000000000000000000000000D4C000045394646434135312D324339412D344237452D384246362D443746
311
3232453434324342392F4173736574446174612F41737365745461626C654F66436F6E74656E74732E62696E504B010214001400060808002249EE52C55C663656000000680000004500000000000000000000000000C34C000045394646434135312D324339412D344237452D384246362D4437463232453434324342392F
311
4173736574446174612F53747265616D56657273696F6E5461626C652E696E66504B010214001400060808002249EE52B16719C436010000A204000036000000000000000000000000007C4D000045394646434135312D324339412D344237452D384246362D4437463232453434324342392F4173736574446174612F636E
311
782E786D6C504B010214001400060808002249EE52D0410281E6000000600100006700000000000000000000000000064F000045394646434135312D324339412D344237452D384246362D4437463232453434324342392F5265736F75726365732F43373836323743312D323935322D343235302D414431332D3434333343
311
433644333631332F7468756D626E61696C2F302F636E782E786D6C504B010214001400060808002249EE52A233C2345D0000008000000065000000000000000000000000007150000045394646434135312D324339412D344237452D384246362D4437463232453434324342392F5265736F75726365732F43373836323743
311
312D323935322D343235302D414431332D3434333343433644333631332F7468756D626E61696C2F636E782E786D6C504B010214001400060808002249EE52BE89762363000000880000005B000000000000000000000000005151000045394646434135312D324339412D344237452D384246362D44374632324534343243
311
42392F5265736F75726365732F43373836323743312D323935322D343235302D414431332D3434333343433644333631332F636E782E786D6C504B010214001400060808002249EE522F9929E67D000000A300000036000000000000000000000000002D52000045394646434135312D324339412D344237452D384246362D
311
4437463232453434324342392F5265736F75726365732F636E782E786D6C504B010214001400060808002249EE528EA1C99B09010000550300003400000000000000000000000000FE52000045394646434135312D324339412D344237452D384246362D4437463232453434324342392F536368656D61732F636E782E786D
311
6C504B010214001400060808002249EE52E3603EBE7A000000C20000002C000000000000000000000000005954000045394646434135312D324339412D344237452D384246362D4437463232453434324342392F636E782E786D6C504B010214001400060808002249EE525C45B3C87F000000A30000000700000000000000
311
0000000000001D550000636E782E786D6C504B010214001400060808002249EE52CA1DF9C9A9000000730100001300000000000000000000000000C15500005B436F6E74656E745F54797065735D2E786D6C504B010214001400060808002249EE523DEE336E64000000790000001B000000000000000000000000009B5600
311
006175746F6465736B2D64657369676E2D7061636B6167652E786D6C504B010214001400060808002249EE52AF51DF49F90000009601000037000000000000000000000000003857000045394646434135312D324339412D344237452D384246362D4437463232453434324342392F4173736574446174612F636F72652E78
311
6D6C504B010214001400060808002249EE52144732AFF40000008E01000068000000000000000000000000008658000045394646434135312D324339412D344237452D384246362D4437463232453434324342392F5265736F75726365732F43373836323743312D323935322D343235302D414431332D3434333343433644
311
333631332F7468756D626E61696C2F302F636F72652E786D6C504B010214001400060808002249EE52CF9FEE4BFA000000960100006600000000000000000000000000005A000045394646434135312D324339412D344237452D384246362D4437463232453434324342392F5265736F75726365732F43373836323743312D
311
323935322D343235302D414431332D3434333343433644333631332F7468756D626E61696C2F636F72652E786D6C504B010214001400060808002249EE52A8ADB7D80C010000B10100005C000000000000000000000000007E5B000045394646434135312D324339412D344237452D384246362D4437463232453434324342
311
392F5265736F75726365732F43373836323743312D323935322D343235302D414431332D3434333343433644333631332F636F72652E786D6C504B010214001400060808002249EE523B0DB814FA000000960100003700000000000000000000000000045D000045394646434135312D324339412D344237452D384246362D
311
4437463232453434324342392F5265736F75726365732F636F72652E786D6C504B010214001400060808002249EE52191FEF8DF7000000940100003500000000000000000000000000535E000045394646434135312D324339412D344237452D384246362D4437463232453434324342392F536368656D61732F636F72652E
311
786D6C504B010214001400060808002249EE52107AFDE503010000D80100002D000000000000000000000000009D5F000045394646434135312D324339412D344237452D384246362D4437463232453434324342392F636F72652E786D6C504B010214001400060808002249EE52281E2AE007010000B20100000800000000
311
000000000000000000EB600000636F72652E786D6C504B0506000000001A001A00210B0000186200000000
310
504B03041400060808002249EE52000000000000000000000000370000006662782F37393734364338322D443732332D343845322D393730462D3733424132303635393837312F617474726962757465732E62696E504B03041400060808002249EE52000000000000000000000000350000006662782F3739373436433832
310
2D443732332D343845322D393730462D3733424132303635393837312F76657274696365732E62696E504B03041400060808002249EE52F270F1330600000004000000360000006662782F37393734364338322D443732332D343845322D393730462D3733424132303635393837312F747269616E676C65732E62696E6366
310
60600000504B03041400060808002249EE5288E57597CD3F000090410000420000006662782F37393734364338322D443732332D343845322D393730462D3733424132303635393837312F7265736F75726365732F322F305F67656E657269632E706E67355B773CD4FF1FBF73E71C0E67EF7576C9DEF3EC995D46C6A1EC50
310
46649CBDF79E192942562825CE965D8A868C2842C8DE9FDFD1F7E7F138F7078FCF6B3F5FCFD7EBFDFEC41B196891913091804020321D6D7513FC77D8C5070EC3FFEE51B21F068154CC75D455CC028A3EA68992803810109FDDE5D5CEC5521B28A1B422BF80741695D5B529DA1C2D058AD2388BDA9F476F7C2CADC939304173
310
DBF48A452BF8A700C0C70C3D121C1AA15A5270C22E2B9E28763651F7DA0D12CE11077B2ECD0D560B5E3DE2368B1E65C5E1C87384A4CC5F2D9FB8BE39E9B77C753783A37998F5CEF1B4FEE553463245C9712270880DF339E0B882A6BA713D865F6F384C842D440934EF264F4A304F8DE4EEFA1E2BF5E2D91F5ADD9613D6E31D
310
DB33ED31DB1D7916CAF091286EA3D31B9CFECB78BB0060245B943C4C040119FF780A74DD308BA9D028678674EB5504ECF284EE814DAED07440BAF649BE4B55DA2890F4D73E2D489A59EE54FDB0A85B59F2F52C4858A02705C4815A792B0C4A996A2023ECB195073E115E3E3647F64243A8338F2000BCB58DA5692C7E7C3D41
310
3F963FEDF3CF00FBB0F831A9D51360FECA43819F527B89FA260EB63C5DA676830AA3626A3693B23F1A17A0DFFCE3EE164E31B5365EDF0C89EF64D8E38AB0BA9A1117D7C3A0EC44F44F4023095E80BA610DE336D0F99593A88BFC5306E72DF98F7FD132ED95878DF2964EA7E43071359FD83B2BDF9C6B5BDF768F0F3C0FC351
310
199526F53D9460A34511F75D1B63E488178569472C91A94497807A3FD4A390C6558F26D416365C3656DE6E769DA9D8FC73774E1709812842DD8EF96AED1960F79D21B395CDDFE6F92CB4EB962A4668C76990E2EF29798C8941D67DA50F4A5F947872460F1F6FDB794E8A29FD7AC0C0D6E0714339CE258FB17AE8535221E346
310
4A10F29A0BE5EEECEFC5675926A89F49EB14E5711894F6586DB5754EB4D5DA9C6437EBA57DB97A24F8B8A8DB295FFD73266CF57E82694DF5166DDF93573AFE9C9C5EB05F8FEF8E89E0A8917B0B3724DB7BEBB53252581EFC3E38166BA131A3A5B42FE2AD00A769BBFA4458D2DE7822F8C4F63D0B8E21B285AE13325F3410A4
310
35C648C9D91FDEB109E73CEDA7BC796961AF79175E1A3CE4C5E8B0D009B0C9E29EFD98BC8E97554E3D8D838424E270F7685226E5AC268E021EDE3522D583E8F20C0BDE2959EF5BBFEEDAB32FE9A3ED0E39F211A86AA9DEBFC68182EDED132AB8BB794442D2D7EA9F4D8BFF52BC4D55BB165124EE90A42D101E67BBBB292FFB
310
4F66DE5BF2300E44546757DA7CEF8932BFC9F92A0707953491A55C5A5ACEDABD9FA1AEA01BAC3DC5A24E22E7C47213493996EFBC369D086ED9397C9BA6C7F9855C7BD5E15BFC8C53DB3D2A4C5901A57ACD2FBDF4D1676E95338B2C2BCE65FDA4C64F5FEFDC7D9CA5AA1FCF11E193F2FDABF0F4916BF13FB916A224380E6462
310
A9815F2300DC49CC4DF8D055CEF76462F4B7A7ACA7365C2707891370BC1D0AA6203C44CCAB47084FEC057F27FFCD57F89B8B9852459798A675C66BD7CE572CAF71FF7E6D7ECF7BF62CAB7B3F1107DCD04DC55A3F9961700286141C94A4F771FEB2BCDA2DDEE0CB0BAE402FF1DB0100F8E475DFFFC074DDB4498AB7D186A765
310
4DDB1CB680D703D47CEB4E72F8CB13D86A4AA68116E26387B93FD6738779B34FEDB8E517EDF2BAF28D9BE93A1D3A164320E07D42E514725C29515FF361754213EDE06B079A2E99EB1CA82A02019EADEEB87B9AF005BD04BBCECB14AACD6B24EFBE482194A97DD32400685FF1FEF1544D1B14EFB1E7F08E6D2CD2AF52DE757F
310
35F5E62332EE88EA26417AD5C3E0E319D68F25414E6D672BD4522B278C57D18F0113921C71D96527E091F00CEB15AE23D24667369BD3CEFA10C7549D930890BA4366F4EBC55F01F746109F98ABCDD5A3EE06619C6AD78AB33E48E4C9BD21BF7478B385EC05C4F8987E2C1BFA0A60EBEDAA0AE0B015C2720ECE180FB6F2DEFB
310
EB822D96338C9B63822183BBF52FB664A7AE57003AABCE512BF77E7E31BDA2E739AC4C131657DDFE5225E900FB56CC01CDE808FA4A9C9DA16AC679656BB64796283D89812B8F91136AE18EE5EBBAF47A73BE3C153EB5D4CD491B4BFB4FE690A4CF9ABA08C0D8AA64220C438C96EA6CA80B58FE5761E697B3A292EB9FBDA502
310
FA863E49FE694ADDFFF9D62C520BDD1A22014147A0903A05B9B729F54272EF83931FEEC057BFF8C8055C279EAC5C0011804828734024F6CFA319C9CC6867C727184465CD9BB7ED386AFFD96B294A85E3802FAE47244602D8273615952B98C4F23F7EAE4463D9D638EEE374A20959E0FE519C4CFB0FBFE5DD80C2AA3F9DB961
310
D1BDE57E67C9BB47B77FDD74EE3094F5DBBE3EBC1FBDB7393F5116263009E2EFE1AF9A221B2AE234C902BF70E9F280ED23E73908361565964333A3F01D0B006AF32FB21AA1316744B489D5A198E85299241735BE559675130955C902A8ED761FC0DBE337A9F91919AF5CE32AF902ADF9AB2615E00E8A94586BA1A90839B618
310
32FF1BFB76D2EFADE6DB1BA04CCAD3DA649E7E2A0219F592E22F2AD54847EEA8E42271011E9074F8F3DD9FBA6CDF88FFC9FC7E811AD1CA8F4557CE4AFC7BBEDCF0114A48689F20A584520C74DA8127124B767E2FB91A6B186246727BE63C9445BAE02088D58B8EFDC0F1072407CD9B89A13F6303B4A928F593AD489B58E686
310
9325790ADC406036C591729FE14021F94B7796BB11848D463536A092A26F077F94639F7CEEE2A724C66EC885F4A24F8B8A0AC321F8FD149BA529460FAA34E4663C02D41FDF80BCA222D42F0ABFF8490F4FA74C673807C2051D8E467B47B616072860069A9A303ABA9B319D58404461401B0A0F9BE5E1E151C14BC33B32ABE0
310
3DDE91708DFAEB15E7C0D593C86BB7D7EC17BE56E57975F077BFD5525F3A1A361D584A75E08CF29FC7B44B2B3085014F3A5A14517377C3F6B8F37E59514C3B12F8AACDEDDA4DFC49BE5710101534CD6FB6DE15B50F11A09472AABA727F0C49D9CB906B158030065F48EB3625E010CEC1D511D0053474B11E6A4F01C0D6EF1B
310
ED3A944FDEC70E0DDCDC756C86545910E0DAE3BE3AA9A404574C2995CD5CAF9549226BC94B4F4F0F5F9086F418F6B32346464610D8BC7391D3C3A3CCF04CFC1FB2A3A3170E369511868F14EEA4E5E438CC73DB1F3248AA94B6B2FF33B222FF3D1E7BF146CAD229770158063BCE4F5391964DF62F7E52A7BE0EEA829C9E13C4
310
C147D6F93FE59E111DAB5E4594D6F3CD1AD375EE039930EFE5AF2BB2D41C83C7DABD8C659BAFBE8FAB392CA634F3D15C1D945DB4588D2B0824A4EC928AAC565557CA2F0DAA588CA5BE30B3A8004F7BF005E96CBF891D7F18112A3619FDF530DC8AA64954258E1811789B5189B49B4EB53F5F89F7D37523894F3EB57B373763
310
C91E502F52CC99EB7BDDF933FC324C4FFC2561DFFA7339FAFDD0A4BFBE6D3A8FF9ED1FC49898139864602458968913181918F719CCF5A68B2EE9C1FF050E34E63107003B8120FA982C21B30A874E4F5E4B38D5A8290C4B8D9BE48A0BE31EA995BDC37AC6DE90BA17D259DEF53605D55922FEB1855D915B659FBEB350EE0DFB
310
2F9F766E1C84CC8964B75D08667445EAB966015F63A18A9E0A325C1B3DC628C0D3CB60F767FA93CC65F25458BD23C3B312716E5F40E5858AC06EBA9AB14F95DB99147B832069201541D09A0D856E12C629CF32683760EE855537D1901988D5EBC156676C7DD51D7207CF3267AF1D76C2AD867315E44618015313A98B19941C
310
696FED3461CAA9B5415F918556D7802EDACEFD6B2E45853A9735DFC9DBF7E440F9319F8B6805A973BCCDC76C069A9144E51F187EDCC12FC31B5DEAAF0A76137199B106EC84ADA6B6EE697D4E6A96E007417F4E880E8B1E89B4BCE9D81EF611E2ED8F0C1A6C25F620FAFAAB656A7C42D464880E8AFAB0E0FC8EA38CA9A8AEEA
310
EE3E4648BA4680270A89743CDD3E6C6CBF34B7B640EFA285ABC7EA0A1E28F3CC963D114A80123EE66D0AF7D5380EB41909B605AB4765B709B808590458157E69BA1378FEC4B48CAF6A730E3BE3C5EF2DD1A5EAF94B1DDE50CEB55DDFD7EE9A16747FA4B223359FB1FCC69E1194892BABB93A1D5C4E807AC0EA2E30180811E7
310
7A2291F6E7F7FAA5E0F60215BC6024E48DE436C511F0628B8CA189982D4D83CCA17D305A7E923C37941CFDFDCD93ACAF735EF5F0E61BBD3E6C41A59B242790D3A3BAC7064DCD89AA2E37214EC839820949D5CAA31E240D2948E48F690298974A96BA9A8432BC90F5071D6537C9666EA4564796B7AFFFA548077BEEA75F6308
310
3435074BA182F3699557397F71548383FDA8CA34D99B981E72835ECDA5DDDC151315173D05A21F651AAF8524E88209E2E7A737ED1045800CE3390050BCFB8BE588DF111617874C62575039CA588EEFDEFEFE319B739DE2EDC147092A262611E159650E787917885EF08F1F51B8F2D8A71D60B58B190FEF9541A1BE94BC19FE
310
A50784DA1419FE4B0FB51B8D36B5FF8E1286FD8AF42B91E59A5F1CC4D60174E764045FD8C57B18209B217F89A62252BD20BE0E63E12B8E8F029FE19E0E8D0870F58721A557082250D5424F7909369376E41666C0EE77CD87CB283F661D5FB6D0DA023CB67320A20DC7BE661E9E1BFE5463085C557DA1FF9BE835733766C3D1
310
39F2CF9E2208873AD0EB4814DE9E6BF2CAF81614D4D43906ED1C05A3265CABBFE192770FC2F64F940CB6B17B5F166F133C9AEEAD2641807C3E69515171DD74C4A85311513D6EC9530B3B601B6BA3EBFF3B5C3D2F7D69765141E345F75433953D013ADDF8F6AA7DC3F4A7563FE5C7D367937E2900D7EAD0F9FC9A4A1A9B5BDF
310
1FEF08532660C01C5D6DE22199AA774383E306DAB87E301ABB7D213887F9869D4942D0D71E94B27EDF216A318BD488D45DF84529EF575AF3C3938C0AAA0215B01994153E2054A0B894DA5C784980633AAD48576957CF4AEAEAFADC7C587368551C73DBE1E57C58AC713303A8BFC258BD04B51724459FF9E24C03A81E0E0679
310
CEB9B348C0DC998FEB9C6D6EFA77D247CC8F92D3848599ED89A23218D0636465AD1CEEB7DC140D7426F83491C4E8E8281C2FB35240918FFECE880CA2A42D70E8B20B34DF5221C7DB0CF90ECCB9C745B37A47E9B716FF7A97B7A252C1F3814DC7B1E1A7F72B8751D524EF7CAE45B0C73B3BE7D08ED39781B380DDFC9AA4A474
310
9C9493DB5BAD07A6EA6C092FBD0E85DB004DF06B8C9D3089C5320187E4CE1846158C7EA7DDAE8AD9AFFF21AA3A1026BB06A259845E8232DEE62811A4DA9CEAB3A4887320B76E2AE5615EAB7BDF738CBDD01F1E64064BC13D9EC53576751CA8CACD58B3CEB0E6CA585BD089B2A59B9FC101403387AADBDBE70586B93D64BF3A
310
D4453EF9C3B6A93817E8346991798601344F79A83C51F3D50F7BF2683A3605F51A72449489E0EE6169C749C60B1035651103AEE24D24E51A759C840DD3FC6504DA6FE107510E447B43461C79D22970B75DE5E1BD3007D1AFC619A4A4A69B5626AF5E9B8374E20677F77E2F8E73DF868E8BEC7EBA7B6A75EEF7205E1AB9486C
310
B642741D6E03FF13FCCEDB1C4AC129886268B01CDF4B124AF797CF784F3C6DEC97A17D4B558070A0F1C04DA4FF9BDBF34159AEFE958479824B3F58EBD1E19088A2AFDE501B6F2052368A3FD0E650A179EFAB1561E1D27527077136E652676C3670F42DCB3352F48F6BC86D2C3B0051727E41A0A4DC6CE2BE9D47F5CAA2935A
310
3C0539AF080665997194ABECD723B08129CC5B6B21D2E7D54CD4D12610E7E9FB8306771A89576C7A982002775ED44F3F744CF21EEBB27A631671D921938AAEE3EB0D19CD1E083727F607823E817BF599DCED5394E37EEBC2E88782E638920CA641EF74D4CDFCDEF06F4278ECB18E31E7E9876F2D783C8BF429C75395F57E98
310
C2B495A3DA077EB3AC3C158608B6B57FE3EA48484D9A480096FCEE0DE880950E7E5A5714131C5C41AAA29FD19AE81AC145FA1B9E85C7169A5AB837B213493DF7E9AA4B5FBF9CDEB36EBD21EF1181B7CF7366AB2A951D01E37AF4EB835D1BE8C117CFBE7625D2EBCDB0B20C5A4B45CED0BCDE3EE8DA9DA78C2E21DEAAFFD119
310
7E463C33CC6A80FB785669B856EFF7A8CCCA2841B5A5369173320B1170C368B2748D81062EA0296E5E2D95D7667A4A46D98A6FF475C76AAB0A8C8D45E226FAFC9FE0133EA9F60111F99CA81ACE03A1D14C89E8B0D69079C91464FA1D99E651D0EAF606F345C42A8A1AA9BA391031582B96D5B4176A77AADB01F12FD298A75D
310
EEBB2C82F0B8650E880722F8DDD90C56A7A058E5FDEF1AC93545BA27367C76F5D8F9690CB6F8DAE141EDD7971F0FB548A2AE435F224D6E5954CA155512F7332029D5A1230854B79F258EC5FFDB09F5F6343A8EB193229B7F7E79B3E48F8E183860B38C8269D1B53738FF1E0BACF6AADA6D4869E9DE708E79B5DADCC09B1BC7
310
6F649731CFAF59A83FD8BAE4C749D66FA87A3810D4D62FFE826FA400C0F325D2BC0F3CA35F5847B82A2ACC7961745C823E4D863D54460AF792CE6F79B5C7A33B25C3AEA6CDE15A919B6367D781E9D44F61BF828672594A3E1D9EDD6DF179A81F27EAC05B936575D73E05C209DDD2115CFB705DF9BBF3C911589B3640735E9E
310
618FC9C36A7326C82B2205E244C55D56FDB9D5DC93CE958D4BF8174D2B3DA54CB3C09F2C2A6DFF73D23B2197355761AD421EC581284A7EF8DE2CE3497C0C804D49B41DFD6A7360844E5BEFFB495CFCDB97A4595911CDBA623274CE852B5E278AF0BEB1770E9D37CD977B2766A7DED0E94B840E1E95E8C77DE5CB6354AF7871
310
427C28ADBEEF7BA0A28E19DE9ACD75F379FE373EAE6DDDAE3834692F9C2B03B4FCA8FCA9ABE8EEEBEBB725B88A7C90941E850682CA04061A7DF0CE82ED49BFAFFD42C309818FAE14755CAAE78B0F73243ECCCAD7DF58FCB9CDFAE7A4D3E6671A613639130D056C8383C8F4FCF4808C331E544DD26E4755D09EA05253B3049A
310
1E32587CC25D72E073E2CD96D04A71BBCB0038FEC3F53D254199C3CDC67CD66640269431860225392B2CB3ECD0B4498AAE78BA1994246AE1EE78F2EDFB79F6C6CB6B5E279C4D373FBC21CB2698C9ACBBEB6A4BB6B39E16AB0E421CCBFC7654D81ED86022F9BB522146F9F4772E2D0E4FA70120C95A85A417BF5078B232F475
310
4363EB1750B2AC2148EB46B1EA72AD9B4D23ADCBC589D70106C3EC2ABEEED84DFE28E718C6C83502C28E9FDD3B09DA0A6F6F7B72B706A31C9E2A331EE70DA56A083D2177BFD63C55B11D8D949FAFCF90B23A1E24B9B5018B9A17E99F2890EC302F330FE7936E2C23F0D237EC8916F5166AB84B62A21BB0B950146962D754F9
310
2CC2C8877BED8FC7B7B25726DD19545392570B3A2C66B58F027BEF412E552D12A588C4A3CC5C3193FCB3485EFFF700D0B9EEC077754A33DC1FB9E25AF814628F91DDFECB667D3F7690803F38D13F8AE39353523BB08FC6760144AFA2CE28236F65EDBB3D5F59A57D612B99E3D7E5F8A851666BF9B5A6658EFC96EEB37A378A
310
BB0EB3FDDF1303AF32C41BD1C8560745D7BD81066B0D6313359CF488563D3BA3F8E2185D1FAA3EBA1397C9D0E3DD232180A4DCADB6AF25DB3AC3CC26589C8239E66E81547BC7E2F328F9884764CA37EB5DBE390DFC03A5246B456A7C3684C4377D0EEF9A350680FA9A077E8B2957B489E09AB1AD41316944C2254B5984830F
310
691C93CAA767EECF976FA5647538830B5E63236A6F0365C1E0F3E327F24FE35EDDBD7360B0F7374837409F7A6311BECC12B7026D4FA1AE204FA3F5FE904B1F420C7A9044AE58E403E7C4848E7DA25DC9EDAC79DD756FAA26B9EA83ACE8A214A2612A22AFA19DAE7DBAC5F8CDE1292A485F98DAC731A29FE01A3966E96BCB9F
310
B5A4C8830E1B9AF0C54B87FBE221A097036E5D28D1F869F810C06A9BB0AC0612F69AEBAF893C6E7AD59460208BAB3A6B09CA4F6BDDAB8CF0D1F84B72487498395A70DCD754796E271099A567A55CF242BBED64696378BB6CF25EF0FCDB589F3A82F1116D010A9AB9FA4358809EE0C973A2B4229BAA876A70B03AB49CBA7FBE
310
71DB1832FFD32F9BF2C8E98075CACAFB36921235D0F552B6A67E94E094097A5D7DF681B40623DA535ADA7A9AD8E9A62407D7C9A5AE51D62A17A83A23728DE86BB56115804D3F2675F2C6B87541A0FC497BF0CA86420F558C9859EBE9FAD62747E323E3AADC03FDCDDFE7407B09DA90B44E3185723C5381EAEF589765E2F7A0
310
99BA46695BAD60CEF3491B8A171F5F56444F7CE9455312C3498C74173AEA0214EC029833B34B650CBB5A5508D5091665309642791708ECF27CF11DB3D797D6CFE474453BD4BFADB768094B2147814D81C7CBAF8228DCAF5564B5891F5EF6A860EB2E323CB82AB868D8EA048880D63B0DE5341F1B3D53297B928A11E15F25E5
310
148990F710747C3509ED14909C552EBE3973246FCE55D00564D8310BC3EBC5085D08D806799B77D6C57FDF5E55837F9E934F09C03C729271B64F12D0A9F9E938107CAF7BF1EC8CF1BB9B42363D33070F4CACB425E605DDB0A34A12BB936DE286B9887A4E2E558F0886498BFF49C311D96C277CF6A9FC0D75AD0ECC5226D7E0
310
E3572012E56D7FDE4410CEC7A6D0F997F225A2055B8B92E3956E875AE4993CB3D4C9063AF98FD45E1BAB165640A43439A2C9181A7C355B297C0A0CCFFAE19B6FA3C2BA238A885FBC98B8F6DAF4B94B97304878DF4D8BFF6A4AEDF79E90ED4E68F00CD7299F4E0D83E35601AF0CBEF18C1E870E74758FA91F5131075004DB3C
310
FCF09AE1DABC11957FD9808C92E8A678CE9DBE40DDA0E0D1D505AAFBCBA208232BFB6FB3704E8985E61ADE53DE74152F5C7DE74B1DEDCD37DC3E8FB30D7EBA8B9EFFC3606BF90B8D438279CB7709FC7C00D327F41817EEA71CD9E49FE9C8C9A81C70915D9F0F15958EC5AA4C3BBFAF46986B90F188BDB24B89DE3C6F29EC3E
310
6F66D84856EE96A35E657CA41B41EFD8DBFA16AD6E91439EA92B40B21C053249F51AE50EB0B24C770FFAF40DF12C8436366819C48E36547D4E7B72FE2BBF10828583057814A668BDF183F6B2E58DFB151103E56303E63D00F39C27C4661605DB644D19175D02E3F0241E8FC3458D17AAAADB117CE9EEA690D0DB01E634878C
310
04C2C9310B69FCAB831151E3AD293BEF6E46B0ABCECB50F5939B39C613D41E81FAE8D34CAE3C4566B761D37185FE864AC32FCB71AEF39DAA5BAB88609BB980CD2F07A8F941653B529567726E2B2A58D079DD57E1E5E31426CF184A04D7B03B985F276D47406AF276FE32E3328BA866EB1FD39BEF57863A317634AA5FE46740
310
9B3873F5069EF0D71AF00AD189D17BA1974ECDB2D623E9E14086386A6AAB5807825C37B015BFE892AFD154920EC437EB945D958E18622E1E0FE2FA06557CE4BB9BBD05A2D40E774DA2B65473791E314B7D6C886820B2FCFE4AA272B3B8B15E7344A145E8AF919B5454D89D36D413E87211186BF6F645E5EC94DCCE8E1C7990
310
22E4EC9BC86D7A0F2AFB1FC4B2CE48F84B3F49ECE65BAD24CADCC07EFF39AB06BE9E6B27A059938EA7208838455383DDBCFCD967DDE4650EF92A14FF933C975DB20BD7FEEBC4487576485963D757D16340D9599FEB362F775F38CA4185A86F74B629C81B133644A3B18FD056E997E0734F9BE26D11C0AAFC669E2AC9FC41D2
310
81F8B2E1C35AE27BCE05F3DA295488096688719D974DF1B5D182DB7792288697F8763CFB43562C1CDEE11C4AABD5C22B6E33F6F389CFC3477C5919DC0D533F8A7A1846B7ADB60ABDC26C43D0CFC8910B7C15EE22675BD02702ED39DB77A87A192CA7A543E6205B979B9F5A6B512A3CA799E198B2D5797C0AF8D1D872CA455D
310
4D431A7879D4DD76110B5FF7F4176B54477A9EB5E4A5D11214FDA585F0382751D8E2582BA5D2075053298FEB8F1537304E32CB22C2E2B693DC0A760B1DFCA751BDC445AFDCBB12820ED85F6D5298933C7EF1211E9E057684056CDA3FEF3BB6052355E162DF27C59E965A8DDB7F9437EB72CDDA3A090DE65A5B2F50326247B7
310
EC67B73ACC7047FC9B353D6EE990F772207C6EC52B39DC2F3C0754821DAB559F7C1809C7D0DD5B0499D0442E0A6E391B3D5DB46D11E731E6794EC77523FBDAA242ED67F9FA1FB684255671F63C9BCFE6E7E896D51001A6113EF2298BA494E0B0980D1FA5B9D60796554C02256B1E0345FB7C6186B6A19D2DCA270416262845
310
FA4F42DB5D9B0A0B6F07FCA2E56C242522E001E0CEB734AF310FC8BFB57E38E03AACE93B3326A2197891E68452B26A6307FDABFEE0223D3C03C3C73D2D5BC054C8311F12004CAE488E5C29287F8156A2CAA4AD0D7BE6B97264E4139F437CE73ADF52E5134C52B819777C18B323A5924E4F67AFD13B1CDC3A61793A79FAF5C0
310
CEB718E441071E797C6DCCB9EFCF7E4A1E9F3DF3C2F9C9E8294E9586868788C972857FB0556D7A26941A7EEB9B580AD78EC40B85DC906B4120A563CA3B87797ED612D3B035962BB75F6515A393F4CB057F564CDF54F2E5A024514E6A1F901DB80C7E70B1FC05E356A7E72FABF4775B3E3FB8F70A2A8E7B6A94542BB3041579
310
78CCC999E707A29CC795E67A59CC546A5D47B368954CA7B6E75EC9E1F6FC73CE3B4F71F8CB1A6B15923D61EAAEB14626AAA9D04A26EB9C66CD1BE86CA31A5D8703DE04CD1EBCE4F5CCB62F93909AD11E55799A781A956ED27D3E738F4538CB04ADABC7DAEF20BC35BA6A90BCC1DC61BA05F20D8832FFB9BC9B15E2DB838A0A
310
FBB7E0C82A562127E0446894F427794C3037186F622BF24DE1B00AA10A23BFA47B2A180D6DA5AD6F7326FEB8C100C2D7142EB2A0B2A9D1008A09BA343D70E054AB69E2A7EDB783CBD92537FAF4A44D1296AC2792729104B3276C276C951D0CF3CF3F1E6B017720A7B8505A5FF9589365979678C36F1BAF759EAF57C60F1FF5
310
FE9DCF5F8E764FF25A2D06CF25117A8FED51884C13B2B750DB0E4F5E3D64124FCF11F0AD8F1CC3B3DA4B38ED22BF1CB2585EE6BFEBBA63FBFD44F9537B9B37BDD6B358720F98A8125AED4349CCFEB0E135F19E208A04CA7E2B10711185D72E381F448036EF57C9F874E54A971CA37A639E986AC0226DC5AA00D5B14FEA9192
310
234B3DE617814FC221C92F33F1D392F297731B567FD98FD91D989379AF567A65B8ADF177591DB90FBEA99BF4ED11B16E50A0AB1DBF1156D034BBE04D69D08F939D8E92BF525A1DDAFF80ECBC95D8F45D3FDD289FD23F7D8B452F8EBB34EC082DEEE68E18EDDF072060FAD2AB1504DD4879BF67099FC58F6E9DEFBF645D1633
310
4A3E9A127C6F1AF6132CF287E433B43A0EE93812B4AA0B194E03EE3FF91EF9C6ED0074A2F6EB18A96A7C9890B1FCDA1F2095E944DB911ED54C60DF16FB74C8CE9BDC7C54C4F14078CF73C2FFF1F1BBCCD7CF64F71407EA1683DBC410D226627F66E509060D5C0AFD611DE681D509DB8DD12FB1265B03C6F5C55FF4C30BD941
310
87FF692B4F152982502F193098A789526A038AB529A52BC0DC4FB6285CBAC10A8B8DB75DCD9BDABBB221E27D1F8DA9F5EE5926A1C8AA9BA9BC09239C6A7F12914EA3B59EFF7AAEC3FFCCE56F1C5C2980AD072793527565E774F4631DB178CEEC691B1F367BEA0CF2907E1D6B854D527065979DDEF002D8B2ACEA7CE21AE297
310
737EDE1D45B31233B73FEA35BCFDD0B09721FDBAF6432681F2FD10C3E9EFB246FD6E854B344ACC9D8A0EEF876A7314B49B6A499FC650B099D650DBFEC7638ADFD245E2B7839DA5AC5F7D5623FC0ECEEC8653FC9B2BDD1AD4D00A566FBA7186DD3C9CD26512551637498CADB950FEC71ADB9A5524285DE328B8EC7EC75D2345
310
AEC6A27C42AF6D9B92155315C80DBFCABBB7DA0FAE425C4FB896B15C9BFAC4FE67DF5A23D30C93DA4D8F36FB15D100050DA6062E22AEC5F4DAC4F6FEEF97AE05DE63C6D38F9E068A20BC5E3B6BCD75320C5090924E7F93640A7735B1A43451C2D91EE62C6238B797349E59890AF3A520DF4A87095F3ABEC2E61F0593416CE4
310
6CDCBE0E00E2523FCCD04408588B5B6C9DB6459C786CE378770B54F51DA3A5E1DF2A3349BEAAC234A6CF8993B598B3B25B4B113E353A4D750FA7534749430F3EBF2512E7EA3FD43C6AB9A1F765A58463B306721A15D224FAFE8C6F5E3432D57EE697DA0DD5A9D4866A8BCCAAA9DFF1F06047851408FEC060471D0E3EB86BFA
310
F46E4B5E60311DC3E3CEA147C75CF971BE74689507154FF2D2E92F15CDB2B9182B11459FD8ACAC5A85F174BC94A7F4EE4C4F5CAFA7C02E37BF0BC77B7DCD0C047BC316F562A01A441AFA7931CC84A28CB9F4AA367EB515778F29BFE61195FA671F4352E5E46E3A64773F1F76EE5EB36D7BCE9BCEAD837A4D77F8DB8C92AEEF
310
6711920D7C7D0F76B0FD0EB7AB83724CD35BCA7D36DDDF5FBB7FF6F04A91F3E2BB3B8F1A43CD659639507FF6331C5F697BCC782AE57D757A27D97F1AB9E0AEDB43F92F1B2AACDF5FEC8ADBAF9F814E2027003BA2F9E144B1938A7A04050AE5D953B82C45619165C813A10E76DD6906B3C16438064D14CDA713AEC420034613
310
E1AC7241904A49FBF87409AFB1FCB9B72FE7933A87D8FBEDACECE4EDCF6A4FE9FB94D5DEB74FAB7CFEAE17EE965DF980DCCA2D04134994F9A2E94D2265DA4FE6AA7B7AC15FACAC2B5ABBCD7DFF542C5314FDAB2E1B9D8B65220B8E2B638BE008E8DCA22678C820C5053664D15E89F2D735B51A84955E81A443545E9FF787BE
310
0FA700A76D136C27DA179A7C6E8939E01BE756E19CB292798063D8B97F44E8A27BCF3A614FEB8BE974A718E86F7EC99B53CA35FA24F61F2B07266684623A3D4CF073E511F3A10A8FDAFAF0078C577F4DF9D339FE7862E5FA47CF4344209E5BF76D783B1B48E152AD281B15FCB934DCDA49CEC5706B1EE8B460F435324A5CAD
310
154725E21AB8044B75A557A79F6C807B9340AA3D92503E866F4274412926C8C504E4D5EF8C0E68DD0B028781A6B4054F11CF18941F101C57CCC796773ABC8DED9CD91FE5788806C05E548895354AEAC96546D55B0E94A59F148D061F42AA398D822CDECA4CDE79E13469BDCC44FDC990F366BA5978C15F97ED80CBFD73B0CD
310
9B8B83A4F6845BDFBFAF034019473FB9A63BD55D3A4A7284757071574029A4D016DCCBE95DD679EF3C4880BF169422F8C89B68A988D2B13793CAED4F74DE7486C72DC94DF46B8E93D8E02EFCB1FF9B3BA10C8AE7F653DF94F4AF466CDDCEF5776687F7C4C14B63E4EED1719DC2EC482D7DBCC7AE518CDE3D5FF86D39000EC3
310
673C0044E1D308BF05F74D1B5F033A7D1BE7F74BC55BBE3E4A20F920946CA0271EB17BD2B80E5660ACB8A29A79F5E4BBA49D4D945B6EEF4A7EFEAA65E5555BBB57A7E15D2F83C69F30BBB978D2B39F1F26FC097424D39BB33CA3D87ABF64E307938B685BAD44F71556A30B7E712CA4FE600613C3E554B69ADE949A7CFE214D
310
F1FFF05CB82151EC6FC31950239F94CF7AD39DC473F6EA356E5EC2C4EFA04383CEFE985A127484366FBEE3C0EC4FEA363E4F6632AE781392FD45D67B63FB8DF70E82734F431FD3443172A0E30A83D60982D55FA6A2CF86DBA8382502ACC6CDEF3B907982EED1160E14863FA242F9757347E1544275CCDCF71ECD5F8621CBEA
310
326B8BA884AD7F825781923E66971F04010D574C541D8427A438A37EEF8AF88240EED7362C953F5A81DE2D56109CDE2524EA0F5D2F87308C0C47BD97AD605878AB8589E17CA83930CB5E0DCCD75853D68B1AB136594926DE426C367428E9334AFAFF90ECE221BB5DC9E5BB53D2CDEF954EAA9CD814F0E5725F1965DD458E5F
310
8487683AD86B9D0076BE3EE91EB1CECC5331A67A3F79D8B27587C12EC2A6A70474749F27B4C0BBAFB94B34189E88DC18964BE4121B9137FD516C7755356E50D6714E31ACD222621EBBCD1CFF81D87479056A9DA0E0B8EA19D24CF937DA89F78E8650CCBDC110AAB6C4E46DCBFD0446BA9E2060E81F314AC2031E88135E5476
310
AC0160EF5C0DD2EEF1B8B5CB2D198BE9A554A9093B5F7D7E4B5407DDFCA1D9C152FD97F55BFFFDFE802954DFEC8995B983E28AC92F1971E28F531DC407A1280EB125F64A72E617EFB27DFBCEDCDA2D6F2BDADA36873EE46B9BE1782998C63DA7182BC383FB6FD15DA472B175D7E8B4FC88F38D6E07FEAA3FA3CBB8F6B449EC
310
F14D2175E5C5CCA3A42ABF24CA6C9395AF74535F4DDB38CB84F56614B0FD32D7E19CA5CF988DB4449C40E23DF2B16772594554579094450F56F253CD25EA7F77366FB1CFE79696C428BB64D5A41E986189427E5E4D7E2DAE3D5BB4972B3DC44EAABDDDD63A2264ECFA5C786EB0EE1FDC5BE34FA0F08376869FD1E61EA06CAE
310
15191135445EE8F0394161C3266A596AA035572BB0C8876180D8B9C77D307DF9DCDF7365ABDA6F3A2366436457A4DFC1F259666569A9E4A79C817BDD5610E5200FCE894A358EC72858D50EF67545DA81C6FACE3D457BAF70367E1E6BDD9A952FB4F56247F58F523B97E640246051A72F79BE42FFA0B3187F63097F91C48B86
310
8586F714B0EBD5A00A8412C1236E1298F60C72BE6C96B82B404CADAA304AE9F303176B14BA53FBC2D5E86377E35542019E24D97B96A49B2C0E5006E7795954DEAF5DA58958839043C6C70BD3B1B33B6DC5C31316D8A6923F142E26F6711A2258AF977DDF1F970ECC4F1F2B434B96D81BEB6E89BF3BBB3C7C8CC80505070723
310
D6D7D7D3C8CA27CA164A26024FED94B12A86031867241DA53D929636DA600F050BC40CE48B8BA03D69224720DEE2ED2127390BDF5E6EA64527BBD4C4C63FA76BB801FEEC0E61218EC98A8A86CD8313781617877E66692839B9468CF4DB8E50A73986E558E309C0D6F676F921BE02F1185454DC75B111572FF9D27D85EA14C0
310
5AD7271225B391C4275659CA4A43759D0BA44639BE4C30A84DB7F67A41399FB95CBF923B1B1672ABC807C1590557FB18D811983FA97F5E609516D62281D38B1281F68FC75528C35E4CD7DF0F7DBB5E5DD69C414EBEA2F4A5B241B996BA77AE6C772E367408C633EA3E438B68563EA8BE7667F3A4C4FDEEA52ABD78A2820F44
310
3B7914A15F180018D231E64519C56A12F6CA7C8DAE18F06F6B769DBF92329EF6A5D18FBCE600F36BD8E8198DE5CDAA96181F3A756EBA5501CEE58F497EA4F418A2B82565B9BCC611713C0B708CCA1F398B78C5F7D03B3437CC18F13061F55C7BEDADD5ACB1DB0E36D3CE47FF6EA1A563A57E9649EA5D14D1A50EAA45746338
310
1C073777EF1600607BAF6428A7DDC079D47A204EF1E1F1F0589FB054D45E02CE623B3823C317C601E589E22B1E88B448524B86A82828E32345EC18AE17214B42F8C41C6D428016D9BA31DDCB47572561E5A402E5BA4FCE55F78AF7268524AA04130F3A20BA5D1E9F9948EA48FC8F5314FDB35E21898198060034ACE5E3E2BB
310
CA34092518F275190AF65F45867FF0900AA4B81F25427414C372BF51DC29AA855C5428EE1EEDD6B849AD60F6E73475C2D2523F8A2772C840A478DED18A8C5C91B085F255DC4F54EA7AA8947354FD17ECF8FB3B4A0DE7B483CAF3A1165EE05BBA413E5C1FEF3DE1D6B8F2F3F3251C17D9FCAB48A9AAF63AC773A0E413BBC46A
310
9ADF84A566FC920E4D8C52C9769EE3301CADEEEDD92B312E02E2A7E35B7F1E7D203FE5A7D75578B06E99D0E46FFADB8FDA17ED8880390DA29094202D6F645F76F6F96409CDA05495A96E84B04A00D1A6C6C81D7F3DE9376E828CCF144EE50E364ACCE7237EA0BFB5607ED1AC3CFE73794E5B61739D14DF1743441B1AC98F00
310
ECEDE9E7301FA29755FBEFA68C91EF2B314CF510537EF1ABFC9A762496280B546F5EDAAF8A5B387D469FC9A878A92828C88608453ACEC6094DCA54111E7AD5B2663DFE2DD151B7F123B9F4FEF8EE36AB125FD7AD52A59B1B765B3E3F73E3F73DEA93875004D2AFFE3CDE9493B87A9904DD052028949041A91DC0E1BA47BA71
310
4343FD5B25E0A6A09503AFC17C790058A836A324FE31D7893512E28230332F153181C1E018E1124EBE1BA262AA428A518237D1EA7275E48C5C561BD19ED6912EDD8367DA0F31E40EEAE9683DA9257525AEA7B632B97119E17145A90231768A4F3B9120FF32E8319B015E3CBE26F1A754177D8185345817C096B0CE443A955D
310
13AC15E1FB5DEEA0239EC32A3C92241A237B0B02FFCB4F93CF2B02570C8D192E2F2A68CEEB42F12E6F8CEEFF46C251E22B4341C56FB08CCE550E7A9D6F4D6564B9EA52A83D5BF2C6E03FA19D2775E15A8A7ACF30A13C259EE7F5EF2AC3BA354F1500E1A07FC63FB4686E2F12EC69719F9ECF5FE3F35598DF2CE944008CE78F
310
0911BA5BE5D0A34E0098FF038669C26030BA9B300303039852A8F6F496341737CA7E0D2E3AAA36DE0A70AA7D9CA0D54D9AD84B18A44C9E625475E1C97B93BEBB38DCE7D227E67A2D00F531436136355F243D1FC0D712C5765754FA22FCFFAE97919161F46D6E61ACB37D83777B385889770B50765B127768443A5C4D3A4E35
310
A3151111F146B7CA116F918A049F1C272F2CD7976C69A0068773451659A97E0F4A08FE604C3FF6CE7385DB19F4D3ABC8A0D80DA8A42096AC377DB49382B36E270B6FA7570188B4B7D1DDDDA82ACA487CCA5D38BD3BD039ADBAFA4ACFF27809239B722081E2EB9F145320553D183F28471C388BC8814E5045676767AB58A8E7
310
2D1CED2CA731379515D2E533E4CF0B39DFC625F97AC4836831A4DE330E87A8126FA17EBE583D614E71E22A8DBF2825599743E0640037303E8E1B1E8EA4E1ABFA4F62907B5E4E0E5DCFDAB417C36C6848A2B8D15F1E505434C0707E16B1CFC2A1C36A42BBF55734F8F4301DDC2A5110CEE8C0747F69519265012A2174BF4E95
310
5ECD4FDE095A3ABC70536B7AD0B9D7892F81287D667C108703C9B66A221E9A0929D030008F77FF6F5D2108EF5706FC87A3069B976F7C9FC3239D13D283CDEA83597461079FEEE049B0F392889898B7D87D31F8D60ED7B56B91823A8E4EDDB36C6172ECEE42BD42B12CD67994FA0F0DFAE9389356F4CD4425A4B8AA55CBF7EC
310
D585C6A2C2316791E43D5C06841ADBB226A87FD61515FFBB0167B74E56BD7F3E90A57A97FEDCBDF483A0D6699A8C0849CAEB4947FAA90D8E332D9DEBD9F4738C37DA0CAF9CF3DAA68BCB67C420459C7A64498D6E848E5CADE92BB6901F607AA331104A67F7CD650EE169B1DAE94D2C31C2F993632259B6957E246EFE4C5481
310
107B07118607700040E5812A2A2A38DA0076875258C753F60E0F2662C748EDD5F3F3686B8FC3BD6FE631ECCAA1E8B1C1E565AD117E54893E79F4672E32F9E46B2A183DFDCF3EECB4D4D077DBEA0DA254D256045109670050129E9B9B1A9E4A11344D61497A992778095151510C4BB7EF2009B63AA4360635312E4CF668B7E0
310
D3D85A8688E2BD83B569439892ADB63461930D428E0DE42E4AC57CE48DA5CC1449530D8BD3D6A0F08DF20C8E8F570F2CFFFCEA286E30969B4654D498A58D9DA782E19FE3F002181838925592C4A1EF0B332D88B61A92C644547BED490D3A42CFFAB70E36D961F694F6307F72FF15A1C79D5B1B5CEFD353D9E2B52566DEC8F8
310
F09CB3E8359C0F68EBBB7898243E34E12A015B2685AB303C04D3A9E00671FF3DFF0A184E4A2ABEB2B666AF5B3A209C73D8EF29DCDB069C9F391EEE9DD0F74C7BCDE16F8F02E3B8816122BBEB50665775B600549D8BB33A54A6BF940C028118BC6878C79958D6784F9DEAA6E26748386FFAF8D0D0101E2847B6563F5D8DC1D7
310
8F787BE00E2C941AE12148D4A81599FE8F68D4DA5CDED75530ADE138240300EE13B0FC13A1687FED6774662C05A2B7DFB186732F0D7A93545D8B0A6390AE5054D9CB582DA846D7A061B3358B45E2B52DDE63E114397EDB7E09233A579155D795BE76102CF277F4DF8B188C4F2879BEAE3C08347124BF9ED23B128259FE107D
310
31E34A652F090B30B39E0D9AF917B76A2806135621A8A60681F16AF216514BBD02711585B5B1AE823F4B2D0369EA5B6BCB863072727FFC871CA6C9AB79A814D989057E9470A3D238BC87CBB4A0EA49AFE2B86F22E499793CAA9047080450166BDC357524561E258C77CB697F1ABB32562CF87C3B7AA12F911EF19FB3E5C022
310
22E887D08202A60A17151F5E053A86B437771088B4FEE14D652C43E8D939995D34545E12E2FF93D4E366EAD25F10CB7DED141563C3D0C447AF06078A91135FD4B9611583CB4BF3BD167F2399CEAB0E0100F8FFC305F00F1711717173138B4B48C83022295DE657EFEDD97F238ECA80F528AFB4F8D67AD4E2594B9A3AA86D74
310
87EFC313BA95745C186F0CDD84CC12DC9CB0424B42203D351FD9C0A3AF10CC7F388E0329279087386421F194F4A29464C1DEF7EF8BE515E4A199DCD5B909342598D8FE6A231F71336248D5CEC5454455C7BE383B3BC7B260FED27F703FDC39A170F3827239102F59D4DEE7FEF82EAA1A5E4BA94DCC4CC44E7E2EDE20F24244
310
E4454369D2E87C3F823F193FD4FD27E1C23984B01898D15ABC20711A8A558054951A6AE280096BA36CBA439603B7B0B4C45F248C14B2383B4B5CD8ECECE4FF859AD4A6CA2326D020EF090F4041D28DB66E5256B56232CC52829DE8060BAE6BBF37D4B7469B822454FE93210A3E8D15E69FFCF01123222611C51C4FD0A041A0
310
CFA2471CF6BE38D2B20FA4C3525B5B8B586759475CF80ADFE67A284AC24651E52B8E683D24C2622642F27E7C3C22783BCF63648BC398BD6CD0D9C97E7E7E3EACB6126DB7A6C1FD9F1031302EE67ED96F22B77C7CA0239BB324207559B105E4693EB26EC46182A92C9C0DBD24F29B31C5C5AC1F84300E0E17CEEAC15F5736FA
310
4A98971E2F1423BFCD68D4BBD5F86E74B40A369F39507C88FCDB35D2DD8DEBEA4AF999E23CF2816D204200DF6E611781B9884C1AC8888B4DE397320472959434323A5A36B22A8E1F721A270DF3BD65E4A31C11FF048AFB0D8B7B6881423793963A23CFCE935FC189ED36FAE35C46DA3574C979E4394BE52084F3081837BE03
310
3396D2EBD80F1F691B273F660D2B32FA27A33B1DE4ADA5F0FA4651511102DFA410DDA86E065272CA314D5249DF91B06BB92807B28EFD54F08F7B525252782CD276DD02E6B0319B13DF87B1F6361AD6B28FC0D711CF445429B9E5A433CD493051C49A9E03DDB1B147D880253514A5DED88009018620EE229101C041950E2D8A
310
A8E1F5F5438E0C0C0C60EEDEE9E3E0C051948C69F84BB7B2A48A1F3C8EB9E6864687F4F4F6F6E2FA87608ADAF9C5E117B7C1A737E710769DA1D15ECE6A84502AA855398712D5FB51BE92E4EF824969CE18278798AC303C2C7980DD2500ADF8FB1E6D6C2FAAFF9987178923334A244758BAA01A9A1B70FA5097D01E1CC2A58D
310
AD0EC94CE6430AA9B0C10D75E3C6BAC670EFBADEE1607739CE0FC18A2587E3EC3058562014C64219C69BC269082D5C2F4A659278D585755912176D78A1B641719C2A394CED495A1AC5D583FD2F5EDD93308EA7EAE8A6DD396598BDBD3D4CFED62D18A5BDFDE0DD5C80D1A89BA62697B131AE7CE9A6594138582F1B37D68F17
310
49AC7CB67A70695D48A4A056AC1FBD4E82358CEAE38F54B95A9016F9000F9879C0D9D131768635CA798895F27D6F1614F11F2838A83611AA51C9A3DDB539D42979C29F10465655C17BEC3E2760B80DCBF609198C7B171A531905F3EC218D696025975E986C6B4C666666787271F202805577DD5A3EF0CAFAF91B62DC4B2DB4
310
217A7606282F31D8DDBC290593BAA93EA6353AFA9939B877978481E15CFC9F2755CDC00C538F63A4BA3E80AE009B73CA0185687D339A507D165B74290D6EE46D5C58148F020C3668ABE9EF2F7549170DC80DB41FFC1D678FF19AEB10C7133832B104B80F691B3138F97A92D26E551F1F110400D45AC71A9B9AC41A1A1B1DAE
310
ED0B0810638EFFB511D46B121C6FEA0F38CD00E03CFFEB9713FE1F9C263E4DDEC160D0497FA9A132BA608584057FB15380825DE6C7FC3C667EE947D488A09898D8E939C4953BF4EC9836344D2CC6B2971B2A21A572B06096F4982D2CC7232D46E8EA69DC83722E267754D777F97F96D5DA74E1E75178084D0E70F12AD33E5F
310
71EF2AFA599B2BEBF60A5BE475F444F240CBFE8143C334E7ED9150FEEFEF7EB020C4DBED388DD1D6A167A76F3CBF119B578AE8CFA7736ACAFA4440A1C47185638A0D2F3EB5BDDEFDA958FB13CE4AA4923D5BF840392D45544329525749734866684BF7F8D9D54D892E19BCA9F829A0F8BFCBEEA6CFDFC61D74EA1A645ED7A1
310
FF241739F15694BD835B66FEC5677E40FE69BD3F91AE402F036537218A401CB0828604AD189E575015C6F3F6BBC8AC79CF6C70653847254B31551EFCBEB5978B9DB85D58D0FA41A9DFE9C624834AA04949D24B5AE6D299E072D152D12097920F14AA92C31C3B97E28B6C2E6E9C23D63043ECBBC0A60FDF5BD0C33C127EA8A3
310
308B8B6AFFEB28B4455BF6E7AF4FC6222728357EB8E46E85053E6A8843AB23295BF838ABDA94658FEF3F832F147046B4ACD6F7D48E8FCC9618582961C898D1C7A253C91BFECBDA6BA18A1FCF70755DCCEE2222F41B76D23CA98D0CB3D95F0CF66D57FFF65E2A90F5DF40FC3187621E981BD0BC1D992787212688976B94A8F0
310
C6EF646624B570B78E068826F87CE27041A95C9A4871FF65CC17FCB1639629AD6A9517000D63AC231F3D741CB8430777E7ECF80CE7A3F73C0F162F7E56AA71F4DA80A33CD6ACEE78E2C11FAC03DAFCE929B106F8F6B3ED2DC71FF994BD9CEF4E9A94896EF1B6E2B7B4978168BCF0847A3D2A4F1B0500B926E634B174548E9F
310
BAD27153FB5FC36799B1E6C7C38A94E1F9E996796D7B485E635D5287A2AE76FBD11A341DB3F8F810385BB7296391973DC6C37C452A9305AEBBE0CDB6C566DB59FE60C8E94B1FD090354BF51439FFD1B48D725228FFA88C84F686F547107A7A235665A4593B7C34D748C1AC8D56DD5DA861EEFBADDECBBD65117E65851F9035
310
1AEB65F0EFCFF4BCFEF24CB7A5879699FAC437A7AF9099186CF006BB923A59E37D7A36A29FD8D2CBB914A5E9D0A8FD212FBF796AE9A67958FF1D5D8B85F78F96219D4714EB919929241B6C018AAE0C02069F8D919961EC5DDFBFB7573E3AC8E08BFB7C8534BE6DE045B3CD63DBD71F7638BA2309CAE398EA3A7D8F98BBBC7A
310
EB367EFA5CFA27A9F8F2F52FE878058E6209C026453F8E7E8A237DFC389E9590F6059B397CFD65183BBF936E86896612A5B5FEE49DAC8455D026218AFEBEC12B3523A45B57B82C9C97E02ACFA1184DB18E48CF615DBF39C3CC6F0B4AE6BBEEA2E39D944E290302FA3DE33FA7E40296E2EF7BF1CD855BBECFAD0FD622BEE974
310
6FC4FDFDE545AE6E3BC234CADF83A0FB76DFB145BF3828AE3436368AC24989454F8FF70A177672C711CAA1A76107218CF948CA01F873520E7A2B118EBB161ABAD432932029628B6761590C98AB590C8C8C79798CE9F715BA696E839E9131A4BB68BE923F1747FBFF165331FFDD4D05997ACD168F12CA75348DAC04C7F509FE
310
83898A8B421181AF492861CE81E4A2DD0A30850CFA95E05F097FF70F9E777310D584A75BA7018922E271DAB1D785671157685B7D383D3E074DDB4F1E44EF04B07BAAC75A062077C54B9752C738C9D804D402E02851F3F89605AF189738C18C021D2139EAF72513824E10DDD3047BACC8521ED7E98B257D1166903B1B08FA6F
310
918FD7E162913FEC7D0EF4787E29C35FBA8C6E2C9C20E9AB30AE42CA2A01A090E7D010C1B5BF9CEE2A304BF3A987FB40D836979B79E18D70F257DA61E808472DD85B82761825779D6B90CAEB0F23360C6F80A7D7D77545E95B3DFF0CF96A827F9B5BCECD2C9698718417EF80FEEDEE938AFF55859D0D540B7FE09435583A6F
310
04874A0C7E8CF234DF4879722000167F5872CEC6BF3EF7E5A8CC8121E6A359227C8A29C95212F9F735BC72A887D56B8F309FC525BFB4FD767AAEC4AEFF249CFBBD2DE1AB9969A6155C7D8DABC307E47324C1F916C7BCFF40ABA5644E9FFB9238D19ADADA49D9610F01ABBA57E4DFCBDCCBB2B93C8953206C91DE01B0E2651A
310
6D6C31721915B31F7B7CBCE55466F6D70402788FA91D73BE4ADCBA99A35F17D6B83383704917D6833F0FA3CD45C926ADB8BC17999A4A0AFBCE2541F7B8CF4C2F5FBA611B3E626D64407CB32C122DFF4EF8674D6EDBB86C8F7C6A16D50FA685E2CCA34F8F7D1D8265BB0042E9D7F1F666F7BE5FAA5184DF58E12122A42EF02F
310
461B3F369AC746F96528AD208512AB56844CF75B97F352DF7995024FB02855385854F3798670D01CAC771AC3E1889EC25F61A20C1F8CAB46898817F9C47E2CDA1F286BF2F358298709FE567C91133E2638C8B53975E753EA8BFD3578B5F7186B7BF084EBA3F77BAC3132A5779902EC22AF2D2E79F42D324E083386DAEE9810
310
D1B44A5DAA54513C7A71E52A4AB9257D975B621308FE4D2141CC3DCFE946C154A3C1DFCCA7629EC69ACFA831634ADDA93C0388D2A9A2DDAFCF957C6995BCE7FBB6DC4EBAE79E63EB08E9A25F52F67076F7093CA545CA3053B5BF576DEAD4E0017143C5F759F32B2D6F145B52B67B48909B7C7FCA6586EE385A2189C16932CB
310
6DDFD9152AE317C430492A578ED27B72D85D40C7C93C097939E1B50F4D67F05334FE9DC362C30B7FF561B95259138ECFD9274C8D695C31B14D4EAA9F3D7FA8DDF652F8C5DEFA23284C799B7D94416DEE81E05A866302DC70192A5368EA65E1CED8BF107A1E2D3119A71E85DC1A7B0C1E93274CE04DD0F2ABC8AC7C987FDB00
310
2B6F81757B43502EF7A0D92E416494FAEEA4C9C090CD9557AA4D532F4996A272B94355C5A0E4974EEA9627476F30809B94D8D8D860062E02204643BEC7D0438AF800FC7E2B26955D595421E83C69E1A07E0E3122285835F014AD538188CF9737CE76D464A353FA55A001AB2526B84E985083693BC76FE211CA1D000679C889
310
E3C009832C87E1AC2EDD05C302557422DF0800E316FCAC86978A371F025A6C7DAA9F333E7BD160403A1A06EA75AA9888FF01504B03041400060808002249EE5251464CB48900000043010000360000006662782F37393734364338322D443732332D343845322D393730462D3733424132303635393837312F646972656374
310
6F72792E786D6C9D8F310EC2300C45AF127987122606C71DD918B841D4B851A43646695A717C52A85029031293A5A76FBF6FACEF7DA7264E43906840EF0FA03836E242F406C6DCEE4EA06AC22492573150D1F66C60C640E8938CB705396EEDD86DE9B5042FE27813D640EA63BB001C722AF6E55CB61E4863F58284D5D3F53D
310
D715CE1C3985E63FD7F1B7EBDD617E9F1E504B03041400060808002249EE52BA6A0EA03E070000541C0000340000006662782F37393734364338322D443732332D343845322D393730462D3733424132303635393837312F6F626A656374732E786D6CDD59DB6EDB3810FD1542FBB2FB605D7D2D141789DD144691B6A8D1C5
310
BE09B44439DCE8064A4A9CFDFA1D52A42C29B2AD645BA0D804481C861ACE9C9939331CB9EF0F71841E09CB699A5C69966E6A88247E1AD0647FA59545389A6BE8FD12B92C4D8BC63E0D253826571A5FD696EE9EA56526970212E232EAAEDEDEFC85729F2444437E84F3FC4ACBFD7B12631D97451A90FC410F7081F57D78D02D
310
BDDAD816BB6738BBEF1C95614692025485F504A4480DACF69F6092B1740DBEA1B5CD1EB6CD39B3CD1086B715A5495EE0C47FA155478E3D4C2BC71AAF3FD893C568321E3BA3F1D4B64637B737EB913573CCD574B55A5C7F586868E9EED234AA1D909124002F3E6B4BCB35F87F6AF3250A7D7AFB6992105FA2D9B72120522E25
310
79179316B09630ADE190CAD6C68233D0F813DB0681D252A985B6324EFD6E466FBAFB1B40C8874429CB098FF2BC60E06B897D950FA66B54AB2DBFD01CC5B8208CE2084574C7300307C1D6CA412D313C5BB828C431135E54F29ABA42605FCEA53E2DC3328A78FE6A4B91691EE4232972A119FD87B0A3F6CDD34027B0B6A44931
310
97C616CF198858B88658ACFEE7D8F29F1590288CF01EA205CCE49B1CBB83D78A73C166AD2D3FDDEE0E5BCE0FFD87672CCD082B78E489649679A73CD8082D08BE01A054B8B67D7744E51B40FF1990AF75412E788ED1C3F83056B6339CE461CA62F00E32D1C8841F26E21F5F7C728DFAE125422DAE3C8529A4ED0FC2B46546EB
310
EC06A44BF711823E658E346EEBE30862FA8E263CCF21505094C212F07DB83B68CB0D90292CC2533802EBE1DB35F84704BF2A39C0371D0FF5D1EF0047A984E9E6D9D1571F216618F56B57B56C3C85EFE487E07BBDDE7EDA962CC43EB99389BD26214D6801C5B45FA116E8AD94FFBEF92C32F2853DAD5D3E9CB34F3971F4F865
310
2BFD82846340155E872BD788953B0AE91E4538216999CBF53EA2F2D32865DEEED9AB72B8F7AC3F55105487417EF308E82533A8EE3EA31907455B4AF36A26D48F38711E9401B8AF9CEAEDB0FFC0E1F57C60ACB7E801518B59576819671E8ED332E1F4FD32BCBBA6E98E29BE2C6B619B0B7BBE984C64C083EEE200953F8A1C6A
310
F5F94931CE4E1CB36AF94BF28602B2CAA431F0659F0D3E744D65E1A519F669D11F0D1D3306AA1CD0302C73A0F55E603A1AEB8E35A9B0513F6D1B99AF58AD953A6FAD54CAA331DE132FC4BC26F6EAD702B416AE9CD48BE43E4AF39C2624173DCD0BAEEBA068EA401D55A42BA93D614B732F26057E4BC48A22D9095846C2C883
310
EEABE0FDEFE578550ACA7A7B4A22EFF5D2C413F63F7B398EB3A8EAEB2E6160D99D137A71E54AF3231E213E3D5C786640449B7E497ACD240ADF41D2176F167F021E867F3A3CEA080ACD3A54D5CB9EB5F489B5E05F73A0A1E9C472A6B3DA1597D0528715BC6F894AE8B4FC67EF89D0FDFD3012542E3F7B4E4EA2D0A35154C65E
310
55430A1243DB868B920DCAD829B049F720C90C9D94689C14D2089AEAC1342BFA15D5B1C061A2613945B38D63C0289AC0BD6E90212FACE80D62E10B7187E557B5CBFE7FBDD4FFCC98CDBBCD03797E4A59D0AB69BBF5505D9B6A323861CA9A58BB57485EBACDF48BC565E7320E632544325C75B39011C2C823E5C30C716BEABD
310
73E44FB8F0814AB7E2F7E806322220C1B10F698993A3116D09872A69AAB76DDE8E80EE780169356B1B4EA9314C283067DA3BFE21FA86C1D5D02DE686EC848C6A7DC34B9B0EC398A31E67647DF9B8ED488195C14F7FE51891A78E04B9BAE2CDDF1951DF37C71EB723415AF47D73E6F1E2BE8C7709A6BC36F2B0C041F6EEBDB8
310
7F5E1970B930668BD978BA9ADBA3F5CC8679C7FC833D5ACCCCDBD1CCB9B9B6CDE964319F590623795A329FE4866D989EEAB6B264AF02A3826EC82D04261197AF8B2A9EBB0EFE1FDF42A274874FC5E2AF7A09A91B3EDE92757271E825A497A877AFBB31582F88BABF88BDAAD7AEE60B2AC0CF972D202355EF8737174AB4AAF0
310
FD3A372AE22B0BEFC9FBCD4FAF312D42EFAD0FAD1D7D94DFE6629857F55429752316BCB69ACDA7F66C658DECC5C41E8DED8939BA5E5BC06863C759ADA66B676A3935E2B2160EAD2BBF04872A651BA3379820E7694461904F02B42729DC81605231805F594C7271B78106409671F51661C0D38FD51CB6C0BB483DEDDF631866
310
47B222973E0C52E1DE71A5C975F41B8C4EF9F4520CB4F407283C32DA3554327AA541081414EA8BBE83119818380AE99D1127B80D277B7E6BAA9EAAFF3E3EC6D1815839DA55EF19828BB4AC159D304EC8C4BB05603BD590BCDD74A50EC2057CDC95456DCC71E1688D0441BD44A88C8349E18384F700C473DE2E4B177B5A900C
310
9AE69F8D834AEAA8C06C2F46F20DBCAFD75F0D3E4DDF7C415954EEB93BCFD5FB96A411EF33A2B21A5CB91018D2CC0CF39BF8EA9DF195A5F05A2A46B7148200FD7E984FFF3056691CA749B5645CCB975B687B0FAFAA02438D09A17131ADB921FA1EF92A00665D39D171903FC002B896513E4FAD206E05404D4F8D00501EE1BE
310
80C75AFB376B248B40A3856DB6AE1C1EF11E004122F1F73F3C6D9A1B1A434BC805D0AA9AEDD61FD4826B30189C2FFF05504B03041400060808002249EE520CF9957FDF000000550100003C0000006662782F37393734364338322D443732332D343845322D393730462D3733424132303635393837312F7265736F75726365
310
732F322F636E782E786D6C4D90DB6A042110447F45843C8E3A43422E38EE4FE4292F8BD15E23ABF6E025247F1FDD1808082D5587A6BAE4E92B06F209B9784C3B5D99A0049241EB93DB69AB97E58992939219B1FEC328493AC24E874C957419DB31250B17DDC250834FD7298AB38304D99BF3911C2526E852765ACC0744CD74
310
AB68A15C99D555B3956528D8B281BEA2FA087385C9A02B58AA36B1AD8B785CD6FB57F1FC32DEC39BE48354F21D314CDEA70A198FBB4D18ECDFD41309C907A064CB7E52E38C6EFCC5633D9EE4DD56B2D4DC3B9858FD3E3AE6A376C06FC8AFAB241F47F6716BA0CF5188FA01504B03041400060808002249EE52FF15A4A45D00
310
0000800000003A0000006662782F37393734364338322D443732332D343845322D393730462D3733424132303635393837312F7265736F75726365732F636E782E786D6C4D8B3B0E80201005AF42B6F75B59F0390B113044D83508C6E30BC6C26AF226F3B8BA6360974DA7271430F523308B2B198F9B80925DB700539227A2
310
FCCB80A18E5640D320F996A81C9F32D6E9129A0D1EF74FCE750E6D57BC7165FBCA07504B03041400060808002249EE526B05C63D4101000056050000300000006662782F37393734364338322D443732332D343845322D393730462D3733424132303635393837312F636E782E786D6CCD94CD6A032114855F6510BA1C9D09
310
2DFDC131D0459FA08BD29DE3DC4E6D1C1DF45A9AB7AFA6266929A15D04127021D74F38E77ABC7CF93199EA1D7CD0CE76A4A50DA9C02A37683B7624E24B7D43AAA5E0DE39FC8691CACA093A92CB44F0D1BB3897D2002F329A5C35DAAE4A51227ADD4784402A6564081D09EA1526496544374058D141A2A42DF5105CF40AD27D
310
D41394FBCA8344188858348BB66EAEEBF6F2B1B9BDCBEBEA99B34C0ADE3B670AAF2D8277F3C5A2512E6D6D92D3709601C1A3D785CA1E88D86BA3BDB69CA573C143D26BC7C2E17ACEDC3C1BAD24A64631A710B04E10C889B32F5870961DFFF0FD70FFB4D7907683F6A0D0F9F5C9DAD01E6AC34E1A4D89F85F1736E05FE65DFF
310
962C9FEEDD0F1A2EC28E66779BDC90A2FB3B09294FD28EE61C3FC04EDAF1F39F060B6A758EA6B7CA8EE4996D46607AF83C11C527504B03041400060808002249EE52E3EDAD237F000000A30000000B0000006662782F636E782E786D6C4D8CCB0E832014057F85DC3D2DA2F56202983EFFC35434A4080D95A69F5F685C7475
310
92C99991FD6771E46DE2CB06AFA0DA3120C6DFC368FDAC20AD1315407A2D6308EBDF0D881F16A3A060D0728E213D37349A6948AE5067FD6383D861D39E05A717E4356DC495D30ED98D627D3A72D61E3A815536F645C9F3EBE52D79FD05504B03041400060808002249EE52A6D797065F0000008200000007000000636E782E
310
786D6C4DCB3B0E80201045D1AD90E9FD7516806B51190811670C8A61F982B1B0BAC9C97B72CA7B1037C6D3332918DA1E04D2CAC69353902EDB8C20262D23F3F59B81A079470595414B17391D1F19B4730A5583A7ED43BBE4025D9592775E5ADFFA01504B03041400060808002249EE52ECFD112DA800000026010000130000
310
005B436F6E74656E745F54797065735D2E786D6C7D4F4B0EC22010BD0A61DF525D18634ABB506FE00510A79458060253536F2FD89D5197F3FED3F68B9BD80362B21E25DFD40D6780DADF2C1AC9671AAA3D677DD75E9E0112CB5A4C928F44E12044D22338956A1F003333F8E814E5331A1194BE2B0362DB343BA13D12205554
310
3278D79E6050F344ECBC6478EDCD76CE8EABAE5449AE4298AC56946789C28AAFBEABC53F3EAF09A84A1441B91F0101CD4780756578C173A578FFDDBD00504B03041400060808002249EE523DEE336E64000000790000001B0000006175746F6465736B2D64657369676E2D7061636B6167652E786D6C35CBC10E83200C00D0
310
5F21DCA56CA76D41FC96062B120735B69A7DBE268BB7777961F8D5AF396893C2ADB70FE7ADA196782C2DF776D7A97B5933C430F15651E5469C55D70F80A4992A3ADC954792C525AE70A1E4D6AD9816CC044FEFDF01FE3FDE907802504B03041400060808002249EE52216C69D6F40000008E0100003D0000006662782F3739
310
3734364338322D443732332D343845322D393730462D3733424132303635393837312F7265736F75726365732F322F636F72652E786D6C8550CB6EC32010FC156BEFD8063B8E5D61A2B471BFA0A7DE10101725068B47D5CF2FC4AED49E2AADB4AB6166961D7AFA5AEEC5A7725E5B33022E6B289411566A338F10C315F5509C
310
1875D6865F34280C5FD4081906466767E3BA43C29AA04C468D956A07B9F72A4021EE6918C18B0FB5F092C79018FE56AE5CDCF8AC4A5C6E3C4663D472976A99DCF4552B076CE82E1DA95F7B743976136A87F68086EEA5416742DA7E9A9E277C6E6895C58C06BDFC6C174EF1A0243052138CEA23C2ED5B3D3CE53ABCD32A3319
310
F5C1A59BF7A5F9BA44A7D586FE718BABFCDF2D6A131AB2BB6D0A0F0CA7CF3D1E18AD723AA93DA24B3D27C9BE01504B03041400060808002249EE520F457FADF9000000960100003B0000006662782F37393734364338322D443732332D343845322D393730462D3733424132303635393837312F7265736F75726365732F63
310
6F72652E786D6C8550CB6E833010FC15B477F3308440651CA50DFD829E7AB3CC865A0936F2A3EAE7D70E546A4F952CAD353B33BB3BECF4B5DCB34FB44E193D40959790A19666527A1E20F82BE9203B71668DF1BF689069B1E0000906CE666BC2BA43D2688F3AA1DA4CB883C239F490C97BFC0CE0E4072E2217C14786BBE5AB
310
903731635EE51B8FB310D4B44BD514DDD455A105DEB7979696AF1DB91CDB91347D73207DFB529333A54D378ECF6375AE5991C49C79B5FC4C971685C709382D6945CA23A99AB7B27F4AEFF0CE8AC4E4CC791B6FDE87A6EB805B742658898E155BF78F6B58A7FF5D83D2BEA6BBEBA670C0ABB8E4A3C15991528AE51161AC2951
310
FE0D504B03041400060808002249EE5204FF1050EF000000B1010000310000006662782F37393734364338322D443732332D343845322D393730462D3733424132303635393837312F636F72652E786D6C8D504B6EC32014BC8AF5F6D8183BC1AE3051BF27E8AA3B04C44589C1E253F5F885D895DA5D24A487861966DEB0D3
310
F772ADBEB40FC6D909DA1A43A5AD74CAD8798214CF6880EAC499772EFEA14165C5A227283070367B97D61D92CE466D0B6A9DD23B2842D0112A79CD970982FCD48BA8458A99112EF52AE445CCBA6EEB8DC75934CBAF547A2DA256C009262DC214B5FD3B1E1FCA397CB0A630394BC9A8DDCAA8EC6ECE467BE074A4FDF17920E8
310
85920EF5C32B4123C56F88764F8F041F0FE3405BD614316721FABCF3FE49D9EE5EF926FC9739ADEA8ECCC6C68EEC869B22002F796E0F9C35A5C03C6EEDE659CAE63F504B03041400060808002249EE52DD88B87753010000DD0200000C0000006662782F636F72652E786D6C8D52CB6E833010FC15E4BB7985905019476943
310
BFA0A7DE1CDBA156C046C646F9FCDA3C443934AD40D89ADD99DD19814E8FB60906AE7BA164099230060197543121EB1258738347109C30D24A991F6D2090A4E525F030C0A8D6CA76334495345C7A542AC66790F43D3720A08DBB94A0A75FBC2521B1C675F4F7B023F44E6A1E26E1D48791B582CD54C19C9AB809AE012EF24B
310
9EC6EF477839E415CC8A6C0F8BFC6D07CF699A1DABEAB54ACE3B1479324646B4CB74AA39319C019CC66902E3034CB28FB878F1EFFE1345BE13A3DE68E7791EEADD017CBB3E5034E11B3DDBB1BFF5AC906697CE7A13A3073871EB8D058C229F8F3BC6F0B619BAC12E3F43AECD62E1EEA08153A374E62A4CD9B53490C672271D
310
07E383A2A9EA944781DF74D2273ACF355C5044D66E3562DCF56A8D9FBEDDA9E31A0EE61148A55BD2ACCB4D2BAEDF75D0C6D242A7AA51FA3FECC5EA1266E47F4CFC0D504B03041400060808002249EE52359598C008010000B201000008000000636F72652E786D6C8D50416EC32010FC0ADA3BB6C18E134798286DDC17F4D4
310
1B05E2A2D860191CB5BF2FC4AED4DE2A212D9A99DD995D76FA1C0774D7B337CEB640B20290B6D22963FB169670C5074027CE66E7C22F19202B46DD428281B37E76CBB441D2D9A06D42AD537A0385F73A009243FCB4E0E5871E4526961015FE964D42DE44AF3392AD3ACE82197F5AE5AC45D00A382D28C1C51E93EAB5688EE9
310
EDDE589E949C2D8B519B9551D1DD5C8D9E8137F5A5A6C5CB015FF67587ABA6DAE1A67E2EF199D2EAD0754F1D39972C4FCD9CF930C79DB7213167405EDC932FCB578AB377E7864D104329E4ECF005BC607922FE845E26F58FD0C686926E03D70E0F9CC4400F221AA70BC6F2386FACE9DAFC1B504B0102140014000608080022
310
49EE520000000000000000000000003700000000000000000000000000000000006662782F37393734364338322D443732332D343845322D393730462D3733424132303635393837312F617474726962757465732E62696E504B010214001400060808002249EE520000000000000000000000003500000000000000000000
310
000000550000006662782F37393734364338322D443732332D343845322D393730462D3733424132303635393837312F76657274696365732E62696E504B010214001400060808002249EE52F270F13306000000040000003600000000000000000000000000A80000006662782F37393734364338322D443732332D343845
310
322D393730462D3733424132303635393837312F747269616E676C65732E62696E504B010214001400060808002249EE5288E57597CD3F0000904100004200000000000000000000000000020100006662782F37393734364338322D443732332D343845322D393730462D3733424132303635393837312F7265736F757263
310
65732F322F305F67656E657269632E706E67504B010214001400060808002249EE5251464CB4890000004301000036000000000000000000000000002F4100006662782F37393734364338322D443732332D343845322D393730462D3733424132303635393837312F6469726563746F72792E786D6C504B01021400140006
310
0808002249EE52BA6A0EA03E070000541C000034000000000000000000000000000C4200006662782F37393734364338322D443732332D343845322D393730462D3733424132303635393837312F6F626A656374732E786D6C504B010214001400060808002249EE520CF9957FDF000000550100003C000000000000000000
310
000000009C4900006662782F37393734364338322D443732332D343845322D393730462D3733424132303635393837312F7265736F75726365732F322F636E782E786D6C504B010214001400060808002249EE52FF15A4A45D000000800000003A00000000000000000000000000D54A00006662782F37393734364338322D
310
443732332D343845322D393730462D3733424132303635393837312F7265736F75726365732F636E782E786D6C504B010214001400060808002249EE526B05C63D410100005605000030000000000000000000000000008A4B00006662782F37393734364338322D443732332D343845322D393730462D3733424132303635
310
393837312F636E782E786D6C504B010214001400060808002249EE52E3EDAD237F000000A30000000B00000000000000000000000000194D00006662782F636E782E786D6C504B010214001400060808002249EE52A6D797065F000000820000000700000000000000000000000000C14D0000636E782E786D6C504B010214
310
001400060808002249EE52ECFD112DA8000000260100001300000000000000000000000000454E00005B436F6E74656E745F54797065735D2E786D6C504B010214001400060808002249EE523DEE336E64000000790000001B000000000000000000000000001E4F00006175746F6465736B2D64657369676E2D7061636B61
310
67652E786D6C504B010214001400060808002249EE52216C69D6F40000008E0100003D00000000000000000000000000BB4F00006662782F37393734364338322D443732332D343845322D393730462D3733424132303635393837312F7265736F75726365732F322F636F72652E786D6C504B010214001400060808002249
310
EE520F457FADF9000000960100003B000000000000000000000000000A5100006662782F37393734364338322D443732332D343845322D393730462D3733424132303635393837312F7265736F75726365732F636F72652E786D6C504B010214001400060808002249EE5204FF1050EF000000B10100003100000000000000
310
0000000000005C5200006662782F37393734364338322D443732332D343845322D393730462D3733424132303635393837312F636F72652E786D6C504B010214001400060808002249EE52DD88B87753010000DD0200000C000000000000000000000000009A5300006662782F636F72652E786D6C504B0102140014000608
310
08002249EE52359598C008010000B2010000080000000000000000000000000017550000636F72652E786D6C504B050600000000120012002D060000455600000000
  0
XRECORD
  5
1E5
102
{ACAD_REACTORS
330
1E0
102
}
330
1E0
100
AcDbXrecord
280
     1
270
     1
271
     1
  0
XRECORD
  5
1E4
102
{ACAD_REACTORS
330
1E0
102
}
330
1E0
100
AcDbXrecord
280
     1
270
     1
271
     1
  0
XRECORD
  5
1E6
102
{ACAD_REACTORS
330
1E0
102
}
330
1E0
100
AcDbXrecord
280
     1
270
     1
271
     1
  0
XRECORD
  5
1E3
102
{ACAD_REACTORS
330
1E0
102
}
330
1E0
100
AcDbXrecord
280
     1
270
     1
271
     1
  0
XRECORD
  5
271A8
102
{ACAD_REACTORS
330
271A7
102
}
330
271A7
100
AcDbXrecord
280
     1
102
DISPLAYNAME
  1
Imperial24
102
FLAGS
 90
        0
  0
CELLSTYLEMAP
  5
2719D
102
{ACAD_REACTORS
330
1580D
102
}
330
1580D
100
AcDbCellStyleMap
 90
        3
300
CELLSTYLE
  1
TABLEFORMAT_BEGIN
 90
        5
170
     1
 91
        0
 92
    32768
 62
   257
 93
        1
300
CONTENTFORMAT
  1
CONTENTFORMAT_BEGIN
 90
        0
 91
        0
 92
      512
 93
        0
300

 40
0.0
140
1.0
 94
        5
 62
     0
340
A
144
0.25
309
CONTENTFORMAT_END
171
     1
301
MARGIN
  1
CELLMARGIN_BEGIN
 40
0.06
 40
0.06
 40
0.06
 40
0.06
 40
0.18
 40
0.18
309
CELLMARGIN_END
 94
        6
 95
        1
302
GRIDFORMAT
  1
GRIDFORMAT_BEGIN
 90
        0
 91
        1
 62
     0
 92
       -2
340
0
 93
        0
 40
0.045
309
GRIDFORMAT_END
 95
        2
302
GRIDFORMAT
  1
GRIDFORMAT_BEGIN
 90
        0
 91
        1
 62
     0
 92
       -2
340
0
 93
        0
 40
0.045
309
GRIDFORMAT_END
 95
        4
302
GRIDFORMAT
  1
GRIDFORMAT_BEGIN
 90
        0
 91
        1
 62
     0
 92
       -2
340
0
 93
        0
 40
0.045
309
GRIDFORMAT_END
 95
        8
302
GRIDFORMAT
  1
GRIDFORMAT_BEGIN
 90
        0
 91
        1
 62
     0
 92
       -2
340
0
 93
        0
 40
0.045
309
GRIDFORMAT_END
 95
       16
302
GRIDFORMAT
  1
GRIDFORMAT_BEGIN
 90
        0
 91
        1
 62
     0
 92
       -2
340
0
 93
        0
 40
0.045
309
GRIDFORMAT_END
 95
       32
302
GRIDFORMAT
  1
GRIDFORMAT_BEGIN
 90
        0
 91
        1
 62
     0
 92
       -2
340
0
 93
        0
 40
0.045
309
GRIDFORMAT_END
309
TABLEFORMAT_END
  1
CELLSTYLE_BEGIN
 90
        1
 91
        1
300
_TITLE
309
CELLSTYLE_END
300
CELLSTYLE
  1
TABLEFORMAT_BEGIN
 90
        5
170
     1
 91
        0
 92
        0
 62
   257
 93
        1
300
CONTENTFORMAT
  1
CONTENTFORMAT_BEGIN
 90
        0
 91
        0
 92
      512
 93
        0
300

 40
0.0
140
1.0
 94
        5
 62
     0
340
A
144
0.18
309
CONTENTFORMAT_END
171
     1
301
MARGIN
  1
CELLMARGIN_BEGIN
 40
0.06
 40
0.06
 40
0.06
 40
0.06
 40
0.18
 40
0.18
309
CELLMARGIN_END
 94
        6
 95
        1
302
GRIDFORMAT
  1
GRIDFORMAT_BEGIN
 90
        0
 91
        1
 62
     0
 92
       -2
340
0
 93
        0
 40
0.045
309
GRIDFORMAT_END
 95
        2
302
GRIDFORMAT
  1
GRIDFORMAT_BEGIN
 90
        0
 91
        1
 62
     0
 92
       -2
340
0
 93
        0
 40
0.045
309
GRIDFORMAT_END
 95
        4
302
GRIDFORMAT
  1
GRIDFORMAT_BEGIN
 90
        0
 91
        1
 62
     0
 92
       -2
340
0
 93
        0
 40
0.045
309
GRIDFORMAT_END
 95
        8
302
GRIDFORMAT
  1
GRIDFORMAT_BEGIN
 90
        0
 91
        1
 62
     0
 92
       -2
340
0
 93
        0
 40
0.045
309
GRIDFORMAT_END
 95
       16
302
GRIDFORMAT
  1
GRIDFORMAT_BEGIN
 90
        0
 91
        1
 62
     0
 92
       -2
340
0
 93
        0
 40
0.045
309
GRIDFORMAT_END
 95
       32
302
GRIDFORMAT
  1
GRIDFORMAT_BEGIN
 90
        0
 91
        1
 62
     0
 92
       -2
340
0
 93
        0
 40
0.045
309
GRIDFORMAT_END
309
TABLEFORMAT_END
  1
CELLSTYLE_BEGIN
 90
        2
 91
        1
300
_HEADER
309
CELLSTYLE_END
300
CELLSTYLE
  1
TABLEFORMAT_BEGIN
 90
        5
170
     1
 91
        0
 92
        0
 62
   257
 93
        1
300
CONTENTFORMAT
  1
CONTENTFORMAT_BEGIN
 90
        0
 91
        0
 92
      512
 93
        0
300

 40
0.0
140
1.0
 94
        2
 62
     0
340
A
144
0.18
309
CONTENTFORMAT_END
171
     1
301
MARGIN
  1
CELLMARGIN_BEGIN
 40
0.06
 40
0.06
 40
0.06
 40
0.06
 40
0.18
 40
0.18
309
CELLMARGIN_END
 94
        6
 95
        1
302
GRIDFORMAT
  1
GRIDFORMAT_BEGIN
 90
        0
 91
        1
 62
     0
 92
       -2
340
0
 93
        0
 40
0.045
309
GRIDFORMAT_END
 95
        2
302
GRIDFORMAT
  1
GRIDFORMAT_BEGIN
 90
        0
 91
        1
 62
     0
 92
       -2
340
0
 93
        0
 40
0.045
309
GRIDFORMAT_END
 95
        4
302
GRIDFORMAT
  1
GRIDFORMAT_BEGIN
 90
        0
 91
        1
 62
     0
 92
       -2
340
0
 93
        0
 40
0.045
309
GRIDFORMAT_END
 95
        8
302
GRIDFORMAT
  1
GRIDFORMAT_BEGIN
 90
        0
 91
        1
 62
     0
 92
       -2
340
0
 93
        0
 40
0.045
309
GRIDFORMAT_END
 95
       16
302
GRIDFORMAT
  1
GRIDFORMAT_BEGIN
 90
        0
 91
        1
 62
     0
 92
       -2
340
0
 93
        0
 40
0.045
309
GRIDFORMAT_END
 95
       32
302
GRIDFORMAT
  1
GRIDFORMAT_BEGIN
 90
        0
 91
        1
 62
     0
 92
       -2
340
0
 93
        0
 40
0.045
309
GRIDFORMAT_END
309
TABLEFORMAT_END
  1
CELLSTYLE_BEGIN
 90
        3
 91
        2
300
_DATA
309
CELLSTYLE_END
  0
ENDSEC
  0
SECTION
  2
ACDSDATA
 70
     2
 71
     8
  0
ACDSSCHEMA
 90
        0
  1
AcDb_Thumbnail_Schema
  2
AcDbDs::ID
280
    10
 91
        8
  2
Thumbnail_Data
280
    15
 91
        0
101
ACDSRECORD
 95
        0
 90
        1
  2
AcDbDs::TreatedAsObjectData
280
     1
291
     1
101
ACDSRECORD
 95
        0
 90
        2
  2
AcDbDs::Legacy
280
     1
291
     1
101
ACDSRECORD
  1
AcDbDs::ID
 90
        3
  2
AcDs:Indexable
280
     1
291
     1
101
ACDSRECORD
  1
AcDbDs::ID
 90
        4
  2
AcDbDs::HandleAttribute
280
     7
282
     1
  0
ACDSSCHEMA
 90
        1
  1
AcDbDs::TreatedAsObjectDataSchema
  2
AcDbDs::TreatedAsObjectData
280
     1
 91
        0
  0
ACDSSCHEMA
 90
        2
  1
AcDbDs::LegacySchema
  2
AcDbDs::Legacy
280
     1
 91
        0
  0
ACDSSCHEMA
 90
        3
  1
AcDbDs::IndexedPropertySchema
  2
AcDs:Indexable
280
     1
 91
        0
  0
ACDSSCHEMA
 90
        4
  1
AcDbDs::HandleAttributeSchema
  2
AcDbDs::HandleAttribute
280
     7
 91
        1
284
     1
  0
ACDSRECORD
 90
        0
  2
AcDbDs::ID
280
    10
320
21E
  2
Thumbnail_Data
280
    15
 94
     2382
310
89504E470D0A1A0A0000000D49484452000000B40000010008030000002D3FACD700000300504C5445FFFFFFFFFFFFFFFFFF0000000000000000000000000000000000000000000000000000330000660000990000CC0000FF0033000033330033660033990033CC0033FF0066000066330066660066990066CC0066FF0099
310
000099330099660099990099CC0099FF00CC0000CC3300CC6600CC9900CCCC00CCFF00FF0000FF3300FF6600FF9900FFCC00FFFF3300003300333300663300993300CC3300FF3333003333333333663333993333CC3333FF3366003366333366663366993366CC3366FF3399003399333399663399993399CC3399FF33CC00
310
33CC3333CC6633CC9933CCCC33CCFF33FF0033FF3333FF6633FF9933FFCC33FFFF6600006600336600666600996600CC6600FF6633006633336633666633996633CC6633FF6666006666336666666666996666CC6666FF6699006699336699666699996699CC6699FF66CC0066CC3366CC6666CC9966CCCC66CCFF66FF0066
310
FF3366FF6666FF9966FFCC66FFFF9900009900339900669900999900CC9900FF9933009933339933669933999933CC9933FF9966009966339966669966999966CC9966FF9999009999339999669999999999CC9999FF99CC0099CC3399CC6699CC9999CCCC99CCFF99FF0099FF3399FF6699FF9999FFCC99FFFFCC0000CC00
310
33CC0066CC0099CC00CCCC00FFCC3300CC3333CC3366CC3399CC33CCCC33FFCC6600CC6633CC6666CC6699CC66CCCC66FFCC9900CC9933CC9966CC9999CC99CCCC99FFCCCC00CCCC33CCCC66CCCC99CCCCCCCCCCFFCCFF00CCFF33CCFF66CCFF99CCFFCCCCFFFFFF0000FF0033FF0066FF0099FF00CCFF00FFFF3300FF3333
310
FF3366FF3399FF33CCFF33FFFF6600FF6633FF6666FF6699FF66CCFF66FFFF9900FF9933FF9966FF9999FF99CCFF99FFFFCC00FFCC33FFCC66FFCC99FFCCCCFFCCFFFFFF00FFFF33FFFF66FFFF99FFFFCCFFFFFF0000000D0D0D1A1A1A2828283535354343435050505D5D5D6B6B6B787878868686939393A1A1A1AEAEAEBB
310
BBBBC9C9C9D6D6D6E4E4E4F1F1F1FFFFFF000000000000000000000000000000000000000000000000000000000000AD4AB4E4000006094944415478DAEDDD5972E33A0C0550EC7F997725AFBA124B1C4002204159A977FDD35D1D393EA2210EE0D0823FF812C81F7C114D34D144134D34D144134D34D144134D34D144134D
310
34D144134D34D144134D34D144A7A1AFE9D3BF83BEB1DF70638F7C15FAEBD1903E301E8563299AF5B73E06C7F23B503C90FD1DBD0B5D9B3F855E5ACF1738F6CC3228E3B370AC551B7A54E32138962EC6F8BD35F40C1BC9E6CA099C793011BD14C31AAFBFB7DF6552E970F8C3B9EA6B4C1C28AA4268D5CB63E8F633615CF8F3
310
0770A4EDC1EA650301D41628B9ED412836CCFE06D44736BBB1472C3434F820349AF046221CF14B8682B698EB7F488463ED124DD056855DB9F721BDE8C6FA157A516114DEC3DB7D14AD1715E666E55DF1E2C6FE052DE1DF5B94D0980FD81E46D7CF625537C2DD56C5D8C830DF706753AF8D7AF00DB452238FD450063FA1F249
310
1ED878AA86AE09423044D2D1F6F045897760B327B48B56C75D73B351430655F1B13A8C81AED2658DABCFA1D581EE6C7019E8C19D448FDA3BC89EFA385AEFCFEEA99F406B8DFD96FA29741B29D889EB3D7417B056FB80BE49B1EAF06C34A46F4B028DE672C587BD9F427E73ECA1CEDAA4BB81F3685C1761D86A4CD9586A1937
310
EEE92AE8E27BF7778B0785FD343A387252D54879D4E6293BA82DB7738251E9DAC1393275F4EAA7E886D845B9E3C3B5A7187B95DAA8DCF06B967E58E8EED45717C29F0370FC56A8C971FCDC5295FA428DF637C8183D913B0FA2E2463B30BD4B1C23C9EC03240D2D75A7BE0EDE6E220E7D0601AB4D720EFA76E313ED4A4EB7DB
310
DEBDDA654B4317D98DDF42BF6FE1AE30EA02C7A23A135D54177D57B9FCCB5DDC6BEA6C74DBA7C72471E33905E0297459AE30124E6B0172087DF79126D3A02EF5B36899A9503FAB41F50E5ACC9C2CCCD9E437A231CCDA855BF3A7D0D64C04B036523D89B6324AC0D293B3D5CBB3D0E32710450F65E553CE95F4BC8A8E77AC87
310
89B44434C46A57963E05C0B9989ED772651F25D4BC98E60D34ACE6BB9A16F07FE14D9F37156D143304E5FD7DDA46C758E3A75E3F82B6C25904A24C03C098A5BBC427D073F395E2D3EAB1E93A80EBAD928F366343454BB90E4B4F3C7E7EFB01B4D1399AA1EF015A3F355074D0F3D1D36A430CF4A0C0CB78DF46BB66AB9A9F99
310
E872447C952E26999B6DB423A3885153AC4E33A21DFF60771E1971B3ABA4FB2F07896884CD935A713CCD884074F856FB20648EA2DB3A691F5D3508CE71E0025AAA904E8869BBE7D02DFFFA3EDAEE95AB53DFB1F09003687768BC093D8F0D79171A5D683B207B6848121A465E63170D398816D73AD12534E4205AD42CFA0BD1
310
18D4CCA3E4DD5BD1B31AE5CD6899AF330EA021FF7BF43CC7710C8D73686353510C5D656BBE88C6221A5F2D697857C041C98B3D8F4639BC0DA181AC0ED31A5A193D98687B88B4873653364AFECE42C3374773065D0F1FEE0237D048590139FB25061ACA064A8C3731D6C9D29491CB127A3AB0EFD1758EE91B688C975328F076
310
E26E77F3CD1A1AB03229D22C18A992B1DB3B86C63DEA35B356E068E73A76D1C3E553F0656E3CF0369E12F66621161F08ED45BF5BC1F0B76FFDEE003AB88D004AF59DB3DD502FBD58B24EFC5935C9410B7CE8FD8DBE4844FBE203B289B6A7C5D3D1904D349C8F71221AB289F69AB7B62D2ACFCFDA8338EBB164A305FA272FA1
310
23F79C840E6F9355D1497B6C9DE8E08EA241931BDE23B374559D72DF45A76DC176A18BBCEF2A3AF6CE04F4F6C962E1FADD7DFC8BB3D70A9C3787BB9176A7355CDAF1A00A1DF6A00DEDD68701EB31B573D881BDC666B503998C966A8F4546091E39FEC53BDE5874AF7756D6E04B0F42CA50471E78C198087B25FA03CF3A69EC
310
E153549172F4EC17CEACDD3FE4974739134D34D144134D34D144134D34D144134D34D144134D34D144134D34D1447F1D7D9D7AD01C4758FEA45E3A8384FFF367F7EDE8CCB857E8D5F7716D61DCFE0F7F92D0F7B9009F49F35B77A12FB8BC112D355A8AE32CE515E8E2CCA5EA54D3EAACD0264C5E886E9ECEBA94DF87AE63BA
310
2875B917C0BD152DC50E856249E6DBD198A15FF920CA7D74428596E2476CC689269A68A289269A68A289269A68A289269A68A289269A68A289269A68A289269A68A2BB65317FE1F527D1FF011C97BF6F6B6C70A90000000049454E44AE426082
  0
ACDSRECORD
 90
        0
  2
AcDbDs::ID
280
    10
320
21D
  2
Thumbnail_Data
280
    15
 94
     1615
310
89504E470D0A1A0A0000000D494844520000010000000085080300000083A6D68B00000300504C5445000000FFFFFF0000000000000000000000000000000000000000000000000000000000330000660000990000CC0000FF0033000033330033660033990033CC0033FF0066000066330066660066990066CC0066FF0099
310
000099330099660099990099CC0099FF00CC0000CC3300CC6600CC9900CCCC00CCFF00FF0000FF3300FF6600FF9900FFCC00FFFF3300003300333300663300993300CC3300FF3333003333333333663333993333CC3333FF3366003366333366663366993366CC3366FF3399003399333399663399993399CC3399FF33CC00
310
33CC3333CC6633CC9933CCCC33CCFF33FF0033FF3333FF6633FF9933FFCC33FFFF6600006600336600666600996600CC6600FF6633006633336633666633996633CC6633FF6666006666336666666666996666CC6666FF6699006699336699666699996699CC6699FF66CC0066CC3366CC6666CC9966CCCC66CCFF66FF0066
310
FF3366FF6666FF9966FFCC66FFFF9900009900339900669900999900CC9900FF9933009933339933669933999933CC9933FF9966009966339966669966999966CC9966FF9999009999339999669999999999CC9999FF99CC0099CC3399CC6699CC9999CCCC99CCFF99FF0099FF3399FF6699FF9999FFCC99FFFFCC0000CC00
310
33CC0066CC0099CC00CCCC00FFCC3300CC3333CC3366CC3399CC33CCCC33FFCC6600CC6633CC6666CC6699CC66CCCC66FFCC9900CC9933CC9966CC9999CC99CCCC99FFCCCC00CCCC33CCCC66CCCC99CCCCCCCCCCFFCCFF00CCFF33CCFF66CCFF99CCFFCCCCFFFFFF0000FF0033FF0066FF0099FF00CCFF00FFFF3300FF3333
310
FF3366FF3399FF33CCFF33FFFF6600FF6633FF6666FF6699FF66CCFF66FFFF9900FF9933FF9966FF9999FF99CCFF99FFFFCC00FFCC33FFCC66FFCC99FFCCCCFFCCFFFFFF00FFFF33FFFF66FFFF99FFFFCCFFFFFF0000000D0D0D1A1A1A2828283535354343435050505D5D5D6B6B6B787878868686939393A1A1A1AEAEAEBB
310
BBBBC9C9C9D6D6D6E4E4E4F1F1F1FFFFFF0000000000000000000000000000000000000000000000000000000000003AE5ACE90000030A4944415478DAEDDDDB6E2B210C0550FFFFFFEEF74A2D3036D833939B1A9B9D87AA3A6DA378058C0D4447E4DD0F7CF421DFFF40DA2727000108400002108000042000010840000210
310
80000420000108408077BFC6577776B303A0296C0A70BCFD4F8F83D400685F5AF44F21640618F1AB21F03042628016BF0AB805FF10425E8076B287E5571F3BF44B0BD003C4F46F47F0F70C9202A877F908134B5EBC6190130066D6778931059A4ACF8A950146847FF960C46FE6C9A9414A00AC13C2D445106761A80CD02274
310
E26F0BE598153500705117C39406BD4E0A080A010820986A219D0F82A1930F206E0D6C5FD446BEAD12760030D5F054276D03A0D7479B100B02A8E4E792E881713FA1244A82BF233BCAF2765D2C0C1037C15A000F4CA86F06802C2DA0EE90562081D941C90FA0A354B77ED106B93364D41A880A5300F376E86CE04C03482100
310
BD256404E6EAC76B1FEB2441D815B06B78E910950074BBEFBCE5AE4059005B0A49DCF8A132802CFB7F9B01E891D0337E2C500EC04E7844FB3F085AA6F4006B0F38F6479D3F5AF2637A00A7075675D1FC47FE5952EE6570EE8B600B254CD5603180F94DB6119AD321889B1CB203AC3D0F6CFBDFAB6501BC9491BD14763A9E69
310
D48BD8F80BED07F8492E287A478550663FC05FCF43801E7A0D807839DF066029FFE41A00520A408F82F528D0DB06F1B7CEB34E01B3D2CB5E00CB0D00D91B407607589A81ED01B053127447407436EEEE145504388AC50900750E47630000CEF712DCA02A09307B4C17670A00489CEABD3B12E3044DCA00D88B70121445EE40
310
2802E09F739CDE88F55BA15200E7D7A2A38BD3F901CCC6D7E993A0C845491FC03D0C99578EC20027D7A18F85A3CA5D6107005753007272892C25004C6C975930FC59EA4F8D3945411867A90F4CD8C2D7BD227C3BCC0A9F1E0F603601381B1DB853225605309D90EC0AF0DF4F4E000210800004200001084000021080000420
310
0001084000027CE435BEF43F499503907D0164F918F91D816A00E6EB8E2360FD9EAB000108400002108000042000010840000210800004200001084000022403F8E8E3ED2FF7079FBBB88E8803F6610000000049454E44AE426082
  0
ENDSEC
  0
EOF
