  0
SECTION
  2
HEADER
  9
$ACADVER
  1
AC1014
  9
$ACADMAINTVER
 70
     9
  9
$DWGCODEPAGE
  3
ANSI_1252
  9
$INSBASE
 10
0.0
 20
0.0
 30
0.0
  9
$EXTMIN
 10
-0.2541176498351767
 20
0.0018743118731628
 30
0.0
  9
$EXTMAX
 10
15.5487667767954
 20
30.47303126469196
 30
0.0
  9
$LIMMIN
 10
0.0
 20
0.0
  9
$LIMMAX
 10
12.0
 20
9.0
  9
$ORTHOMODE
 70
     1
  9
$REGENMODE
 70
     1
  9
$FILLMODE
 70
     1
  9
$QTEXTMODE
 70
     0
  9
$MIRRTEXT
 70
     0
  9
$DRAGMODE
 70
     2
  9
$LTSCALE
 40
1.5
  9
$OSMODE
 70
     0
  9
$ATTMODE
 70
     1
  9
$TEXTSIZE
 40
0.75
  9
$TRACEWID
 40
0.05
  9
$TEXTSTYLE
  7
STANDARD
  9
$CLAYER
  8
USP
  9
$CELTYPE
  6
BYLAYER
  9
$CECOLOR
 62
   256
  9
$CELTSCALE
 40
1.0
  9
$DELOBJ
 70
     1
  9
$DISPSILH
 70
     1
  9
$DIMSCALE
 40
3.0
  9
$DIMASZ
 40
0.125
  9
$DIMEXO
 40
0.0625
  9
$DIMDLI
 40
0.37890625
  9
$DIMRND
 40
0.0
  9
$DIMDLE
 40
0.0
  9
$DIMEXE
 40
0.09375
  9
$DIMTP
 40
0.0
  9
$DIMTM
 40
0.0
  9
$DIMTXT
 40
0.109375
  9
$DIMCEN
 40
0.0
  9
$DIMTSZ
 40
0.0
  9
$DIMTOL
 70
     0
  9
$DIMLIM
 70
     0
  9
$DIMTIH
 70
     1
  9
$DIMTOH
 70
     1
  9
$DIMSE1
 70
     0
  9
$DIMSE2
 70
     0
  9
$DIMTAD
 70
     0
  9
$DIMZIN
 70
     8
  9
$DIMBLK
  1

  9
$DIMASO
 70
     1
  9
$DIMSHO
 70
     1
  9
$DIMPOST
  1

  9
$DIMAPOST
  1

  9
$DIMALT
 70
     0
  9
$DIMALTD
 70
     2
  9
$DIMALTF
 40
25.4
  9
$DIMLFAC
 40
1.0
  9
$DIMTOFL
 70
     0
  9
$DIMTVP
 40
0.0
  9
$DIMTIX
 70
     0
  9
$DIMSOXD
 70
     0
  9
$DIMSAH
 70
     0
  9
$DIMBLK1
  1

  9
$DIMBLK2
  1

  9
$DIMSTYLE
  2
STANDARD
  9
$DIMCLRD
 70
     0
  9
$DIMCLRE
 70
     0
  9
$DIMCLRT
 70
   256
  9
$DIMTFAC
 40
1.0
  9
$DIMGAP
 40
0.08984375
  9
$DIMJUST
 70
     0
  9
$DIMSD1
 70
     0
  9
$DIMSD2
 70
     0
  9
$DIMTOLJ
 70
     1
  9
$DIMTZIN
 70
     0
  9
$DIMALTZ
 70
     0
  9
$DIMALTTZ
 70
     0
  9
$DIMFIT
 70
     3
  9
$DIMUPT
 70
     1
  9
$DIMUNIT
 70
     7
  9
$DIMDEC
 70
     4
  9
$DIMTDEC
 70
     4
  9
$DIMALTU
 70
     2
  9
$DIMALTTD
 70
     2
  9
$DIMTXSTY
  7
STANDARD
  9
$DIMAUNIT
 70
     0
  9
$LUNITS
 70
     5
  9
$LUPREC
 70
     6
  9
$SKETCHINC
 40
0.1
  9
$FILLETRAD
 40
0.0
  9
$AUNITS
 70
     0
  9
$AUPREC
 70
     1
  9
$MENU
  1
CUSTOM
  9
$ELEVATION
 40
0.0
  9
$PELEVATION
 40
0.0
  9
$THICKNESS
 40
0.0
  9
$LIMCHECK
 70
     0
  9
$BLIPMODE
 70
     0
  9
$CHAMFERA
 40
0.0
  9
$CHAMFERB
 40
0.0
  9
$CHAMFERC
 40
0.0
  9
$CHAMFERD
 40
0.0
  9
$SKPOLY
 70
     0
  9
$TDCREATE
 40
2451263.663231366
  9
$TDUPDATE
 40
2452768.671634838
  9
$TDINDWG
 40
0.6218879167
  9
$TDUSRTIMER
 40
0.6218879167
  9
$USRTIMER
 70
     1
  9
$ANGBASE
 50
0.0
  9
$ANGDIR
 70
     0
  9
$PDMODE
 70
     0
  9
$PDSIZE
 40
0.0
  9
$PLINEWID
 40
0.0
  9
$COORDS
 70
     2
  9
$SPLFRAME
 70
     0
  9
$SPLINETYPE
 70
     6
  9
$SPLINESEGS
 70
     8
  9
$ATTDIA
 70
     0
  9
$ATTREQ
 70
     0
  9
$HANDLING
 70
     1
  9
$HANDSEED
  5
59
  9
$SURFTAB1
 70
     6
  9
$SURFTAB2
 70
     6
  9
$SURFTYPE
 70
     6
  9
$SURFU
 70
     6
  9
$SURFV
 70
     6
  9
$UCSNAME
  2

  9
$UCSORG
 10
0.0
 20
0.0
 30
0.0
  9
$UCSXDIR
 10
1.0
 20
0.0
 30
0.0
  9
$UCSYDIR
 10
0.0
 20
1.0
 30
0.0
  9
$PUCSNAME
  2

  9
$PUCSORG
 10
0.0
 20
0.0
 30
0.0
  9
$PUCSXDIR
 10
1.0
 20
0.0
 30
0.0
  9
$PUCSYDIR
 10
0.0
 20
1.0
 30
0.0
  9
$USERI1
 70
     0
  9
$USERI2
 70
     0
  9
$USERI3
 70
     0
  9
$USERI4
 70
     0
  9
$USERI5
 70
     0
  9
$USERR1
 40
0.0
  9
$USERR2
 40
0.0
  9
$USERR3
 40
0.0
  9
$USERR4
 40
0.0
  9
$USERR5
 40
0.0
  9
$WORLDVIEW
 70
     1
  9
$SHADEDGE
 70
     3
  9
$SHADEDIF
 70
    70
  9
$TILEMODE
 70
     1
  9
$MAXACTVP
 70
    16
  9
$PINSBASE
 10
0.0
 20
0.0
 30
0.0
  9
$PLIMCHECK
 70
     0
  9
$PEXTMIN
 10
1.000000000000000E+20
 20
1.000000000000000E+20
 30
1.000000000000000E+20
  9
$PEXTMAX
 10
-1.000000000000000E+20
 20
-1.000000000000000E+20
 30
-1.000000000000000E+20
  9
$PLIMMIN
 10
0.0
 20
0.0
  9
$PLIMMAX
 10
12.0
 20
9.0
  9
$UNITMODE
 70
     0
  9
$VISRETAIN
 70
     0
  9
$PLINEGEN
 70
     0
  9
$PSLTSCALE
 70
     0
  9
$TREEDEPTH
 70
  3020
  9
$PICKSTYLE
 70
     0
  9
$CMLSTYLE
  2
STANDARD
  9
$CMLJUST
 70
     0
  9
$CMLSCALE
 40
1.0
  9
$PROXYGRAPHICS
 70
     1
  9
$MEASUREMENT
 70
     0
  0
ENDSEC
  0
SECTION
  2
CLASSES
  0
CLASS
  1
ACDBDICTIONARYWDFLT
  2
AcDbDictionaryWithDefault
  3
AutoCAD 2000
 90
        0
280
     0
281
     0
  0
CLASS
  1
ACDBPLACEHOLDER
  2
AcDbPlaceHolder
  3
AutoCAD 2000
 90
        0
280
     0
281
     0
  0
CLASS
  1
LAYOUT
  2
AcDbLayout
  3
AutoCAD 2000
 90
        0
280
     0
281
     0
  0
CLASS
  1
DICTIONARYVAR
  2
AcDbDictionaryVar
  3
"AutoCAD"
 90
        0
280
     0
281
     0
  0
CLASS
  1
LONG_TRANSACTION
  2
AcDbLongTransaction
  3
AutoCAD 2000
 90
        0
280
     0
281
     0
  0
CLASS
  1
LWPOLYLINE
  2
AcDbPolyline
  3
"AutoCAD"
 90
        0
280
     0
281
     1
  0
CLASS
  1
HATCH
  2
AcDbHatch
  3
"ACAD_SEDONA"
 90
        0
280
     0
281
     1
  0
CLASS
  1
XRECORD
  2
AcDbXrecord
  3
"<Built In>"
 90
        0
280
     0
281
     0
  0
CLASS
  1
LONG_TRANSACTION
  2
AcDbLongTransaction
  3
AutoCAD 2000
 90
        0
280
     0
281
     0
  0
CLASS
  1
LWPOLYLINE
  2
AcDbPolyline
  3
"AutoCAD"
 90
        0
280
     0
281
     1
  0
CLASS
  1
HATCH
  2
AcDbHatch
  3
"ACAD_SEDONA"
 90
        0
280
     0
281
     1
  0
CLASS
  1
XRECORD
  2
AcDbXrecord
  3
"<Built In>"
 90
        0
280
     0
281
     0
  0
ENDSEC
  0
SECTION
  2
TABLES
  0
TABLE
  2
VPORT
  5
49
100
AcDbSymbolTable
 70
     1
  0
VPORT
  5
4A
100
AcDbSymbolTableRecord
100
AcDbViewportTableRecord
  2
*ACTIVE
 70
     0
 10
0.0
 20
0.0
 11
1.0
 21
1.0
 12
-10.96586030381884
 22
4.503943546462192
 13
0.0
 23
0.0
 14
1.0
 24
1.0
 15
0.0
 25
0.0
 16
0.0
 26
0.0
 36
1.0
 17
18.06596660309899
 27
8.119903606830565
 37
5.823974399722915
 40
32.97485284454612
 41
1.457627118644067
 42
50.0
 43
10.55307667737539
 44
10.55307667737539
 50
0.0
 51
0.0
 71
     0
 72
   100
 73
     1
 74
     1
 75
     0
 76
     0
 77
     0
 78
     0
  0
ENDTAB
  0
TABLE
  2
LTYPE
  5
44
100
AcDbSymbolTable
 70
     1
  0
LTYPE
  5
45
100
AcDbSymbolTableRecord
100
AcDbLinetypeTableRecord
  2
BYBLOCK
 70
     0
  3

 72
    65
 73
     0
 40
0.0
  0
LTYPE
  5
46
100
AcDbSymbolTableRecord
100
AcDbLinetypeTableRecord
  2
BYLAYER
 70
     0
  3

 72
    65
 73
     0
 40
0.0
  0
LTYPE
  5
5
100
AcDbSymbolTableRecord
100
AcDbLinetypeTableRecord
  2
CONTINUOUS
 70
     0
  3
Solid line
 72
    65
 73
     0
 40
0.0
  0
ENDTAB
  0
TABLE
  2
LAYER
  5
42
100
AcDbSymbolTable
 70
     4
  0
LAYER
  5
1B
100
AcDbSymbolTableRecord
100
AcDbLayerTableRecord
  2
0
 70
     0
 62
     7
  6
CONTINUOUS
  0
LAYER
  5
D
102
{ACAD_XDICTIONARY
360
E
102
}
100
AcDbSymbolTableRecord
100
AcDbLayerTableRecord
  2
USP-GEO
 70
     0
 62
     7
  6
CONTINUOUS
  0
LAYER
  5
8
102
{ACAD_XDICTIONARY
360
9
102
}
100
AcDbSymbolTableRecord
100
AcDbLayerTableRecord
  2
USP-TXT
 70
     0
 62
     7
  6
CONTINUOUS
  0
LAYER
  5
4
100
AcDbSymbolTableRecord
100
AcDbLayerTableRecord
  2
USP
 70
     0
 62
     7
  6
CONTINUOUS
  0
ENDTAB
  0
TABLE
  2
STYLE
  5
43
100
AcDbSymbolTable
 70
     1
  0
STYLE
  5
B
100
AcDbSymbolTableRecord
100
AcDbTextStyleTableRecord
  2
STANDARD
 70
     0
 40
0.0
 41
1.0
 50
0.0
 71
     0
 42
0.75
  3
txt
  4

  0
ENDTAB
  0
TABLE
  2
VIEW
  5
47
100
AcDbSymbolTable
 70
     0
  0
ENDTAB
  0
TABLE
  2
UCS
  5
48
100
AcDbSymbolTable
 70
     0
  0
ENDTAB
  0
TABLE
  2
APPID
  5
4B
100
AcDbSymbolTable
 70
     1
  0
APPID
  5
4C
100
AcDbSymbolTableRecord
100
AcDbRegAppTableRecord
  2
ACAD
 70
     0
  0
ENDTAB
  0
TABLE
  2
DIMSTYLE
  5
4D
100
AcDbSymbolTable
 70
     1
  0
DIMSTYLE
105
55
100
AcDbSymbolTableRecord
100
AcDbDimStyleTableRecord
  2
STANDARD
 70
     0
  3

  4

  5

  6

  7

 40
1.0
 41
0.18
 42
0.0625
 43
0.38
 44
0.18
 45
0.0
 46
0.0
 47
0.0
 48
0.0
140
0.18
141
0.09
142
0.0
143
25.4
144
1.0
145
0.0
146
1.0
147
0.09
 71
     0
 72
     0
 73
     1
 74
     1
 75
     0
 76
     0
 77
     0
 78
     0
170
     0
171
     2
172
     0
173
     0
174
     0
175
     0
176
     0
177
     0
178
     0
270
     2
271
     4
272
     4
273
     2
274
     2
340
B
275
     0
280
     0
281
     0
282
     0
283
     1
284
     0
285
     0
286
     0
287
     3
288
     0
  0
ENDTAB
  0
TABLE
  2
BLOCK_RECORD
  5
1
100
AcDbSymbolTable
 70
     3
  0
BLOCK_RECORD
  5
2
102
{ACAD_XDICTIONARY
360
39
102
}
100
AcDbSymbolTableRecord
100
AcDbBlockTableRecord
  2
*MODEL_SPACE
  0
BLOCK_RECORD
  5
3D
102
{ACAD_XDICTIONARY
360
3E
102
}
100
AcDbSymbolTableRecord
100
AcDbBlockTableRecord
  2
*PAPER_SPACE
  0
BLOCK_RECORD
  5
6
100
AcDbSymbolTableRecord
100
AcDbBlockTableRecord
  2
TDX14_T
  0
BLOCK_RECORD
  5
1E
100
AcDbSymbolTableRecord
100
AcDbBlockTableRecord
  2
TDX14_F
  0
BLOCK_RECORD
  5
31
100
AcDbSymbolTableRecord
100
AcDbBlockTableRecord
  2
TDX14_S
  0
ENDTAB
  0
ENDSEC
  0
SECTION
  2
BLOCKS
  0
BLOCK
  5
3B
100
AcDbEntity
  8
0
100
AcDbBlockBegin
  2
*MODEL_SPACE
 70
     0
 10
0.0
 20
0.0
 30
0.0
  3
*MODEL_SPACE
  1

  0
ENDBLK
  5
3C
100
AcDbEntity
  8
0
100
AcDbBlockEnd
  0
BLOCK
  5
40
100
AcDbEntity
 67
     1
  8
0
100
AcDbBlockBegin
  2
*PAPER_SPACE
 70
     0
 10
0.0
 20
0.0
 30
0.0
  3
*PAPER_SPACE
  1

  0
ENDBLK
  5
41
100
AcDbEntity
 67
     1
  8
0
100
AcDbBlockEnd
  0
BLOCK
  5
1A
100
AcDbEntity
  8
0
100
AcDbBlockBegin
  2
TDX14_T
 70
     0
 10
0.0
 20
0.0
 30
0.0
  3
TDX14_T
  1

  0
TEXT
  5
7
100
AcDbEntity
  8
USP-TXT
100
AcDbText
 10
-0.5913918043437696
 20
-1.931880529111023
 30
0.0
 40
0.296875
  1
TDX14 - TOP VIEW
 72
     1
 11
1.734129028989563
 21
-1.931880529111023
 31
0.0
100
AcDbText
  0
LWPOLYLINE
  5
C
100
AcDbEntity
  8
USP-GEO
100
AcDbPolyline
 90
        2
 70
   129
 43
0.0
 10
3.164158272097573
 20
0.0
 10
0.3040997858815544
 20
0.0
  0
LWPOLYLINE
  5
10
100
AcDbEntity
  8
USP-GEO
100
AcDbPolyline
 90
       10
 70
   129
 43
0.0
 10
0.3040997858815544
 20
0.0
 10
0.3040997858815544
 20
3.43936857832038
 10
0.3040997858815544
 20
3.652238428437467
 10
3.164158272097573
 20
3.652238428437467
 10
3.164158272097573
 20
3.43936857832038
 10
0.3040997858815544
 20
3.43936857832038
 10
3.164158272097573
 20
3.43936857832038
 10
3.164158272097573
 20
3.652238428437467
 10
0.3040997858815544
 20
3.652238428437467
 10
0.3040997858815544
 20
3.43936857832038
  0
LWPOLYLINE
  5
11
100
AcDbEntity
  8
USP-GEO
100
AcDbPolyline
 90
       16
 70
   128
 43
0.0
 10
0.0
 20
2.860058486216018
 10
0.0
 20
3.621828449849314
 10
0.2432798287052442
 20
3.621828449849314
 10
0.0
 20
3.621828449849314
 10
0.0
 20
2.860058486216018
 10
0.0
 20
0.0
 10
0.2432798287052442
 20
0.0
 10
0.3040997858815544
 20
0.0
 10
0.2432798287052442
 20
0.0
 10
0.2432798287052442
 20
2.860058486216018
 10
0.0
 20
2.860058486216018
 10
0.0
 20
0.0
 10
0.2432798287052442
 20
0.0
 10
0.2432798287052442
 20
2.860058486216018
 10
0.2432798287052442
 20
3.621828449849314
 10
0.2432798287052442
 20
2.860058486216018
  0
LWPOLYLINE
  5
12
100
AcDbEntity
  8
USP-GEO
100
AcDbPolyline
 90
       12
 70
   129
 43
0.0
 10
1.733368779524862
 20
0.8818893790565098
 10
1.459678972231461
 20
0.9731193148209733
 10
1.277219100702531
 20
1.155579186349907
 10
1.216399143526217
 20
1.430789492572714
 10
1.277219100702531
 20
1.704479299866111
 10
1.459678972231461
 20
1.886939171395045
 10
1.733368779524862
 20
1.947759128571355
 10
2.00705858681826
 20
1.886939171395045
 10
2.1910389572766
 20
1.704479299866111
 10
2.25185891445291
 20
1.430789492572714
 10
2.1910389572766
 20
1.155579186349907
 10
2.00705858681826
 20
0.9731193148209733
  0
LWPOLYLINE
  5
13
100
AcDbEntity
  8
USP-GEO
100
AcDbPolyline
 90
        2
 70
   129
 43
0.0
 10
0.2432798287052442
 20
3.621828449849314
 10
0.3040997858815544
 20
3.621828449849314
  0
LWPOLYLINE
  5
14
100
AcDbEntity
  8
USP-GEO
100
AcDbPolyline
 90
        2
 70
   129
 43
0.0
 10
3.164158272097573
 20
3.43936857832038
 10
3.164158272097573
 20
0.0
  0
LWPOLYLINE
  5
15
100
AcDbEntity
  8
USP-GEO
100
AcDbPolyline
 90
        6
 70
   129
 43
0.0
 10
3.224978229273883
 20
0.0
 10
3.468258057979127
 20
0.0
 10
3.468258057979127
 20
2.860058486216018
 10
3.468258057979127
 20
3.621828449849314
 10
3.224978229273883
 20
3.621828449849314
 10
3.224978229273883
 20
2.860058486216018
  0
LWPOLYLINE
  5
16
100
AcDbEntity
  8
USP-GEO
100
AcDbPolyline
 90
        4
 70
   129
 43
0.0
 10
3.224978229273883
 20
0.0
 10
3.468258057979127
 20
0.0
 10
3.468258057979127
 20
2.860058486216018
 10
3.224978229273883
 20
2.860058486216018
  0
LWPOLYLINE
  5
17
100
AcDbEntity
  8
USP-GEO
100
AcDbPolyline
 90
        2
 70
   129
 43
0.0
 10
3.224978229273883
 20
0.0
 10
3.164158272097573
 20
0.0
  0
LWPOLYLINE
  5
18
100
AcDbEntity
  8
USP-GEO
100
AcDbPolyline
 90
        2
 70
   129
 43
0.0
 10
3.164158272097573
 20
3.621828449849314
 10
3.224978229273883
 20
3.621828449849314
  0
LWPOLYLINE
  5
19
100
AcDbEntity
  8
USP-GEO
100
AcDbPolyline
 90
        4
 70
   128
 43
0.0
 10
3.468258057979127
 20
2.860058486216018
 10
3.468258057979127
 20
3.621828449849314
 10
3.224978229273883
 20
3.621828449849314
 10
3.224978229273883
 20
2.860058486216018
  0
ENDBLK
  5
1C
100
AcDbEntity
  8
0
100
AcDbBlockEnd
  0
BLOCK
  5
2E
100
AcDbEntity
  8
0
100
AcDbBlockBegin
  2
TDX14_F
 70
     0
 10
0.0
 20
0.0
 30
0.0
  3
TDX14_F
  1

  0
LWPOLYLINE
  5
1F
100
AcDbEntity
  8
USP-GEO
100
AcDbPolyline
 90
       14
 70
   129
 43
0.0
 10
3.164158272097573
 20
0.4561496788223316
 10
0.3040997858815544
 20
0.4561496788223316
 10
3.164158272097573
 20
0.4561496788223316
 10
3.164158272097573
 20
20.54650203308721
 10
0.3040997858815544
 20
20.54650203308721
 10
0.3040997858815544
 20
0.4561496788223316
 10
0.3040997858815544
 20
0.2128698501170874
 10
3.164158272097573
 20
0.2128698501170874
 10
3.164158272097573
 20
0.4561496788223316
 10
3.164158272097573
 20
20.54650203308721
 10
0.3040997858815544
 20
20.54650203308721
 10
0.3040997858815544
 20
0.4561496788223316
 10
0.3040997858815544
 20
0.2128698501170874
 10
3.164158272097573
 20
0.2128698501170874
  0
TEXT
  5
20
100
AcDbEntity
  8
USP-TXT
100
AcDbText
 10
-0.8882668043437682
 20
-1.402258420401029
 30
0.0
 40
0.296875
  1
TDX14 - FRONT VIEW
 72
     1
 11
1.734129028989563
 21
-1.402258420401029
 31
0.0
100
AcDbText
  0
LWPOLYLINE
  5
21
100
AcDbEntity
  8
USP-GEO
100
AcDbPolyline
 90
        4
 70
   128
 43
0.0
 10
0.0
 20
1.217919642455623
 10
0.0
 20
0.0
 10
3.468258057979127
 20
0.0
 10
3.468258057979127
 20
1.217919642455623
  0
LWPOLYLINE
  5
22
100
AcDbEntity
  8
USP-GEO
100
AcDbPolyline
 90
        2
 70
   129
 43
0.0
 10
0.2432798287052442
 20
0.2128698501170874
 10
3.224978229273883
 20
0.2128698501170874
  0
LWPOLYLINE
  5
23
100
AcDbEntity
  8
USP-GEO
100
AcDbPolyline
 90
       13
 70
   128
 43
0.0
 10
3.224978229273883
 20
1.217919642455623
 10
3.224978229273883
 20
0.2128698501170874
 10
3.224978229273883
 20
1.217919642455623
 10
3.224978229273883
 20
13.24050467728287
 10
3.468258057979127
 20
13.24050467728287
 10
3.468258057979127
 20
1.217919642455623
 10
3.468258057979127
 20
0.0
 10
0.0
 20
0.0
 10
0.0
 20
1.217919642455623
 10
0.0
 20
13.24050467728287
 10
0.2432798287052442
 20
13.24050467728287
 10
0.2432798287052442
 20
1.217919642455623
 10
0.2432798287052442
 20
0.2128698501170874
  0
LWPOLYLINE
  5
24
100
AcDbEntity
  8
USP-GEO
100
AcDbPolyline
 90
        6
 70
   128
 43
0.0
 10
0.2432798287052442
 20
1.217919642455623
 10
0.0
 20
1.217919642455623
 10
0.0
 20
13.24050467728287
 10
0.2432798287052442
 20
13.24050467728287
 10
0.2432798287052442
 20
1.217919642455623
 10
0.2432798287052442
 20
0.2128698501170874
  0
LWPOLYLINE
  5
25
100
AcDbEntity
  8
USP-GEO
100
AcDbPolyline
 90
       12
 70
   129
 43
0.0
 10
1.581318886584085
 20
9.040886634258608
 10
1.611728865172239
 20
9.101706591434918
 10
1.672548822348549
 20
9.162526548611229
 10
1.733368779524862
 20
9.192936527199385
 10
1.794188736701173
 20
9.162526548611229
 10
1.855008693877483
 20
9.101706591434918
 10
1.88541867246564
 20
9.040886634258608
 10
1.855008693877483
 20
8.978546178152889
 10
1.794188736701173
 20
8.917726220976579
 10
1.733368779524862
 20
8.887316242388422
 10
1.672548822348549
 20
8.917726220976579
 10
1.611728865172239
 20
8.978546178152889
  0
LWPOLYLINE
  5
26
100
AcDbEntity
  8
USP-GEO
100
AcDbPolyline
 90
       12
 70
   129
 43
0.0
 10
1.277219100702531
 20
7.304476856874934
 10
1.459678972231461
 20
7.488457227333274
 10
1.733368779524862
 20
7.579687163097741
 10
2.00705858681826
 20
7.488457227333274
 10
2.1910389572766
 20
7.304476856874934
 10
2.25185891445291
 20
7.030787049581533
 10
2.1910389572766
 20
6.757097242288136
 10
2.00705858681826
 20
6.574637370759202
 10
1.733368779524862
 20
6.513817413582891
 10
1.459678972231461
 20
6.574637370759202
 10
1.277219100702531
 20
6.757097242288136
 10
1.216399143526217
 20
7.030787049581533
  0
LWPOLYLINE
  5
27
100
AcDbEntity
  8
USP-GEO
100
AcDbPolyline
 90
       12
 70
   129
 43
0.0
 10
1.216399143526217
 20
11.04946572000627
 10
1.277219100702531
 20
11.29274554871152
 10
1.459678972231461
 20
11.5056153988286
 10
1.733368779524862
 20
11.56643535600491
 10
2.00705858681826
 20
11.5056153988286
 10
2.1910389572766
 20
11.29274554871152
 10
2.25185891445291
 20
11.04946572000627
 10
2.1910389572766
 20
10.77577591271287
 10
2.00705858681826
 20
10.59179554225453
 10
1.733368779524862
 20
10.50056560649007
 10
1.459678972231461
 20
10.59179554225453
 10
1.277219100702531
 20
10.77577591271287
  0
LWPOLYLINE
  5
28
100
AcDbEntity
  8
USP-GEO
100
AcDbPolyline
 90
        4
 70
   129
 43
0.0
 10
3.224978229273883
 20
1.217919642455623
 10
3.468258057979127
 20
1.217919642455623
 10
3.468258057979127
 20
13.24050467728287
 10
3.224978229273883
 20
13.24050467728287
  0
LWPOLYLINE
  5
29
100
AcDbEntity
  8
USP-GEO
100
AcDbPolyline
 90
       12
 70
   128
 43
0.0
 10
1.216399143526217
 20
19.05489258333819
 10
1.277219100702531
 20
19.29817241204343
 10
1.459678972231461
 20
19.51104226216052
 10
1.733368779524862
 20
19.57186221933683
 10
2.00705858681826
 20
19.51104226216052
 10
2.1910389572766
 20
19.29817241204343
 10
2.25185891445291
 20
19.05489258333819
 10
2.1910389572766
 20
18.78120277604479
 10
2.00705858681826
 20
18.59722240558645
 10
1.733368779524862
 20
18.50599246982198
 10
1.459678972231461
 20
18.59722240558645
 10
1.277219100702531
 20
18.78120277604479
  0
LWPOLYLINE
  5
2A
100
AcDbEntity
  8
USP-GEO
100
AcDbPolyline
 90
       12
 70
   129
 43
0.0
 10
1.216399143526217
 20
15.03621391291345
 10
1.277219100702531
 20
15.30990372020684
 10
1.459678972231461
 20
15.49388409066519
 10
1.733368779524862
 20
15.58511402642965
 10
2.00705858681826
 20
15.49388409066519
 10
2.1910389572766
 20
15.30990372020684
 10
2.25185891445291
 20
15.03621391291345
 10
2.1910389572766
 20
14.76252410562005
 10
2.00705858681826
 20
14.58006423409112
 10
1.733368779524862
 20
14.5192442769148
 10
1.459678972231461
 20
14.58006423409112
 10
1.277219100702531
 20
14.76252410562005
  0
LWPOLYLINE
  5
2B
100
AcDbEntity
  8
USP-GEO
100
AcDbPolyline
 90
       12
 70
   129
 43
0.0
 10
1.581318886584085
 20
17.04479299866111
 10
1.611728865172239
 20
17.10713345476683
 10
1.672548822348549
 20
17.16795341194314
 10
1.733368779524862
 20
17.1983633905313
 10
1.794188736701173
 20
17.16795341194314
 10
1.855008693877483
 20
17.10713345476683
 10
1.88541867246564
 20
17.04479299866111
 10
1.855008693877483
 20
16.9839730414848
 10
1.794188736701173
 20
16.92315308430849
 10
1.733368779524862
 20
16.89274310572034
 10
1.672548822348549
 20
16.92315308430849
 10
1.611728865172239
 20
16.9839730414848
  0
LWPOLYLINE
  5
2C
100
AcDbEntity
  8
USP-GEO
100
AcDbPolyline
 90
        2
 70
   129
 43
0.0
 10
1.216399143526217
 20
19.05489258333819
 10
1.277219100702531
 20
18.78120277604479
  0
LWPOLYLINE
  5
2D
100
AcDbEntity
  8
USP-GEO
100
AcDbPolyline
 90
        2
 70
   128
 43
0.0
 10
2.1910389572766
 20
19.29817241204343
 10
2.25185891445291
 20
19.05489258333819
  0
ENDBLK
  5
2F
100
AcDbEntity
  8
0
100
AcDbBlockEnd
  0
BLOCK
  5
37
100
AcDbEntity
  8
0
100
AcDbBlockBegin
  2
TDX14_S
 70
     0
 10
0.0
 20
0.0
 30
0.0
  3
TDX14_S
  1

  0
LWPOLYLINE
  5
32
100
AcDbEntity
  8
USP-GEO
100
AcDbPolyline
 90
        2
 70
   129
 43
0.0
 10
3.681127908096211
 20
20.54650203308721
 10
3.681127908096211
 20
0.2128698501170874
  0
LWPOLYLINE
  5
33
100
AcDbEntity
  8
USP-GEO
100
AcDbPolyline
 90
        4
 70
   129
 43
0.0
 10
3.43784807939097
 20
20.54650203308721
 10
3.681127908096211
 20
20.54650203308721
 10
3.43784807939097
 20
20.54650203308721
 10
3.43784807939097
 20
13.24050467728287
  0
TEXT
  5
34
100
AcDbEntity
  8
USP-TXT
100
AcDbText
 10
-0.6143251912067158
 20
-1.402258420401029
 30
0.0
 40
0.296875
  1
TDX14 - SIDE VIEW
 72
     1
 11
1.81015397545995
 21
-1.402258420401029
 31
0.0
100
AcDbText
  0
LWPOLYLINE
  5
35
100
AcDbEntity
  8
USP-GEO
100
AcDbPolyline
 90
       10
 70
   129
 43
0.0
 10
3.620307950919901
 20
13.24050467728287
 10
3.620307950919901
 20
0.0
 10
0.0
 20
0.0
 10
0.0
 20
1.217919642455623
 10
2.890468464804172
 20
13.24050467728287
 10
3.620307950919901
 20
13.24050467728287
 10
2.890468464804172
 20
13.24050467728287
 10
0.0
 20
1.217919642455623
 10
0.0
 20
0.0
 10
3.620307950919901
 20
0.0
  0
LWPOLYLINE
  5
36
100
AcDbEntity
  8
USP-GEO
100
AcDbPolyline
 90
        2
 70
   129
 43
0.0
 10
3.681127908096211
 20
0.2128698501170874
 10
3.620307950919901
 20
0.2128698501170874
  0
ENDBLK
  5
38
100
AcDbEntity
  8
0
100
AcDbBlockEnd
  0
ENDSEC
  0
SECTION
  2
ENTITIES
  0
INSERT
  5
3
100
AcDbEntity
  8
USP
100
AcDbBlockReference
  2
TDX14_T
 10
0.6341491545085916
 20
26.8207928362545
 30
0.0
  0
INSERT
  5
1D
100
AcDbEntity
  8
USP
100
AcDbBlockReference
  2
TDX14_F
 10
0.6341491545085916
 20
1.404132732274192
 30
0.0
  0
INSERT
  5
30
100
AcDbEntity
  8
USP
100
AcDbBlockReference
  2
TDX14_S
 10
11.31413363466878
 20
1.404132732274192
 30
0.0
  0
ENDSEC
  0
SECTION
  2
OBJECTS
  0
DICTIONARY
  5
51
102
{ACAD_XDICTIONARY
360
52
102
}
100
AcDbDictionary
  3
ACAD_GROUP
350
4F
  3
ACAD_MLINESTYLE
350
50
  0
DICTIONARY
  5
E
100
AcDbDictionary
280
     1
  3
ACAD_XREC_ROUNDTRIP
360
F
  0
DICTIONARY
  5
9
100
AcDbDictionary
280
     1
  3
ACAD_XREC_ROUNDTRIP
360
A
  0
DICTIONARY
  5
39
100
AcDbDictionary
280
     1
  3
ACAD_LAYOUTSELFREF
360
3A
  0
DICTIONARY
  5
3E
100
AcDbDictionary
280
     1
  3
ACAD_LAYOUTSELFREF
360
3F
  0
DICTIONARY
  5
52
100
AcDbDictionary
280
     1
  3
ACAD_XREC_ROUNDTRIP
360
53
  0
DICTIONARY
  5
4F
102
{ACAD_REACTORS
330
51
102
}
100
AcDbDictionary
  0
DICTIONARY
  5
50
102
{ACAD_REACTORS
330
51
102
}
100
AcDbDictionary
  3
STANDARD
350
54
  0
XRECORD
  5
F
102
{ACAD_REACTORS
330
E
102
}
100
AcDbXrecord
102
EXTNAMES
  1
USP-GEO
  2
USP-Geo
  0
XRECORD
  5
A
102
{ACAD_REACTORS
330
9
102
}
100
AcDbXrecord
102
EXTNAMES
  1
USP-TXT
  2
USP-Txt
  0
XRECORD
  5
3A
102
{ACAD_REACTORS
330
39
102
}
100
AcDbXrecord
340
18
  0
XRECORD
  5
3F
102
{ACAD_REACTORS
330
3E
102
}
100
AcDbXrecord
340
15
  0
XRECORD
  5
53
102
{ACAD_REACTORS
330
52
102
}
100
AcDbXrecord
102
EXTNAMES
  1
ACDBVARIABLEDICTIONARY
  2
AcDbVariableDictionary
  0
MLINESTYLE
  5
54
102
{ACAD_REACTORS
330
50
102
}
100
AcDbMlineStyle
  2
STANDARD
 70
     0
  3

 62
     0
 51
90.0
 52
90.0
 71
     2
 49
0.5
 62
   256
  6
BYLAYER
 49
-0.5
 62
   256
  6
BYLAYER
  0
ENDSEC
  0
EOF
