  0
SECTION
  2
HEADER
  9
$ACADVER
  1
AC1014
  9
$ACADMAINTVER
 70
     8
  9
$DWGCODEPAGE
  3
ANSI_1252
  9
$INSBASE
 10
0.0
 20
0.0
 30
0.0
  9
$EXTMIN
 10
-0.0022580332260711
 20
0.7629816051941063
 30
0.0
  9
$EXTMAX
 10
14.84509285202417
 20
18.49743003281687
 30
0.0
  9
$LIMMIN
 10
0.0
 20
0.0
  9
$LIMMAX
 10
12.0
 20
9.0
  9
$ORTHOMODE
 70
     0
  9
$REGENMODE
 70
     1
  9
$FILLMODE
 70
     1
  9
$QTEXTMODE
 70
     0
  9
$MIRRTEXT
 70
     0
  9
$DRAGMODE
 70
     2
  9
$LTSCALE
 40
1.5
  9
$OSMODE
 70
     0
  9
$ATTMODE
 70
     1
  9
$TEXTSIZE
 40
0.25
  9
$TRACEWID
 40
0.05
  9
$TEXTSTYLE
  7
STANDARD
  9
$CLAYER
  8
USP
  9
$CELTYPE
  6
BYLAYER
  9
$CECOLOR
 62
   256
  9
$CELTSCALE
 40
1.0
  9
$DELOBJ
 70
     1
  9
$DISPSILH
 70
     1
  9
$DIMSCALE
 40
5.0
  9
$DIMASZ
 40
0.125
  9
$DIMEXO
 40
0.0625
  9
$DIMDLI
 40
0.38
  9
$DIMRND
 40
0.0
  9
$DIMDLE
 40
0.0
  9
$DIMEXE
 40
0.09375
  9
$DIMTP
 40
0.0
  9
$DIMTM
 40
0.0
  9
$DIMTXT
 40
0.109375
  9
$DIMCEN
 40
0.0
  9
$DIMTSZ
 40
0.0
  9
$DIMTOL
 70
     0
  9
$DIMLIM
 70
     0
  9
$DIMTIH
 70
     1
  9
$DIMTOH
 70
     1
  9
$DIMSE1
 70
     0
  9
$DIMSE2
 70
     0
  9
$DIMTAD
 70
     0
  9
$DIMZIN
 70
     8
  9
$DIMBLK
  1

  9
$DIMASO
 70
     1
  9
$DIMSHO
 70
     1
  9
$DIMPOST
  1

  9
$DIMAPOST
  1

  9
$DIMALT
 70
     0
  9
$DIMALTD
 70
     2
  9
$DIMALTF
 40
25.4
  9
$DIMLFAC
 40
1.0
  9
$DIMTOFL
 70
     0
  9
$DIMTVP
 40
0.0
  9
$DIMTIX
 70
     0
  9
$DIMSOXD
 70
     0
  9
$DIMSAH
 70
     0
  9
$DIMBLK1
  1

  9
$DIMBLK2
  1

  9
$DIMSTYLE
  2
STANDARD
  9
$DIMCLRD
 70
   256
  9
$DIMCLRE
 70
   256
  9
$DIMCLRT
 70
   256
  9
$DIMTFAC
 40
1.0
  9
$DIMGAP
 40
0.09
  9
$DIMJUST
 70
     0
  9
$DIMSD1
 70
     0
  9
$DIMSD2
 70
     0
  9
$DIMTOLJ
 70
     1
  9
$DIMTZIN
 70
     0
  9
$DIMALTZ
 70
     0
  9
$DIMALTTZ
 70
     0
  9
$DIMFIT
 70
     3
  9
$DIMUPT
 70
     1
  9
$DIMUNIT
 70
     7
  9
$DIMDEC
 70
     4
  9
$DIMTDEC
 70
     4
  9
$DIMALTU
 70
     2
  9
$DIMALTTD
 70
     2
  9
$DIMTXSTY
  7
STANDARD
  9
$DIMAUNIT
 70
     0
  9
$LUNITS
 70
     5
  9
$LUPREC
 70
     6
  9
$SKETCHINC
 40
0.1
  9
$FILLETRAD
 40
0.0
  9
$AUNITS
 70
     0
  9
$AUPREC
 70
     1
  9
$MENU
  1
CUSTOM
  9
$ELEVATION
 40
0.0
  9
$PELEVATION
 40
0.0
  9
$THICKNESS
 40
0.0
  9
$LIMCHECK
 70
     0
  9
$BLIPMODE
 70
     0
  9
$CHAMFERA
 40
0.0
  9
$CHAMFERB
 40
0.0
  9
$CHAMFERC
 40
0.0
  9
$CHAMFERD
 40
0.0
  9
$SKPOLY
 70
     0
  9
$TDCREATE
 40
2451263.621564698
  9
$TDUPDATE
 40
2453025.997659675
  9
$TDINDWG
 40
1.0764737037
  9
$TDUSRTIMER
 40
1.0764737037
  9
$USRTIMER
 70
     1
  9
$ANGBASE
 50
0.0
  9
$ANGDIR
 70
     0
  9
$PDMODE
 70
     0
  9
$PDSIZE
 40
0.0
  9
$PLINEWID
 40
0.0
  9
$COORDS
 70
     2
  9
$SPLFRAME
 70
     0
  9
$SPLINETYPE
 70
     6
  9
$SPLINESEGS
 70
     8
  9
$ATTDIA
 70
     0
  9
$ATTREQ
 70
     0
  9
$HANDLING
 70
     1
  9
$HANDSEED
  5
171
  9
$SURFTAB1
 70
     6
  9
$SURFTAB2
 70
     6
  9
$SURFTYPE
 70
     6
  9
$SURFU
 70
     6
  9
$SURFV
 70
     6
  9
$UCSNAME
  2

  9
$UCSORG
 10
0.0
 20
0.0
 30
0.0
  9
$UCSXDIR
 10
1.0
 20
0.0
 30
0.0
  9
$UCSYDIR
 10
0.0
 20
1.0
 30
0.0
  9
$PUCSNAME
  2

  9
$PUCSORG
 10
0.0
 20
0.0
 30
0.0
  9
$PUCSXDIR
 10
1.0
 20
0.0
 30
0.0
  9
$PUCSYDIR
 10
0.0
 20
1.0
 30
0.0
  9
$USERI1
 70
     0
  9
$USERI2
 70
     0
  9
$USERI3
 70
     0
  9
$USERI4
 70
     0
  9
$USERI5
 70
     0
  9
$USERR1
 40
0.0
  9
$USERR2
 40
0.0
  9
$USERR3
 40
0.0
  9
$USERR4
 40
0.0
  9
$USERR5
 40
0.0
  9
$WORLDVIEW
 70
     1
  9
$SHADEDGE
 70
     3
  9
$SHADEDIF
 70
    70
  9
$TILEMODE
 70
     1
  9
$MAXACTVP
 70
    16
  9
$PINSBASE
 10
0.0
 20
0.0
 30
0.0
  9
$PLIMCHECK
 70
     0
  9
$PEXTMIN
 10
1.000000000000000E+20
 20
1.000000000000000E+20
 30
1.000000000000000E+20
  9
$PEXTMAX
 10
-1.000000000000000E+20
 20
-1.000000000000000E+20
 30
-1.000000000000000E+20
  9
$PLIMMIN
 10
0.0
 20
0.0
  9
$PLIMMAX
 10
12.0
 20
9.0
  9
$UNITMODE
 70
     0
  9
$VISRETAIN
 70
     0
  9
$PLINEGEN
 70
     0
  9
$PSLTSCALE
 70
     0
  9
$TREEDEPTH
 70
  3020
  9
$PICKSTYLE
 70
     1
  9
$CMLSTYLE
  2
STANDARD
  9
$CMLJUST
 70
     0
  9
$CMLSCALE
 40
1.0
  9
$PROXYGRAPHICS
 70
     1
  9
$MEASUREMENT
 70
     0
  0
ENDSEC
  0
SECTION
  2
CLASSES
  0
CLASS
  1
ACDBDICTIONARYWDFLT
  2
AcDbDictionaryWithDefault
  3
AutoCAD 2000
 90
        0
280
     0
281
     0
  0
CLASS
  1
ACDBPLACEHOLDER
  2
AcDbPlaceHolder
  3
AutoCAD 2000
 90
        0
280
     0
281
     0
  0
CLASS
  1
LAYOUT
  2
AcDbLayout
  3
AutoCAD 2000
 90
        0
280
     0
281
     0
  0
CLASS
  1
DICTIONARYVAR
  2
AcDbDictionaryVar
  3
"AutoCAD"
 90
        0
280
     0
281
     0
  0
CLASS
  1
SORTENTSTABLE
  2
AcDbSortentsTable
  3
"AutoCAD"
 90
        0
280
     0
281
     0
  0
CLASS
  1
LONG_TRANSACTION
  2
AcDbLongTransaction
  3
AutoCAD 2000
 90
        0
280
     0
281
     0
  0
CLASS
  1
LWPOLYLINE
  2
AcDbPolyline
  3
"AutoCAD"
 90
        0
280
     0
281
     1
  0
CLASS
  1
HATCH
  2
AcDbHatch
  3
"ACAD_SEDONA"
 90
        0
280
     0
281
     1
  0
CLASS
  1
XRECORD
  2
AcDbXrecord
  3
"<Built In>"
 90
        0
280
     0
281
     0
  0
CLASS
  1
LONG_TRANSACTION
  2
AcDbLongTransaction
  3
AutoCAD 2000
 90
        0
280
     0
281
     0
  0
CLASS
  1
LWPOLYLINE
  2
AcDbPolyline
  3
"AutoCAD"
 90
        0
280
     0
281
     1
  0
CLASS
  1
HATCH
  2
AcDbHatch
  3
"ACAD_SEDONA"
 90
        0
280
     0
281
     1
  0
CLASS
  1
XRECORD
  2
AcDbXrecord
  3
"<Built In>"
 90
        0
280
     0
281
     0
  0
CLASS
  1
LONG_TRANSACTION
  2
AcDbLongTransaction
  3
AutoCAD 2000
 90
        0
280
     0
281
     0
  0
CLASS
  1
LWPOLYLINE
  2
AcDbPolyline
  3
"AutoCAD"
 90
        0
280
     0
281
     1
  0
CLASS
  1
HATCH
  2
AcDbHatch
  3
"ACAD_SEDONA"
 90
        0
280
     0
281
     1
  0
CLASS
  1
XRECORD
  2
AcDbXrecord
  3
"<Built In>"
 90
        0
280
     0
281
     0
  0
CLASS
  1
LONG_TRANSACTION
  2
AcDbLongTransaction
  3
AutoCAD 2000
 90
        0
280
     0
281
     0
  0
CLASS
  1
LWPOLYLINE
  2
AcDbPolyline
  3
"AutoCAD"
 90
        0
280
     0
281
     1
  0
CLASS
  1
HATCH
  2
AcDbHatch
  3
"ACAD_SEDONA"
 90
        0
280
     0
281
     1
  0
CLASS
  1
XRECORD
  2
AcDbXrecord
  3
"<Built In>"
 90
        0
280
     0
281
     0
  0
CLASS
  1
LONG_TRANSACTION
  2
AcDbLongTransaction
  3
AutoCAD 2000
 90
        0
280
     0
281
     0
  0
CLASS
  1
LWPOLYLINE
  2
AcDbPolyline
  3
"AutoCAD"
 90
        0
280
     0
281
     1
  0
CLASS
  1
HATCH
  2
AcDbHatch
  3
"ACAD_SEDONA"
 90
        0
280
     0
281
     1
  0
CLASS
  1
XRECORD
  2
AcDbXrecord
  3
"<Built In>"
 90
        0
280
     0
281
     0
  0
ENDSEC
  0
SECTION
  2
TABLES
  0
TABLE
  2
VPORT
  5
162
100
AcDbSymbolTable
 70
     1
  0
VPORT
  5
163
100
AcDbSymbolTableRecord
100
AcDbViewportTableRecord
  2
*ACTIVE
 70
     0
 10
0.0
 20
0.0
 11
1.0
 21
1.0
 12
2.304631158727932
 22
13.21461210746442
 13
0.0
 23
0.0
 14
1.0
 24
1.0
 15
0.0
 25
0.0
 16
0.0
 26
0.0
 36
1.0
 17
7.129773100544168
 27
-1.178702779300872
 37
-0.5776446749601674
 40
22.65305939122105
 41
1.379227053140096
 42
50.0
 43
0.0
 44
0.0
 50
0.0
 51
0.0
 71
     0
 72
   100
 73
     1
 74
     1
 75
     0
 76
     0
 77
     0
 78
     0
  0
ENDTAB
  0
TABLE
  2
LTYPE
  5
15D
100
AcDbSymbolTable
 70
     1
  0
LTYPE
  5
15E
100
AcDbSymbolTableRecord
100
AcDbLinetypeTableRecord
  2
BYBLOCK
 70
     0
  3

 72
    65
 73
     0
 40
0.0
  0
LTYPE
  5
15F
100
AcDbSymbolTableRecord
100
AcDbLinetypeTableRecord
  2
BYLAYER
 70
     0
  3

 72
    65
 73
     0
 40
0.0
  0
LTYPE
  5
5
100
AcDbSymbolTableRecord
100
AcDbLinetypeTableRecord
  2
CONTINUOUS
 70
     0
  3
Solid line
 72
    65
 73
     0
 40
0.0
  0
ENDTAB
  0
TABLE
  2
LAYER
  5
15B
100
AcDbSymbolTable
 70
     4
  0
LAYER
  5
88
100
AcDbSymbolTableRecord
100
AcDbLayerTableRecord
  2
0
 70
     0
 62
     7
  6
CONTINUOUS
  0
LAYER
  5
8
102
{ACAD_XDICTIONARY
360
9
102
}
100
AcDbSymbolTableRecord
100
AcDbLayerTableRecord
  2
USP-GEO
 70
     0
 62
     7
  6
CONTINUOUS
  0
LAYER
  5
83
102
{ACAD_XDICTIONARY
360
84
102
}
100
AcDbSymbolTableRecord
100
AcDbLayerTableRecord
  2
USP-TXT
 70
     0
 62
     7
  6
CONTINUOUS
  0
LAYER
  5
4
100
AcDbSymbolTableRecord
100
AcDbLayerTableRecord
  2
USP
 70
     0
 62
     7
  6
CONTINUOUS
  0
ENDTAB
  0
TABLE
  2
STYLE
  5
15C
100
AcDbSymbolTable
 70
     1
  0
STYLE
  5
86
100
AcDbSymbolTableRecord
100
AcDbTextStyleTableRecord
  2
STANDARD
 70
     0
 40
0.0
 41
1.0
 50
0.0
 71
     0
 42
0.25
  3
txt
  4

  0
ENDTAB
  0
TABLE
  2
VIEW
  5
160
100
AcDbSymbolTable
 70
     0
  0
ENDTAB
  0
TABLE
  2
UCS
  5
161
100
AcDbSymbolTable
 70
     0
  0
ENDTAB
  0
TABLE
  2
APPID
  5
164
100
AcDbSymbolTable
 70
     1
  0
APPID
  5
43
100
AcDbSymbolTableRecord
100
AcDbRegAppTableRecord
  2
ACAD
 70
     0
  0
ENDTAB
  0
TABLE
  2
DIMSTYLE
  5
165
100
AcDbSymbolTable
 70
     1
  0
DIMSTYLE
105
16B
102
{ACAD_XDICTIONARY
360
16C
102
}
100
AcDbSymbolTableRecord
100
AcDbDimStyleTableRecord
  2
STANDARD
 70
     0
  3

  4

  5

  6

  7

 40
1.0
 41
0.125
 42
0.0625
 43
0.38
 44
0.09375
 45
0.0
 46
0.0
 47
0.0
 48
0.0
140
0.109375
141
0.0
142
0.0
143
25.4
144
1.0
145
0.0
146
1.0
147
0.09
 71
     0
 72
     0
 73
     1
 74
     1
 75
     0
 76
     0
 77
     0
 78
     8
170
     0
171
     2
172
     0
173
     0
174
     0
175
     0
176
     0
177
     0
178
     0
270
     7
271
     4
272
     4
273
     2
274
     2
340
86
275
     0
280
     0
281
     0
282
     0
283
     1
284
     0
285
     0
286
     0
287
     3
288
     0
  0
ENDTAB
  0
TABLE
  2
BLOCK_RECORD
  5
1
100
AcDbSymbolTable
 70
     3
  0
BLOCK_RECORD
  5
2
102
{ACAD_XDICTIONARY
360
152
102
}
100
AcDbSymbolTableRecord
100
AcDbBlockTableRecord
  2
*MODEL_SPACE
  0
BLOCK_RECORD
  5
156
102
{ACAD_XDICTIONARY
360
157
102
}
100
AcDbSymbolTableRecord
100
AcDbBlockTableRecord
  2
*PAPER_SPACE
  0
BLOCK_RECORD
  5
6
100
AcDbSymbolTableRecord
100
AcDbBlockTableRecord
  2
TFL2395PR_T
  0
BLOCK_RECORD
  5
8B
100
AcDbSymbolTableRecord
100
AcDbBlockTableRecord
  2
TFL2395PR_F
  0
BLOCK_RECORD
  5
106
100
AcDbSymbolTableRecord
100
AcDbBlockTableRecord
  2
TFL2395PR_S
  0
ENDTAB
  0
ENDSEC
  0
SECTION
  2
BLOCKS
  0
BLOCK
  5
154
100
AcDbEntity
  8
0
100
AcDbBlockBegin
  2
*MODEL_SPACE
 70
     0
 10
0.0
 20
0.0
 30
0.0
  3
*MODEL_SPACE
  1

  0
ENDBLK
  5
155
100
AcDbEntity
  8
0
100
AcDbBlockEnd
  0
BLOCK
  5
159
100
AcDbEntity
 67
     1
  8
0
100
AcDbBlockBegin
  2
*PAPER_SPACE
 70
     0
 10
0.0
 20
0.0
 30
0.0
  3
*PAPER_SPACE
  1

  0
ENDBLK
  5
15A
100
AcDbEntity
 67
     1
  8
0
100
AcDbBlockEnd
  0
BLOCK
  5
87
100
AcDbEntity
  8
0
100
AcDbBlockBegin
  2
TFL2395PR_T
 70
     0
 10
0.0
 20
0.0
 30
0.0
  3
TFL2395PR_T
  1

  0
LWPOLYLINE
  5
7
100
AcDbEntity
  8
USP-GEO
100
AcDbPolyline
 90
        2
 70
   128
 43
0.0
 10
6.366295921516397
 20
2.196482746965825
 10
4.465812738688284
 20
2.196482746965825
  0
LWPOLYLINE
  5
B
100
AcDbEntity
  8
USP-GEO
100
AcDbPolyline
 90
        2
 70
   128
 43
0.0
 10
1.900483182828113
 20
2.196482746965825
 10
0.0
 20
2.196482746965825
  0
LWPOLYLINE
  5
C
100
AcDbEntity
  8
USP-GEO
100
AcDbPolyline
 90
        2
 70
   128
 43
0.0
 10
2.029579565941134
 20
0.8861544583686633
 10
2.029579565941134
 20
0.2766351066707582
  0
LWPOLYLINE
  5
D
100
AcDbEntity
  8
USP-GEO
100
AcDbPolyline
 90
        2
 70
   128
 43
0.0
 10
2.029579565941134
 20
0.2766351066707582
 10
1.974252544606982
 20
0.2766351066707582
  0
LWPOLYLINE
  5
E
100
AcDbEntity
  8
USP-GEO
100
AcDbPolyline
 90
        2
 70
   128
 43
0.0
 10
2.029579565941134
 20
0.2766351066707582
 10
2.029579565941134
 20
0.1475387235577372
  0
LWPOLYLINE
  5
F
100
AcDbEntity
  8
USP-GEO
100
AcDbPolyline
 90
        2
 70
   128
 43
0.0
 10
2.029579565941134
 20
0.1475387235577372
 10
2.029579565941134
 20
0.129096383113021
  0
LWPOLYLINE
  5
10
100
AcDbEntity
  8
USP-GEO
100
AcDbPolyline
 90
        2
 70
   128
 43
0.0
 10
2.029579565941134
 20
0.129096383113021
 10
2.029579565941134
 20
0.0
  0
LWPOLYLINE
  5
11
100
AcDbEntity
  8
USP-GEO
100
AcDbPolyline
 90
        2
 70
   128
 43
0.0
 10
2.029579565941134
 20
0.0
 10
1.974252544606982
 20
0.0
  0
LWPOLYLINE
  5
12
100
AcDbEntity
  8
USP-GEO
100
AcDbPolyline
 90
        2
 70
   128
 43
0.0
 10
2.029579565941134
 20
2.104271044742239
 10
2.029579565941134
 20
1.919847640295065
  0
LWPOLYLINE
  5
13
100
AcDbEntity
  8
USP-GEO
100
AcDbPolyline
 90
        2
 70
   128
 43
0.0
 10
2.029579565941134
 20
1.919847640295065
 10
2.029579565941134
 20
1.015250841481684
  0
LWPOLYLINE
  5
14
100
AcDbEntity
  8
USP-GEO
100
AcDbPolyline
 90
        2
 70
   128
 43
0.0
 10
2.029579565941134
 20
1.015250841481684
 10
2.029579565941134
 20
0.9045967988133813
  0
LWPOLYLINE
  5
15
100
AcDbEntity
  8
USP-GEO
100
AcDbPolyline
 90
        2
 70
   128
 43
0.0
 10
2.029579565941134
 20
0.9045967988133813
 10
1.974252544606982
 20
0.9045967988133813
  0
LWPOLYLINE
  5
16
100
AcDbEntity
  8
USP-GEO
100
AcDbPolyline
 90
        2
 70
   128
 43
0.0
 10
2.029579565941134
 20
0.9045967988133813
 10
2.029579565941134
 20
0.8861544583686633
  0
LWPOLYLINE
  5
17
100
AcDbEntity
  8
USP-GEO
100
AcDbPolyline
 90
        2
 70
   128
 43
0.0
 10
4.336716355575263
 20
0.0
 10
4.392043376909415
 20
0.0
  0
LWPOLYLINE
  5
18
100
AcDbEntity
  8
USP-GEO
100
AcDbPolyline
 90
        2
 70
   128
 43
0.0
 10
4.336716355575263
 20
0.2766351066707582
 10
4.392043376909415
 20
0.2766351066707582
  0
LWPOLYLINE
  5
19
100
AcDbEntity
  8
USP-GEO
100
AcDbPolyline
 90
        2
 70
   128
 43
0.0
 10
4.336716355575263
 20
0.9045967988133813
 10
4.392043376909415
 20
0.9045967988133813
  0
LWPOLYLINE
  5
1A
100
AcDbEntity
  8
USP-GEO
100
AcDbPolyline
 90
        2
 70
   128
 43
0.0
 10
4.355158696019979
 20
2.141155725631675
 10
4.392043376909415
 20
2.141155725631675
  0
LWPOLYLINE
  5
1B
100
AcDbEntity
  8
USP-GEO
100
AcDbPolyline
 90
        2
 70
   128
 43
0.0
 10
2.029579565941134
 20
1.993617002073934
 10
2.066464246830569
 20
1.993617002073934
  0
LWPOLYLINE
  5
1C
100
AcDbEntity
  8
USP-GEO
100
AcDbPolyline
 90
        2
 70
   128
 43
0.0
 10
2.066464246830569
 20
0.0
 10
2.029579565941134
 20
0.0
  0
LWPOLYLINE
  5
1D
100
AcDbEntity
  8
USP-GEO
100
AcDbPolyline
 90
        2
 70
   128
 43
0.0
 10
2.934176364754516
 20
0.3697689259165813
 10
2.805079981641495
 20
0.2397504257813239
  0
LWPOLYLINE
  5
1E
100
AcDbEntity
  8
USP-GEO
100
AcDbPolyline
 90
        2
 70
   128
 43
0.0
 10
2.805079981641495
 20
0.4988653090296023
 10
2.934176364754516
 20
0.3697689259165813
  0
LWPOLYLINE
  5
1F
100
AcDbEntity
  8
USP-GEO
100
AcDbPolyline
 90
        2
 70
   128
 43
0.0
 10
2.675983598528474
 20
0.3697689259165813
 10
2.805079981641495
 20
0.4988653090296023
  0
LWPOLYLINE
  5
20
100
AcDbEntity
  8
USP-GEO
100
AcDbPolyline
 90
        2
 70
   128
 43
0.0
 10
2.805079981641495
 20
0.2397504257813239
 10
2.675983598528474
 20
0.3697689259165813
  0
LWPOLYLINE
  5
21
100
AcDbEntity
  8
USP-GEO
100
AcDbPolyline
 90
        2
 70
   128
 43
0.0
 10
3.561215939874903
 20
0.2397504257813239
 10
3.432119556761882
 20
0.3697689259165813
  0
LWPOLYLINE
  5
22
100
AcDbEntity
  8
USP-GEO
100
AcDbPolyline
 90
        2
 70
   128
 43
0.0
 10
3.690312322987923
 20
0.3697689259165813
 10
3.561215939874903
 20
0.2397504257813239
  0
LWPOLYLINE
  5
23
100
AcDbEntity
  8
USP-GEO
100
AcDbPolyline
 90
        2
 70
   128
 43
0.0
 10
3.561215939874903
 20
0.4988653090296023
 10
3.690312322987923
 20
0.3697689259165813
  0
LWPOLYLINE
  5
24
100
AcDbEntity
  8
USP-GEO
100
AcDbPolyline
 90
        2
 70
   128
 43
0.0
 10
3.432119556761882
 20
0.3697689259165813
 10
3.561215939874903
 20
0.4988653090296023
  0
LWPOLYLINE
  5
25
100
AcDbEntity
  8
USP-GEO
100
AcDbPolyline
 90
        2
 70
   128
 43
0.0
 10
2.066464246830569
 20
0.0
 10
4.299831674685829
 20
0.0
  0
LWPOLYLINE
  5
26
100
AcDbEntity
  8
USP-GEO
100
AcDbPolyline
 90
        2
 70
   128
 43
0.0
 10
4.299831674685829
 20
1.993617002073934
 10
2.066464246830569
 20
1.993617002073934
  0
LWPOLYLINE
  5
27
100
AcDbEntity
  8
USP-GEO
100
AcDbPolyline
 90
        2
 70
   128
 43
0.0
 10
4.336716355575263
 20
0.0
 10
4.299831674685829
 20
0.0
  0
LWPOLYLINE
  5
28
100
AcDbEntity
  8
USP-GEO
100
AcDbPolyline
 90
        2
 70
   128
 43
0.0
 10
4.299831674685829
 20
1.993617002073934
 10
4.336716355575263
 20
1.993617002073934
  0
LWPOLYLINE
  5
29
100
AcDbEntity
  8
USP-GEO
100
AcDbPolyline
 90
        2
 70
   128
 43
0.0
 10
4.392043376909415
 20
0.129096383113021
 10
4.392043376909415
 20
0.0
  0
LWPOLYLINE
  5
2A
100
AcDbEntity
  8
USP-GEO
100
AcDbPolyline
 90
        2
 70
   128
 43
0.0
 10
4.392043376909415
 20
0.1475387235577372
 10
4.392043376909415
 20
0.129096383113021
  0
LWPOLYLINE
  5
2B
100
AcDbEntity
  8
USP-GEO
100
AcDbPolyline
 90
        2
 70
   128
 43
0.0
 10
4.392043376909415
 20
0.1475387235577372
 10
4.392043376909415
 20
0.2766351066707582
  0
LWPOLYLINE
  5
2C
100
AcDbEntity
  8
USP-GEO
100
AcDbPolyline
 90
        2
 70
   128
 43
0.0
 10
4.392043376909415
 20
0.2766351066707582
 10
4.392043376909415
 20
0.8861544583686633
  0
LWPOLYLINE
  5
2D
100
AcDbEntity
  8
USP-GEO
100
AcDbPolyline
 90
        2
 70
   128
 43
0.0
 10
4.392043376909415
 20
0.8861544583686633
 10
4.392043376909415
 20
0.9045967988133813
  0
LWPOLYLINE
  5
2E
100
AcDbEntity
  8
USP-GEO
100
AcDbPolyline
 90
        2
 70
   128
 43
0.0
 10
4.392043376909415
 20
1.015250841481684
 10
4.392043376909415
 20
0.9045967988133813
  0
LWPOLYLINE
  5
2F
100
AcDbEntity
  8
USP-GEO
100
AcDbPolyline
 90
        2
 70
   128
 43
0.0
 10
4.392043376909415
 20
1.015250841481684
 10
4.392043376909415
 20
1.919847640295065
  0
LWPOLYLINE
  5
30
100
AcDbEntity
  8
USP-GEO
100
AcDbPolyline
 90
        2
 70
   128
 43
0.0
 10
4.392043376909415
 20
2.104271044742239
 10
4.392043376909415
 20
1.919847640295065
  0
LWPOLYLINE
  5
31
100
AcDbEntity
  8
USP-GEO
100
AcDbPolyline
 90
        2
 70
   128
 43
0.0
 10
4.392043376909415
 20
2.104271044742239
 10
4.39296549393165
 20
2.104271044742239
  0
LWPOLYLINE
  5
32
100
AcDbEntity
  8
USP-GEO
100
AcDbPolyline
 90
        3
 70
   128
 43
0.0
 10
4.42892805779885
 20
2.141155725631675
 10
4.410485717354132
 20
2.141155725631675
 10
4.392043376909415
 20
2.104271044742239
  0
CIRCLE
  5
33
100
AcDbEntity
  8
USP-GEO
100
AcDbCircle
 10
6.167441104414984
 20
3.191918968746447
 30
0.0
 40
0.09
  0
CIRCLE
  5
34
100
AcDbEntity
  8
USP-GEO
100
AcDbCircle
 10
4.767441104414978
 20
3.391918968746436
 30
0.0
 40
0.09
  0
LWPOLYLINE
  5
35
100
AcDbEntity
  8
USP-GEO
100
AcDbPolyline
 90
        2
 70
   128
 43
0.0
 10
4.465812738688284
 20
3.692156557032395
 10
4.465812738688284
 20
2.233367427855258
  0
LWPOLYLINE
  5
36
100
AcDbEntity
  8
USP-GEO
100
AcDbPolyline
 90
        2
 70
   128
 43
0.0
 10
6.366295921516397
 20
3.692156557032395
 10
4.465812738688284
 20
3.692156557032395
  0
LWPOLYLINE
  5
37
100
AcDbEntity
  8
USP-GEO
100
AcDbPolyline
 90
        2
 70
   128
 43
0.0
 10
6.366295921516397
 20
3.692156557032395
 10
6.366295921516397
 20
2.233367427855258
  0
LWPOLYLINE
  5
38
100
AcDbEntity
  8
USP-GEO
100
AcDbPolyline
 90
        2
 70
   128
 43
0.0
 10
6.366295921516397
 20
2.141155725631675
 10
4.465812738688284
 20
2.141155725631675
  0
LWPOLYLINE
  5
39
100
AcDbEntity
  8
USP-GEO
100
AcDbPolyline
 90
        2
 70
   128
 43
0.0
 10
4.465812738688284
 20
2.141155725631675
 10
4.465812738688284
 20
2.233367427855258
  0
LWPOLYLINE
  5
3A
100
AcDbEntity
  8
USP-GEO
100
AcDbPolyline
 90
        2
 70
   128
 43
0.0
 10
6.366295921516397
 20
2.233367427855258
 10
6.366295921516397
 20
2.141155725631675
  0
LWPOLYLINE
  5
3B
100
AcDbEntity
  8
USP-GEO
100
AcDbPolyline
 90
        2
 70
   128
 43
0.0
 10
4.392043376909415
 20
2.141155725631675
 10
4.465812738688284
 20
2.141155725631675
  0
LWPOLYLINE
  5
3C
100
AcDbEntity
  8
USP-GEO
100
AcDbPolyline
 90
        2
 70
   128
 43
0.0
 10
4.392043376909415
 20
2.196482746965825
 10
4.392043376909415
 20
2.141155725631675
  0
LWPOLYLINE
  5
3D
100
AcDbEntity
  8
USP-GEO
100
AcDbPolyline
 90
        2
 70
   128
 43
0.0
 10
4.42892805779885
 20
2.196482746965825
 10
4.465812738688284
 20
2.196482746965825
  0
LWPOLYLINE
  5
3E
100
AcDbEntity
  8
USP-GEO
100
AcDbPolyline
 90
        2
 70
   128
 43
0.0
 10
4.42892805779885
 20
2.196482746965825
 10
4.392043376909415
 20
2.196482746965825
  0
ARC
  5
3F
100
AcDbEntity
  8
USP-GEO
100
AcDbCircle
 10
4.434374504832526
 20
2.101918968746458
 30
0.0
 40
0.09
100
AcDbArc
 50
114.115500594557
 51
153.6501080422633
  0
LWPOLYLINE
  5
40
100
AcDbEntity
  8
USP-GEO
100
AcDbPolyline
 90
        2
 70
   128
 43
0.0
 10
4.355158696019979
 20
2.141155725631675
 10
4.336716355575263
 20
2.104271044742239
  0
LWPOLYLINE
  5
41
100
AcDbEntity
  8
USP-GEO
100
AcDbPolyline
 90
        2
 70
   128
 43
0.0
 10
4.336716355575263
 20
2.104271044742239
 10
4.337638472597499
 20
2.104271044742239
  0
ELLIPSE
  5
42
100
AcDbEntity
  8
USP-GEO
  6
CONTINUOUS
100
AcDbEllipse
 10
1.863922130630762
 20
0.3069544327743614
 30
0.0
 11
0.0
 21
-0.0779999999999994
 31
0.0
210
0.0
220
0.0
230
1.0
 40
0.7071067811865475
 41
3.82658504557554
 42
5.459743295196224
1001
ACAD
1000
RTLwPs
1070
   128
  0
ELLIPSE
  5
44
100
AcDbEntity
  8
USP-GEO
  6
CONTINUOUS
100
AcDbEllipse
 10
1.863922130630762
 20
0.3069544327743614
 30
0.0
 11
0.0
 21
-0.0779999999999994
 31
0.0
210
0.0
220
0.0
230
1.0
 40
0.7071067811865475
 41
3.457277758016338
 42
3.838909889356622
1001
ACAD
1000
RTLwPs
1070
   128
  0
ELLIPSE
  5
45
100
AcDbEntity
  8
USP-GEO
  6
CONTINUOUS
100
AcDbEllipse
 10
1.863922130630762
 20
0.3069544327743614
 30
0.0
 11
0.0
 21
-0.0779999999999994
 31
0.0
210
0.0
220
0.0
230
1.0
 40
0.7071067811865475
 41
5.472265030889909
 42
5.907080293416829
1001
ACAD
1000
RTLwPs
1070
   128
  0
ELLIPSE
  5
46
100
AcDbEntity
  8
USP-GEO
  6
CONTINUOUS
100
AcDbEllipse
 10
1.825573753500855
 20
0.3069544327743614
 30
0.0
 11
0.0
 21
-0.0779999999999994
 31
0.0
210
0.0
220
0.0
230
1.0
 40
0.7071067811865475
 41
3.806499926752285
 42
5.951242300557305
1001
ACAD
1000
RTLwPs
1070
   128
  0
ELLIPSE
  5
47
100
AcDbEntity
  8
USP-GEO
  6
CONTINUOUS
100
AcDbEllipse
 10
1.825573753500855
 20
0.3069544327743614
 30
0.0
 11
0.0
 21
-0.0779999999999994
 31
0.0
210
0.0
220
0.0
230
1.0
 40
0.7071067811865475
 41
3.105717294077106
 42
3.819228582883045
1001
ACAD
1000
RTLwPs
1070
   128
  0
ELLIPSE
  5
48
100
AcDbEntity
  8
USP-GEO
  6
CONTINUOUS
100
AcDbEllipse
 10
1.825573753500855
 20
0.3069544327743614
 30
0.0
 11
0.0
 21
-0.0779999999999994
 31
0.0
210
0.0
220
0.0
230
1.0
 40
0.7071067811865475
 41
5.934003166977102
 42
6.326553863446207
1001
ACAD
1000
RTLwPs
1070
   128
  0
ELLIPSE
  5
49
100
AcDbEntity
  8
USP-GEO
  6
CONTINUOUS
100
AcDbEllipse
 10
1.825573753500855
 20
0.3069544327743614
 30
0.0
 11
0.0
 21
-0.0779999999999994
 31
0.0
210
0.0
220
0.0
230
1.0
 40
0.7071067811865475
 41
3.121753245905747
 42
9.081999840238353
1001
ACAD
1000
RTLwPs
1070
   128
  0
ELLIPSE
  5
4A
100
AcDbEntity
  8
USP-GEO
  6
CONTINUOUS
100
AcDbEllipse
 10
1.825573753500855
 20
0.3069544327743614
 30
0.0
 11
0.0
 21
-0.0779999999999994
 31
0.0
210
0.0
220
0.0
230
1.0
 40
0.7071067811865475
 41
0.023986512644759
 42
0.4073538694799676
1001
ACAD
1000
RTLwPs
1070
   128
  0
ELLIPSE
  5
4B
100
AcDbEntity
  8
USP-GEO
  6
CONTINUOUS
100
AcDbEllipse
 10
1.825573753500855
 20
0.3069544327743614
 30
0.0
 11
0.0
 21
-0.0779999999999994
 31
0.0
210
0.0
220
0.0
230
1.0
 40
0.7071067811865475
 41
0.8342534027889831
 42
6.674065465386428
1001
ACAD
1000
RTLwPs
1070
   128
  0
ELLIPSE
  5
4C
100
AcDbEntity
  8
USP-GEO
  6
CONTINUOUS
100
AcDbEllipse
 10
1.825573753500855
 20
0.3069544327743614
 30
0.0
 11
0.0
 21
-0.0779999999999994
 31
0.0
210
0.0
220
0.0
230
1.0
 40
0.7071067811865475
 41
2.813122024122039
 42
8.704898460351667
1001
ACAD
1000
RTLwPs
1070
   128
  0
ELLIPSE
  5
4D
100
AcDbEntity
  8
USP-GEO
  6
CONTINUOUS
100
AcDbEllipse
 10
1.825573753500855
 20
0.3069544327743614
 30
0.0
 11
0.0
 21
-0.0779999999999994
 31
0.0
210
0.0
220
0.0
230
1.0
 40
0.7071067811865475
 41
2.433571291116983
 42
8.167946692246328
1001
ACAD
1000
RTLwPs
1070
   128
  0
ELLIPSE
  5
4E
100
AcDbEntity
  8
USP-GEO
  6
CONTINUOUS
100
AcDbEllipse
 10
1.825573753500855
 20
0.3069544327743614
 30
0.0
 11
0.0
 21
-0.0779999999999994
 31
0.0
210
0.0
220
0.0
230
1.0
 40
0.7071067811865475
 41
0.8461617411280043
 42
1.880034499644644
1001
ACAD
1000
RTLwPs
1070
   128
  0
ELLIPSE
  5
4F
100
AcDbEntity
  8
USP-GEO
  6
CONTINUOUS
100
AcDbEllipse
 10
4.512326879034255
 20
0.4944544327743614
 30
0.0
 11
0.0
 21
-0.0779999999999994
 31
0.0
210
0.0
220
0.0
230
1.0
 40
0.7071067811865475
 41
1.105160806053494
 42
6.804668937344071
1001
ACAD
1000
RTLwPs
1070
   128
  0
ELLIPSE
  5
50
100
AcDbEntity
  8
USP-GEO
  6
CONTINUOUS
100
AcDbEllipse
 10
4.512326879034255
 20
0.4944544327743614
 30
0.0
 11
0.0
 21
-0.0779999999999994
 31
0.0
210
0.0
220
0.0
230
1.0
 40
0.7071067811865475
 41
1.113127761608672
 42
2.670212075277213
1001
ACAD
1000
RTLwPs
1070
   128
  0
ELLIPSE
  5
51
100
AcDbEntity
  8
USP-GEO
  6
CONTINUOUS
100
AcDbEllipse
 10
4.550675256164162
 20
0.4944544327743614
 30
0.0
 11
0.0
 21
-0.0779999999999994
 31
0.0
210
0.0
220
0.0
230
1.0
 40
0.7071067811865475
 41
3.323543198699577
 42
5.166377821783423
1001
ACAD
1000
RTLwPs
1070
   128
  0
ELLIPSE
  5
52
100
AcDbEntity
  8
USP-GEO
  6
CONTINUOUS
100
AcDbEllipse
 10
4.550675256164162
 20
0.4944544327743614
 30
0.0
 11
0.0
 21
-0.0779999999999994
 31
0.0
210
0.0
220
0.0
230
1.0
 40
0.7071067811865475
 41
3.339628215828815
 42
9.292612460050403
1001
ACAD
1000
RTLwPs
1070
   128
  0
ELLIPSE
  5
53
100
AcDbEntity
  8
USP-GEO
  6
CONTINUOUS
100
AcDbEllipse
 10
4.550675256164162
 20
0.4944544327743614
 30
0.0
 11
0.0
 21
-0.0779999999999994
 31
0.0
210
0.0
220
0.0
230
1.0
 40
0.7071067811865475
 41
5.158774815220361
 42
6.450264192799831
1001
ACAD
1000
RTLwPs
1070
   128
  0
ELLIPSE
  5
54
100
AcDbEntity
  8
USP-GEO
  6
CONTINUOUS
100
AcDbEllipse
 10
4.550675256164162
 20
0.4944544327743614
 30
0.0
 11
0.0
 21
-0.0779999999999994
 31
0.0
210
0.0
220
0.0
230
1.0
 40
0.7071067811865475
 41
1.091974197570456
 42
6.431927814617402
1001
ACAD
1000
RTLwPs
1070
   128
  0
ELLIPSE
  5
55
100
AcDbEntity
  8
USP-GEO
  6
CONTINUOUS
100
AcDbEllipse
 10
4.550675256164162
 20
0.4944544327743614
 30
0.0
 11
0.0
 21
-0.0779999999999994
 31
0.0
210
0.0
220
0.0
230
1.0
 40
0.7071067811865475
 41
1.100360772946816
 42
2.993073615085241
1001
ACAD
1000
RTLwPs
1070
   128
  0
LWPOLYLINE
  5
56
100
AcDbEntity
  8
USP-GEO
100
AcDbPolyline
 90
        2
 70
   128
 43
0.0
 10
4.336716355575263
 20
1.919847640295065
 10
4.336716355575263
 20
2.104271044742239
  0
LWPOLYLINE
  5
57
100
AcDbEntity
  8
USP-GEO
100
AcDbPolyline
 90
        2
 70
   128
 43
0.0
 10
4.336716355575263
 20
1.015250841481684
 10
4.336716355575263
 20
1.919847640295065
  0
LWPOLYLINE
  5
58
100
AcDbEntity
  8
USP-GEO
100
AcDbPolyline
 90
        2
 70
   128
 43
0.0
 10
4.336716355575263
 20
0.9045967988133813
 10
4.336716355575263
 20
1.015250841481684
  0
LWPOLYLINE
  5
59
100
AcDbEntity
  8
USP-GEO
100
AcDbPolyline
 90
        2
 70
   128
 43
0.0
 10
4.336716355575263
 20
0.8861544583686633
 10
4.336716355575263
 20
0.9045967988133813
  0
LWPOLYLINE
  5
5A
100
AcDbEntity
  8
USP-GEO
100
AcDbPolyline
 90
        2
 70
   128
 43
0.0
 10
4.336716355575263
 20
0.2766351066707582
 10
4.336716355575263
 20
0.8861544583686633
  0
LWPOLYLINE
  5
5B
100
AcDbEntity
  8
USP-GEO
100
AcDbPolyline
 90
        2
 70
   128
 43
0.0
 10
4.336716355575263
 20
0.1475387235577372
 10
4.336716355575263
 20
0.2766351066707582
  0
LWPOLYLINE
  5
5C
100
AcDbEntity
  8
USP-GEO
100
AcDbPolyline
 90
        2
 70
   128
 43
0.0
 10
4.336716355575263
 20
0.129096383113021
 10
4.336716355575263
 20
0.1475387235577372
  0
LWPOLYLINE
  5
5D
100
AcDbEntity
  8
USP-GEO
100
AcDbPolyline
 90
        2
 70
   128
 43
0.0
 10
4.336716355575263
 20
0.0
 10
4.336716355575263
 20
0.129096383113021
  0
LWPOLYLINE
  5
5E
100
AcDbEntity
  8
USP-GEO
100
AcDbPolyline
 90
        2
 70
   128
 43
0.0
 10
4.299831674685829
 20
0.996808501036968
 10
4.189177632017524
 20
1.125904884149989
  0
LWPOLYLINE
  5
5F
100
AcDbEntity
  8
USP-GEO
100
AcDbPolyline
 90
        2
 70
   128
 43
0.0
 10
4.336716355575263
 20
0.996808501036968
 10
4.299831674685829
 20
0.996808501036968
  0
LWPOLYLINE
  5
60
100
AcDbEntity
  8
USP-GEO
100
AcDbPolyline
 90
        2
 70
   128
 43
0.0
 10
4.189177632017524
 20
1.125904884149989
 10
4.299831674685829
 20
1.255001267263009
  0
LWPOLYLINE
  5
61
100
AcDbEntity
  8
USP-GEO
100
AcDbPolyline
 90
        2
 70
   128
 43
0.0
 10
4.299831674685829
 20
1.255001267263009
 10
4.336716355575263
 20
1.255001267263009
  0
LWPOLYLINE
  5
62
100
AcDbEntity
  8
USP-GEO
100
AcDbPolyline
 90
        2
 70
   128
 43
0.0
 10
2.066464246830569
 20
0.996808501036968
 10
2.177118289498872
 20
1.125904884149989
  0
LWPOLYLINE
  5
63
100
AcDbEntity
  8
USP-GEO
100
AcDbPolyline
 90
        2
 70
   128
 43
0.0
 10
2.029579565941134
 20
0.996808501036968
 10
2.066464246830569
 20
0.996808501036968
  0
LWPOLYLINE
  5
64
100
AcDbEntity
  8
USP-GEO
100
AcDbPolyline
 90
        2
 70
   128
 43
0.0
 10
2.177118289498872
 20
1.125904884149989
 10
2.066464246830569
 20
1.255001267263009
  0
LWPOLYLINE
  5
65
100
AcDbEntity
  8
USP-GEO
100
AcDbPolyline
 90
        2
 70
   128
 43
0.0
 10
2.066464246830569
 20
1.255001267263009
 10
2.029579565941134
 20
1.255001267263009
  0
LWPOLYLINE
  5
66
100
AcDbEntity
  8
USP-GEO
100
AcDbPolyline
 90
        2
 70
   128
 43
0.0
 10
1.900483182828113
 20
2.141155725631675
 10
1.974252544606982
 20
2.141155725631675
  0
LWPOLYLINE
  5
67
100
AcDbEntity
  8
USP-GEO
100
AcDbPolyline
 90
        2
 70
   128
 43
0.0
 10
1.900483182828113
 20
2.196482746965825
 10
1.937367863717548
 20
2.196482746965825
  0
LWPOLYLINE
  5
68
100
AcDbEntity
  8
USP-GEO
100
AcDbPolyline
 90
        2
 70
   128
 43
0.0
 10
1.974252544606982
 20
2.196482746965825
 10
1.974252544606982
 20
2.141155725631675
  0
LWPOLYLINE
  5
69
100
AcDbEntity
  8
USP-GEO
100
AcDbPolyline
 90
        2
 70
   128
 43
0.0
 10
2.029579565941134
 20
2.141155725631675
 10
1.974252544606982
 20
2.141155725631675
  0
LWPOLYLINE
  5
6A
100
AcDbEntity
  8
USP-GEO
100
AcDbPolyline
 90
        2
 70
   128
 43
0.0
 10
2.029579565941134
 20
2.104271044742239
 10
2.029579565941134
 20
2.141155725631675
  0
ARC
  5
6B
100
AcDbEntity
  8
USP-GEO
100
AcDbCircle
 10
1.941874504832491
 20
2.101918968746458
 30
0.0
 40
0.09
100
AcDbArc
 50
24.10238810085246
 51
71.09912039489891
  0
LWPOLYLINE
  5
6C
100
AcDbEntity
  8
USP-GEO
100
AcDbPolyline
 90
        2
 70
   128
 43
0.0
 10
1.974252544606982
 20
2.196482746965825
 10
1.937367863717548
 20
2.196482746965825
  0
LWPOLYLINE
  5
6D
100
AcDbEntity
  8
USP-GEO
100
AcDbPolyline
 90
        2
 70
   128
 43
0.0
 10
2.029579565941134
 20
2.104271044742239
 10
2.030501682963369
 20
2.104271044742239
  0
LWPOLYLINE
  5
6E
100
AcDbEntity
  8
USP-GEO
100
AcDbPolyline
 90
        2
 70
   128
 43
0.0
 10
1.974252544606982
 20
1.919847640295065
 10
1.974252544606982
 20
2.104271044742239
  0
LWPOLYLINE
  5
6F
100
AcDbEntity
  8
USP-GEO
100
AcDbPolyline
 90
        2
 70
   128
 43
0.0
 10
1.974252544606982
 20
1.015250841481684
 10
1.974252544606982
 20
1.919847640295065
  0
LWPOLYLINE
  5
70
100
AcDbEntity
  8
USP-GEO
100
AcDbPolyline
 90
        2
 70
   128
 43
0.0
 10
1.974252544606982
 20
0.9045967988133813
 10
1.974252544606982
 20
1.015250841481684
  0
LWPOLYLINE
  5
71
100
AcDbEntity
  8
USP-GEO
100
AcDbPolyline
 90
        2
 70
   128
 43
0.0
 10
1.974252544606982
 20
0.9045967988133813
 10
1.974252544606982
 20
0.8861544583686633
  0
LWPOLYLINE
  5
72
100
AcDbEntity
  8
USP-GEO
100
AcDbPolyline
 90
        2
 70
   128
 43
0.0
 10
1.974252544606982
 20
0.2766351066707582
 10
1.974252544606982
 20
0.8861544583686633
  0
LWPOLYLINE
  5
73
100
AcDbEntity
  8
USP-GEO
100
AcDbPolyline
 90
        2
 70
   128
 43
0.0
 10
1.974252544606982
 20
0.2766351066707582
 10
1.974252544606982
 20
0.1475387235577372
  0
LWPOLYLINE
  5
74
100
AcDbEntity
  8
USP-GEO
100
AcDbPolyline
 90
        2
 70
   128
 43
0.0
 10
1.974252544606982
 20
0.1475387235577372
 10
1.974252544606982
 20
0.129096383113021
  0
LWPOLYLINE
  5
75
100
AcDbEntity
  8
USP-GEO
100
AcDbPolyline
 90
        2
 70
   128
 43
0.0
 10
1.974252544606982
 20
0.0
 10
1.974252544606982
 20
0.129096383113021
  0
LWPOLYLINE
  5
76
100
AcDbEntity
  8
USP-GEO
100
AcDbPolyline
 90
        2
 70
   128
 43
0.0
 10
1.974252544606982
 20
2.104271044742239
 10
1.975174661629218
 20
2.104271044742239
  0
LWPOLYLINE
  5
77
100
AcDbEntity
  8
USP-GEO
100
AcDbPolyline
 90
        3
 70
   128
 43
0.0
 10
1.974252544606982
 20
2.104271044742239
 10
1.974252544606982
 20
2.141155725631675
 10
1.937367863717548
 20
2.141155725631675
  0
CIRCLE
  5
78
100
AcDbEntity
  8
USP-GEO
100
AcDbCircle
 10
0.2088079052502758
 20
3.191918968746469
 30
0.0
 40
0.09
  0
CIRCLE
  5
79
100
AcDbEntity
  8
USP-GEO
100
AcDbCircle
 10
1.608807905250281
 20
3.391918968746457
 30
0.0
 40
0.09
  0
LWPOLYLINE
  5
7A
100
AcDbEntity
  8
USP-GEO
100
AcDbPolyline
 90
        2
 70
   128
 43
0.0
 10
0.0
 20
3.692156557032395
 10
0.0
 20
2.233367427855258
  0
LWPOLYLINE
  5
7B
100
AcDbEntity
  8
USP-GEO
100
AcDbPolyline
 90
        2
 70
   128
 43
0.0
 10
0.0
 20
3.692156557032395
 10
1.900483182828113
 20
3.692156557032395
  0
LWPOLYLINE
  5
7C
100
AcDbEntity
  8
USP-GEO
100
AcDbPolyline
 90
        2
 70
   128
 43
0.0
 10
1.900483182828113
 20
3.692156557032395
 10
1.900483182828113
 20
2.233367427855258
  0
LWPOLYLINE
  5
7D
100
AcDbEntity
  8
USP-GEO
100
AcDbPolyline
 90
        2
 70
   128
 43
0.0
 10
1.900483182828113
 20
2.233367427855258
 10
1.900483182828113
 20
2.141155725631675
  0
LWPOLYLINE
  5
7E
100
AcDbEntity
  8
USP-GEO
100
AcDbPolyline
 90
        2
 70
   128
 43
0.0
 10
1.900483182828113
 20
2.141155725631675
 10
0.0
 20
2.141155725631675
  0
LWPOLYLINE
  5
7F
100
AcDbEntity
  8
USP-GEO
100
AcDbPolyline
 90
        2
 70
   128
 43
0.0
 10
0.0
 20
2.141155725631675
 10
0.0
 20
2.233367427855258
  0
ARC
  5
80
100
AcDbEntity
  8
USP-GEO
100
AcDbCircle
 10
4.344374504832523
 20
0.4944544327743614
 30
0.0
 40
0.302
100
AcDbArc
 50
279.2845741209794
 51
80.95622522846403
  0
ARC
  5
81
100
AcDbEntity
  8
USP-GEO
100
AcDbCircle
 10
2.031874504832495
 20
0.3069544327743614
 30
0.0
 40
0.302
100
AcDbArc
 50
100.782570462711
 51
258.7054320490711
  0
TEXT
  5
82
100
AcDbEntity
  8
USP-TXT
100
AcDbText
 10
0.8289812940915336
 20
-0.9406918871707716
 30
0.0
 40
0.25
  1
TFL23950 - TOP VIEW
 72
     1
 11
3.183147960758199
 21
-0.9406918871707716
 31
0.0
100
AcDbText
  0
ENDBLK
  5
89
100
AcDbEntity
  8
0
100
AcDbBlockEnd
  0
BLOCK
  5
103
100
AcDbEntity
  8
0
100
AcDbBlockBegin
  2
TFL2395PR_F
 70
     0
 10
0.0
 20
0.0
 30
0.0
  3
TFL2395PR_F
  1

  0
LWPOLYLINE
  5
8C
100
AcDbEntity
  8
USP-GEO
100
AcDbPolyline
 90
        2
 70
   128
 43
0.0
 10
6.366295921516397
 20
9.562353520585897
 10
4.465812738688284
 20
9.562353520585897
  0
LWPOLYLINE
  5
8D
100
AcDbEntity
  8
USP-GEO
100
AcDbPolyline
 90
        2
 70
   128
 43
0.0
 10
1.900483182828113
 20
9.562353520585897
 10
0.0
 20
9.562353520585897
  0
CIRCLE
  5
8E
100
AcDbEntity
  8
USP-GEO
100
AcDbCircle
 10
1.533807905250278
 20
8.555070618580737
 30
0.0
 40
0.09
  0
LWPOLYLINE
  5
8F
100
AcDbEntity
  8
USP-GEO
100
AcDbPolyline
 90
        2
 70
   128
 43
0.0
 10
1.550078714378485
 20
4.818061441182384
 10
1.660732757046788
 20
4.928715483850687
  0
LWPOLYLINE
  5
90
100
AcDbEntity
  8
USP-GEO
100
AcDbPolyline
 90
        2
 70
   128
 43
0.0
 10
1.660732757046788
 20
4.70740739851408
 10
1.550078714378485
 20
4.818061441182384
  0
LWPOLYLINE
  5
91
100
AcDbEntity
  8
USP-GEO
100
AcDbPolyline
 90
        2
 70
   128
 43
0.0
 10
1.771386799715092
 20
4.818061441182384
 10
1.660732757046788
 20
4.70740739851408
  0
LWPOLYLINE
  5
92
100
AcDbEntity
  8
USP-GEO
100
AcDbPolyline
 90
        2
 70
   128
 43
0.0
 10
1.660732757046788
 20
4.928715483850687
 10
1.771386799715092
 20
4.818061441182384
  0
LWPOLYLINE
  5
93
100
AcDbEntity
  8
USP-GEO
100
AcDbPolyline
 90
        2
 70
   128
 43
0.0
 10
1.863598501938679
 20
2.251809768299978
 10
1.236558926818292
 20
5.408216335413337
  0
ARC
  5
94
100
AcDbEntity
  8
USP-GEO
100
AcDbCircle
 10
1.979874504832502
 20
5.552032467279355
 30
0.0
 40
0.75
100
AcDbArc
 50
179.6419841710455
 51
190.95024371987
  0
LWPOLYLINE
  5
95
100
AcDbEntity
  8
USP-GEO
100
AcDbPolyline
 90
        2
 70
   128
 43
0.0
 10
1.236558926818292
 20
7.753159922959136
 10
1.236558926818292
 20
5.556677175993311
  0
ARC
  5
96
100
AcDbEntity
  8
USP-GEO
100
AcDbCircle
 10
0.7298745048325026
 20
7.747293473654588
 30
0.0
 40
0.5
100
AcDbArc
 50
0.6633473481987623
 51
41.81904460433583
  0
LWPOLYLINE
  5
97
100
AcDbEntity
  8
USP-GEO
100
AcDbPolyline
 90
        2
 70
   128
 43
0.0
 10
1.107462543705271
 20
8.085122050964047
 10
0.2028657448918896
 20
9.100372892445731
  0
ARC
  5
98
100
AcDbEntity
  8
USP-GEO
100
AcDbCircle
 10
0.0146918437537176
 20
8.930070618580737
 30
0.0
 40
0.25
100
AcDbArc
 50
42.14591427859269
 51
89.11964075704421
  0
ARC
  5
99
100
AcDbEntity
  8
USP-GEO
100
AcDbCircle
 10
0.0146918437537176
 20
9.285954557084176
 30
0.0
 40
0.1058839385034389
100
AcDbArc
 50
262.5143685477704
 51
271.9211400621124
  0
LWPOLYLINE
  5
9A
100
AcDbEntity
  8
USP-GEO
100
AcDbPolyline
 90
        2
 70
   128
 43
0.0
 10
0.0
 20
9.525468839696465
 10
0.0
 20
9.174142254224602
  0
LWPOLYLINE
  5
9B
100
AcDbEntity
  8
USP-GEO
100
AcDbPolyline
 90
        2
 70
   128
 43
0.0
 10
2.029579565941134
 20
5.408216335413337
 10
2.029579565941134
 20
2.251809768299978
  0
LWPOLYLINE
  5
9C
100
AcDbEntity
  8
USP-GEO
100
AcDbPolyline
 90
        2
 70
   128
 43
0.0
 10
2.029579565941134
 20
2.251809768299978
 10
1.974252544606982
 20
2.251809768299978
  0
LWPOLYLINE
  5
9D
100
AcDbEntity
  8
USP-GEO
100
AcDbPolyline
 90
        2
 70
   128
 43
0.0
 10
2.029579565941134
 20
2.251809768299978
 10
2.029579565941134
 20
2.159598066076391
  0
LWPOLYLINE
  5
9E
100
AcDbEntity
  8
USP-GEO
100
AcDbPolyline
 90
        2
 70
   128
 43
0.0
 10
2.029579565941134
 20
2.159598066076391
 10
1.974252544606982
 20
2.159598066076391
  0
LWPOLYLINE
  5
9F
100
AcDbEntity
  8
USP-GEO
100
AcDbPolyline
 90
        2
 70
   128
 43
0.0
 10
2.029579565941134
 20
2.159598066076391
 10
2.029579565941134
 20
2.03050168296337
  0
LWPOLYLINE
  5
A0
100
AcDbEntity
  8
USP-GEO
100
AcDbPolyline
 90
        2
 70
   128
 43
0.0
 10
2.029579565941134
 20
2.03050168296337
 10
2.029579565941134
 20
0.0922117022235867
  0
LWPOLYLINE
  5
A1
100
AcDbEntity
  8
USP-GEO
100
AcDbPolyline
 90
        2
 70
   128
 43
0.0
 10
2.029579565941134
 20
9.174142254224602
 10
2.029579565941134
 20
9.100372892445731
  0
LWPOLYLINE
  5
A2
100
AcDbEntity
  8
USP-GEO
100
AcDbPolyline
 90
        2
 70
   128
 43
0.0
 10
2.029579565941134
 20
9.100372892445731
 10
2.029579565941134
 20
8.085122050964047
  0
LWPOLYLINE
  5
A3
100
AcDbEntity
  8
USP-GEO
100
AcDbPolyline
 90
        2
 70
   128
 43
0.0
 10
2.029579565941134
 20
8.085122050964047
 10
2.029579565941134
 20
7.753159922959136
  0
LWPOLYLINE
  5
A4
100
AcDbEntity
  8
USP-GEO
100
AcDbPolyline
 90
        2
 70
   128
 43
0.0
 10
2.029579565941134
 20
7.753159922959136
 10
2.029579565941134
 20
5.556677175993311
  0
LWPOLYLINE
  5
A5
100
AcDbEntity
  8
USP-GEO
100
AcDbPolyline
 90
        2
 70
   128
 43
0.0
 10
2.029579565941134
 20
5.556677175993311
 10
2.029579565941134
 20
5.408216335413337
  0
LWPOLYLINE
  5
A6
100
AcDbEntity
  8
USP-GEO
100
AcDbPolyline
 90
        2
 70
   128
 43
0.0
 10
4.336716355575263
 20
2.159598066076391
 10
4.392043376909415
 20
2.159598066076391
  0
LWPOLYLINE
  5
A7
100
AcDbEntity
  8
USP-GEO
100
AcDbPolyline
 90
        2
 70
   128
 43
0.0
 10
4.336716355575263
 20
2.251809768299978
 10
4.392043376909415
 20
2.251809768299978
  0
LWPOLYLINE
  5
A8
100
AcDbEntity
  8
USP-GEO
100
AcDbPolyline
 90
        2
 70
   128
 43
0.0
 10
4.355158696019979
 20
9.192584594669318
 10
4.392043376909415
 20
9.192584594669318
  0
ARC
  5
A9
100
AcDbEntity
  8
USP-GEO
100
AcDbCircle
 10
2.069874504832506
 20
0.0931206185807359
 30
0.0
 40
0.09
100
AcDbArc
 50
180.5445977341771
 51
267.9026545134829
  0
LWPOLYLINE
  5
AA
100
AcDbEntity
  8
USP-GEO
100
AcDbPolyline
 90
        2
 70
   128
 43
0.0
 10
4.299831674685829
 20
0.0
 10
2.066464246830569
 20
0.0
  0
ARC
  5
AB
100
AcDbEntity
  8
USP-GEO
100
AcDbCircle
 10
4.306374504832512
 20
0.0931206185807359
 30
0.0
 40
0.09
100
AcDbArc
 50
265.9808956212009
 51
359.3921349020549
  0
ARC
  5
AC
100
AcDbEntity
  8
USP-GEO
100
AcDbCircle
 10
2.069874504832491
 20
0.0931206185807359
 30
0.0
 40
0.038
100
AcDbArc
 50
181.2921782004665
 51
264.8439504473325
  0
LWPOLYLINE
  5
AD
100
AcDbEntity
  8
USP-GEO
100
AcDbPolyline
 90
        2
 70
   128
 43
0.0
 10
2.066464246830569
 20
0.0553270213341541
 10
4.299831674685829
 20
0.0553270213341541
  0
ARC
  5
AE
100
AcDbEntity
  8
USP-GEO
100
AcDbCircle
 10
4.306374504832526
 20
0.0931206185807359
 30
0.0
 40
0.038
100
AcDbArc
 50
260.1782992223679
 51
358.2841685290639
  0
CIRCLE
  5
AF
100
AcDbEntity
  8
USP-GEO
100
AcDbCircle
 10
4.842441104414981
 20
8.555070618580794
 30
0.0
 40
0.09
  0
LWPOLYLINE
  5
B0
100
AcDbEntity
  8
USP-GEO
100
AcDbPolyline
 90
        2
 70
   128
 43
0.0
 10
4.705563164469608
 20
4.928715483850687
 10
4.816217207137911
 20
4.818061441182384
  0
LWPOLYLINE
  5
B1
100
AcDbEntity
  8
USP-GEO
100
AcDbPolyline
 90
        2
 70
   128
 43
0.0
 10
4.594909121801305
 20
4.818061441182384
 10
4.705563164469608
 20
4.928715483850687
  0
LWPOLYLINE
  5
B2
100
AcDbEntity
  8
USP-GEO
100
AcDbPolyline
 90
        2
 70
   128
 43
0.0
 10
4.705563164469608
 20
4.70740739851408
 10
4.594909121801305
 20
4.818061441182384
  0
LWPOLYLINE
  5
B3
100
AcDbEntity
  8
USP-GEO
100
AcDbPolyline
 90
        2
 70
   128
 43
0.0
 10
4.816217207137911
 20
4.818061441182384
 10
4.705563164469608
 20
4.70740739851408
  0
ARC
  5
B4
100
AcDbEntity
  8
USP-GEO
100
AcDbCircle
 10
6.361557165911542
 20
9.285954557084233
 30
0.0
 40
0.1058839385034389
100
AcDbArc
 50
272.4268198024098
 51
272.8983162332819
  0
ARC
  5
B5
100
AcDbEntity
  8
USP-GEO
100
AcDbCircle
 10
6.361557165911542
 20
8.930070618580794
 30
0.0
 40
0.25
100
AcDbArc
 50
88.8877175867818
 51
136.5356052820715
  0
LWPOLYLINE
  5
B6
100
AcDbEntity
  8
USP-GEO
100
AcDbPolyline
 90
        2
 70
   128
 43
0.0
 10
5.277275718255842
 20
8.085122050964047
 10
6.181872517069224
 20
9.100372892445731
  0
ARC
  5
B7
100
AcDbEntity
  8
USP-GEO
100
AcDbCircle
 10
5.646374504832757
 20
7.747293473654645
 30
0.0
 40
0.5
100
AcDbArc
 50
137.5327691858967
 51
179.3253502402159
  0
LWPOLYLINE
  5
B8
100
AcDbEntity
  8
USP-GEO
100
AcDbPolyline
 90
        2
 70
   128
 43
0.0
 10
5.148179335142821
 20
7.753159922959136
 10
5.148179335142821
 20
5.556677175993311
  0
ARC
  5
B9
100
AcDbEntity
  8
USP-GEO
100
AcDbCircle
 10
4.396374504832757
 20
5.552032467279412
 30
0.0
 40
0.75
100
AcDbArc
 50
348.9048050068316
 51
0.3539732785442327
  0
LWPOLYLINE
  5
BA
100
AcDbEntity
  8
USP-GEO
100
AcDbPolyline
 90
        2
 70
   128
 43
0.0
 10
4.521139760022435
 20
2.251809768299978
 10
5.129736994698105
 20
5.408216335413337
  0
LWPOLYLINE
  5
BB
100
AcDbEntity
  8
USP-GEO
100
AcDbPolyline
 90
        2
 70
   128
 43
0.0
 10
4.42892805779885
 20
9.192584594669318
 10
4.392043376909415
 20
9.192584594669318
  0
LWPOLYLINE
  5
BC
100
AcDbEntity
  8
USP-GEO
100
AcDbPolyline
 90
        2
 70
   128
 43
0.0
 10
4.465812738688284
 20
9.525468839696465
 10
4.465812738688284
 20
9.284796296892903
  0
LWPOLYLINE
  5
BD
100
AcDbEntity
  8
USP-GEO
100
AcDbPolyline
 90
        2
 70
   128
 43
0.0
 10
4.392043376909415
 20
0.0922117022235867
 10
4.392043376909415
 20
2.03050168296337
  0
LWPOLYLINE
  5
BE
100
AcDbEntity
  8
USP-GEO
100
AcDbPolyline
 90
        2
 70
   128
 43
0.0
 10
4.392043376909415
 20
2.159598066076391
 10
4.392043376909415
 20
2.03050168296337
  0
LWPOLYLINE
  5
BF
100
AcDbEntity
  8
USP-GEO
100
AcDbPolyline
 90
        2
 70
   128
 43
0.0
 10
4.392043376909415
 20
2.159598066076391
 10
4.392043376909415
 20
2.251809768299978
  0
LWPOLYLINE
  5
C0
100
AcDbEntity
  8
USP-GEO
100
AcDbPolyline
 90
        2
 70
   128
 43
0.0
 10
4.392043376909415
 20
2.251809768299978
 10
4.392043376909415
 20
5.408216335413337
  0
LWPOLYLINE
  5
C1
100
AcDbEntity
  8
USP-GEO
100
AcDbPolyline
 90
        2
 70
   128
 43
0.0
 10
4.392043376909415
 20
5.408216335413337
 10
4.392043376909415
 20
5.556677175993311
  0
LWPOLYLINE
  5
C2
100
AcDbEntity
  8
USP-GEO
100
AcDbPolyline
 90
        2
 70
   128
 43
0.0
 10
4.392043376909415
 20
7.753159922959136
 10
4.392043376909415
 20
5.556677175993311
  0
LWPOLYLINE
  5
C3
100
AcDbEntity
  8
USP-GEO
100
AcDbPolyline
 90
        2
 70
   128
 43
0.0
 10
4.392043376909415
 20
8.085122050964047
 10
4.392043376909415
 20
7.753159922959136
  0
LWPOLYLINE
  5
C4
100
AcDbEntity
  8
USP-GEO
100
AcDbPolyline
 90
        2
 70
   128
 43
0.0
 10
4.392043376909415
 20
8.085122050964047
 10
4.392043376909415
 20
9.100372892445731
  0
LWPOLYLINE
  5
C5
100
AcDbEntity
  8
USP-GEO
100
AcDbPolyline
 90
        2
 70
   128
 43
0.0
 10
4.392043376909415
 20
9.174142254224602
 10
4.392043376909415
 20
9.100372892445731
  0
LWPOLYLINE
  5
C6
100
AcDbEntity
  8
USP-GEO
100
AcDbPolyline
 90
        2
 70
   128
 43
0.0
 10
4.392043376909415
 20
9.174142254224602
 10
4.39296549393165
 20
9.174142254224602
  0
LWPOLYLINE
  5
C7
100
AcDbEntity
  8
USP-GEO
100
AcDbPolyline
 90
        2
 70
   128
 43
0.0
 10
4.392043376909415
 20
9.174142254224602
 10
4.42892805779885
 20
9.192584594669318
  0
LWPOLYLINE
  5
C8
100
AcDbEntity
  8
USP-GEO
100
AcDbPolyline
 90
        2
 70
   128
 43
0.0
 10
6.366295921516397
 20
9.525468839696465
 10
6.366295921516397
 20
9.174142254224602
  0
LWPOLYLINE
  5
C9
100
AcDbEntity
  8
USP-GEO
100
AcDbPolyline
 90
        2
 70
   128
 43
0.0
 10
4.465812738688284
 20
9.525468839696465
 10
4.465812738688284
 20
9.617680541920051
  0
LWPOLYLINE
  5
CA
100
AcDbEntity
  8
USP-GEO
100
AcDbPolyline
 90
        2
 70
   128
 43
0.0
 10
4.465812738688284
 20
9.617680541920051
 10
6.366295921516397
 20
9.617680541920051
  0
LWPOLYLINE
  5
CB
100
AcDbEntity
  8
USP-GEO
100
AcDbPolyline
 90
        2
 70
   128
 43
0.0
 10
6.366295921516397
 20
9.617680541920051
 10
6.366295921516397
 20
9.525468839696465
  0
ARC
  5
CC
100
AcDbEntity
  8
USP-GEO
100
AcDbCircle
 10
4.361557165911542
 20
9.285954557084233
 30
0.0
 40
0.1058839385034389
100
AcDbArc
 50
288.082369613438
 51
359.3634806408156
  0
LWPOLYLINE
  5
CD
100
AcDbEntity
  8
USP-GEO
100
AcDbPolyline
 90
        2
 70
   128
 43
0.0
 10
4.42892805779885
 20
2.159598066076391
 10
4.392043376909415
 20
2.159598066076391
  0
ARC
  5
CE
100
AcDbEntity
  8
USP-GEO
100
AcDbCircle
 10
4.396374504832757
 20
2.28949561858081
 30
0.0
 40
0.125
100
AcDbArc
 50
284.0691031035788
 51
343.1928460401183
  0
LWPOLYLINE
  5
CF
100
AcDbEntity
  8
USP-GEO
100
AcDbPolyline
 90
        2
 70
   128
 43
0.0
 10
4.355158696019979
 20
9.192584594669318
 10
4.336716355575263
 20
9.174142254224602
  0
LWPOLYLINE
  5
D0
100
AcDbEntity
  8
USP-GEO
100
AcDbPolyline
 90
        2
 70
   128
 43
0.0
 10
4.336716355575263
 20
9.174142254224602
 10
4.337638472597499
 20
9.174142254224602
  0
LWPOLYLINE
  5
D1
100
AcDbEntity
  8
USP-GEO
100
AcDbPolyline
 90
        2
 70
   128
 43
0.0
 10
1.882040842383395
 20
1.568521054823204
 10
1.771386799715092
 20
1.457867012154899
  0
LWPOLYLINE
  5
D2
100
AcDbEntity
  8
USP-GEO
100
AcDbPolyline
 90
        2
 70
   128
 43
0.0
 10
4.502697419577718
 20
1.568521054823204
 10
4.613351462246021
 20
1.457867012154899
  0
LWPOLYLINE
  5
D3
100
AcDbEntity
  8
USP-GEO
100
AcDbPolyline
 90
        2
 70
   128
 43
0.0
 10
4.336716355575263
 20
9.100372892445731
 10
4.336716355575263
 20
9.174142254224602
  0
LWPOLYLINE
  5
D4
100
AcDbEntity
  8
USP-GEO
100
AcDbPolyline
 90
        2
 70
   128
 43
0.0
 10
4.336716355575263
 20
8.085122050964047
 10
4.336716355575263
 20
9.100372892445731
  0
LWPOLYLINE
  5
D5
100
AcDbEntity
  8
USP-GEO
100
AcDbPolyline
 90
        2
 70
   128
 43
0.0
 10
4.336716355575263
 20
7.753159922959136
 10
4.336716355575263
 20
8.085122050964047
  0
LWPOLYLINE
  5
D6
100
AcDbEntity
  8
USP-GEO
100
AcDbPolyline
 90
        2
 70
   128
 43
0.0
 10
4.336716355575263
 20
5.556677175993311
 10
4.336716355575263
 20
7.753159922959136
  0
LWPOLYLINE
  5
D7
100
AcDbEntity
  8
USP-GEO
100
AcDbPolyline
 90
        2
 70
   128
 43
0.0
 10
4.336716355575263
 20
5.408216335413337
 10
4.336716355575263
 20
5.556677175993311
  0
LWPOLYLINE
  5
D8
100
AcDbEntity
  8
USP-GEO
100
AcDbPolyline
 90
        2
 70
   128
 43
0.0
 10
4.336716355575263
 20
2.251809768299978
 10
4.336716355575263
 20
5.408216335413337
  0
LWPOLYLINE
  5
D9
100
AcDbEntity
  8
USP-GEO
100
AcDbPolyline
 90
        2
 70
   128
 43
0.0
 10
4.336716355575263
 20
2.159598066076391
 10
4.336716355575263
 20
2.251809768299978
  0
LWPOLYLINE
  5
DA
100
AcDbEntity
  8
USP-GEO
100
AcDbPolyline
 90
        2
 70
   128
 43
0.0
 10
4.336716355575263
 20
2.03050168296337
 10
4.336716355575263
 20
2.159598066076391
  0
LWPOLYLINE
  5
DB
100
AcDbEntity
  8
USP-GEO
100
AcDbPolyline
 90
        2
 70
   128
 43
0.0
 10
4.336716355575263
 20
0.0922117022235867
 10
4.336716355575263
 20
2.03050168296337
  0
LWPOLYLINE
  5
DC
100
AcDbEntity
  8
USP-GEO
100
AcDbPolyline
 90
        2
 70
   128
 43
0.0
 10
4.299831674685829
 20
0.9599238201475337
 10
4.189177632017524
 20
0.8861544583686651
  0
LWPOLYLINE
  5
DD
100
AcDbEntity
  8
USP-GEO
100
AcDbPolyline
 90
        2
 70
   128
 43
0.0
 10
4.207619972462242
 20
0.8492697774792308
 10
4.318274015130545
 20
0.9045967988133831
  0
LWPOLYLINE
  5
DE
100
AcDbEntity
  8
USP-GEO
100
AcDbPolyline
 90
        2
 70
   128
 43
0.0
 10
4.318274015130545
 20
0.9045967988133831
 10
4.336716355575263
 20
0.9230391392580994
  0
LWPOLYLINE
  5
DF
100
AcDbEntity
  8
USP-GEO
100
AcDbPolyline
 90
        2
 70
   128
 43
0.0
 10
4.318274015130545
 20
0.9045967988133831
 10
4.299831674685829
 20
0.9599238201475337
  0
LWPOLYLINE
  5
E0
100
AcDbEntity
  8
USP-GEO
100
AcDbPolyline
 90
        2
 70
   128
 43
0.0
 10
4.336716355575263
 20
0.9783661605922517
 10
4.299831674685829
 20
0.9599238201475337
  0
LWPOLYLINE
  5
E1
100
AcDbEntity
  8
USP-GEO
100
AcDbPolyline
 90
        2
 70
   128
 43
0.0
 10
4.207619972462242
 20
0.8492697774792308
 10
4.189177632017524
 20
0.8861544583686651
  0
LWPOLYLINE
  5
E2
100
AcDbEntity
  8
USP-GEO
100
AcDbPolyline
 90
        2
 70
   128
 43
0.0
 10
2.066464246830569
 20
0.9599238201475337
 10
2.177118289498872
 20
0.8861544583686651
  0
LWPOLYLINE
  5
E3
100
AcDbEntity
  8
USP-GEO
100
AcDbPolyline
 90
        2
 70
   128
 43
0.0
 10
2.029579565941134
 20
0.9783661605922517
 10
2.066464246830569
 20
0.9599238201475337
  0
LWPOLYLINE
  5
E4
100
AcDbEntity
  8
USP-GEO
100
AcDbPolyline
 90
        2
 70
   128
 43
0.0
 10
2.048021906385851
 20
0.9045967988133831
 10
2.066464246830569
 20
0.9599238201475337
  0
LWPOLYLINE
  5
E5
100
AcDbEntity
  8
USP-GEO
100
AcDbPolyline
 90
        2
 70
   128
 43
0.0
 10
2.158675949054155
 20
0.8492697774792308
 10
2.177118289498872
 20
0.8861544583686651
  0
LWPOLYLINE
  5
E6
100
AcDbEntity
  8
USP-GEO
100
AcDbPolyline
 90
        2
 70
   128
 43
0.0
 10
2.048021906385851
 20
0.9045967988133831
 10
2.029579565941134
 20
0.9230391392580994
  0
LWPOLYLINE
  5
E7
100
AcDbEntity
  8
USP-GEO
100
AcDbPolyline
 90
        2
 70
   128
 43
0.0
 10
2.158675949054155
 20
0.8492697774792308
 10
2.048021906385851
 20
0.9045967988133831
  0
ARC
  5
E8
100
AcDbEntity
  8
USP-GEO
100
AcDbCircle
 10
1.979874504832502
 20
2.289495618580724
 30
0.0
 40
0.125
100
AcDbArc
 50
197.957865134891
 51
251.88024544577
  0
ARC
  5
E9
100
AcDbEntity
  8
USP-GEO
100
AcDbCircle
 10
2.014691843753717
 20
9.285954557084176
 30
0.0
 40
0.1058839385034389
100
AcDbArc
 50
180.5810517777678
 51
246.5821665762438
  0
LWPOLYLINE
  5
EA
100
AcDbEntity
  8
USP-GEO
100
AcDbPolyline
 90
        2
 70
   128
 43
0.0
 10
1.974252544606982
 20
9.192584594669318
 10
1.937367863717548
 20
9.192584594669318
  0
LWPOLYLINE
  5
EB
100
AcDbEntity
  8
USP-GEO
100
AcDbPolyline
 90
        2
 70
   128
 43
0.0
 10
2.029579565941134
 20
9.192584594669318
 10
1.974252544606982
 20
9.192584594669318
  0
LWPOLYLINE
  5
EC
100
AcDbEntity
  8
USP-GEO
100
AcDbPolyline
 90
        2
 70
   128
 43
0.0
 10
2.029579565941134
 20
9.174142254224602
 10
2.029579565941134
 20
9.192584594669318
  0
LWPOLYLINE
  5
ED
100
AcDbEntity
  8
USP-GEO
100
AcDbPolyline
 90
        2
 70
   128
 43
0.0
 10
2.029579565941134
 20
9.174142254224602
 10
2.030501682963369
 20
9.174142254224602
  0
LWPOLYLINE
  5
EE
100
AcDbEntity
  8
USP-GEO
100
AcDbPolyline
 90
        2
 70
   128
 43
0.0
 10
1.974252544606982
 20
9.100372892445731
 10
1.974252544606982
 20
9.174142254224602
  0
LWPOLYLINE
  5
EF
100
AcDbEntity
  8
USP-GEO
100
AcDbPolyline
 90
        2
 70
   128
 43
0.0
 10
1.974252544606982
 20
8.085122050964047
 10
1.974252544606982
 20
9.100372892445731
  0
LWPOLYLINE
  5
F0
100
AcDbEntity
  8
USP-GEO
100
AcDbPolyline
 90
        2
 70
   128
 43
0.0
 10
1.974252544606982
 20
7.753159922959136
 10
1.974252544606982
 20
8.085122050964047
  0
LWPOLYLINE
  5
F1
100
AcDbEntity
  8
USP-GEO
100
AcDbPolyline
 90
        2
 70
   128
 43
0.0
 10
1.974252544606982
 20
7.753159922959136
 10
1.974252544606982
 20
5.556677175993311
  0
LWPOLYLINE
  5
F2
100
AcDbEntity
  8
USP-GEO
100
AcDbPolyline
 90
        2
 70
   128
 43
0.0
 10
1.974252544606982
 20
5.556677175993311
 10
1.974252544606982
 20
5.408216335413337
  0
LWPOLYLINE
  5
F3
100
AcDbEntity
  8
USP-GEO
100
AcDbPolyline
 90
        2
 70
   128
 43
0.0
 10
1.974252544606982
 20
2.251809768299978
 10
1.974252544606982
 20
5.408216335413337
  0
LWPOLYLINE
  5
F4
100
AcDbEntity
  8
USP-GEO
100
AcDbPolyline
 90
        2
 70
   128
 43
0.0
 10
1.974252544606982
 20
2.251809768299978
 10
1.974252544606982
 20
2.159598066076391
  0
LWPOLYLINE
  5
F5
100
AcDbEntity
  8
USP-GEO
100
AcDbPolyline
 90
        2
 70
   128
 43
0.0
 10
1.974252544606982
 20
2.03050168296337
 10
1.974252544606982
 20
2.159598066076391
  0
LWPOLYLINE
  5
F6
100
AcDbEntity
  8
USP-GEO
100
AcDbPolyline
 90
        2
 70
   128
 43
0.0
 10
1.974252544606982
 20
0.0922117022235867
 10
1.974252544606982
 20
2.03050168296337
  0
LWPOLYLINE
  5
F7
100
AcDbEntity
  8
USP-GEO
100
AcDbPolyline
 90
        2
 70
   128
 43
0.0
 10
1.974252544606982
 20
9.174142254224602
 10
1.975174661629218
 20
9.174142254224602
  0
LWPOLYLINE
  5
F8
100
AcDbEntity
  8
USP-GEO
100
AcDbPolyline
 90
        2
 70
   128
 43
0.0
 10
1.974252544606982
 20
2.159598066076391
 10
1.937367863717548
 20
2.159598066076391
  0
LWPOLYLINE
  5
F9
100
AcDbEntity
  8
USP-GEO
100
AcDbPolyline
 90
        2
 70
   128
 43
0.0
 10
1.937367863717548
 20
9.192584594669318
 10
1.974252544606982
 20
9.174142254224602
  0
LWPOLYLINE
  5
FA
100
AcDbEntity
  8
USP-GEO
100
AcDbPolyline
 90
        2
 70
   128
 43
0.0
 10
1.900483182828113
 20
9.525468839696465
 10
1.900483182828113
 20
9.284796296892903
  0
LWPOLYLINE
  5
FB
100
AcDbEntity
  8
USP-GEO
100
AcDbPolyline
 90
        2
 70
   128
 43
0.0
 10
0.0
 20
9.617680541920051
 10
1.900483182828113
 20
9.617680541920051
  0
LWPOLYLINE
  5
FC
100
AcDbEntity
  8
USP-GEO
100
AcDbPolyline
 90
        2
 70
   128
 43
0.0
 10
1.900483182828113
 20
9.617680541920051
 10
1.900483182828113
 20
9.525468839696465
  0
LWPOLYLINE
  5
FD
100
AcDbEntity
  8
USP-GEO
100
AcDbPolyline
 90
        2
 70
   128
 43
0.0
 10
0.0
 20
9.525468839696465
 10
0.0
 20
9.617680541920051
  0
ARC
  5
FE
100
AcDbEntity
  8
USP-GEO
100
AcDbCircle
 10
4.344374504832523
 20
1.320120618580739
 30
0.0
 40
0.302
100
AcDbArc
 50
57.48779748052899
 51
80.51396606223125
  0
ARC
  5
FF
100
AcDbEntity
  8
USP-GEO
100
AcDbCircle
 10
4.344374504832523
 20
1.320120618580739
 30
0.0
 40
0.3020000000000001
100
AcDbArc
 50
278.8867074971733
 51
27.11754163475233
  0
ARC
  5
100
100
AcDbEntity
  8
USP-GEO
100
AcDbCircle
 10
2.031874504832495
 20
1.320120618580853
 30
0.0
 40
0.302
100
AcDbArc
 50
101.4189871174678
 51
121.0981294061108
  0
ARC
  5
101
100
AcDbEntity
  8
USP-GEO
100
AcDbCircle
 10
2.031874504832495
 20
1.320120618580853
 30
0.0
 40
0.302
100
AcDbArc
 50
152.1300288818841
 51
259.2970571968882
  0
TEXT
  5
102
100
AcDbEntity
  8
USP-TXT
100
AcDbText
 10
0.5789812940915336
 20
-0.9731273144414842
 30
0.0
 40
0.25
  1
TFL23950 - FRONT VIEW
 72
     1
 11
3.183147960758199
 21
-0.9731273144414842
 31
0.0
100
AcDbText
  0
ENDBLK
  5
104
100
AcDbEntity
  8
0
100
AcDbBlockEnd
  0
BLOCK
  5
150
100
AcDbEntity
  8
0
100
AcDbBlockBegin
  2
TFL2395PR_S
 70
     0
 10
0.0
 20
0.0
 30
0.0
  3
TFL2395PR_S
  1

  0
LWPOLYLINE
  5
107
100
AcDbEntity
  8
USP-GEO
100
AcDbPolyline
 90
        2
 70
   128
 43
0.0
 10
2.011137225496415
 20
0.0553270213341541
 10
0.0
 20
0.0553270213341541
  0
LWPOLYLINE
  5
108
100
AcDbEntity
  8
USP-GEO
100
AcDbPolyline
 90
        2
 70
   128
 43
0.0
 10
2.011137225496415
 20
0.0
 10
0.0
 20
0.0
  0
LWPOLYLINE
  5
109
100
AcDbEntity
  8
USP-GEO
100
AcDbPolyline
 90
        2
 70
   128
 43
0.0
 10
0.0
 20
0.0
 10
0.0
 20
0.0922117022235867
  0
LWPOLYLINE
  5
10A
100
AcDbEntity
  8
USP-GEO
100
AcDbPolyline
 90
        2
 70
   128
 43
0.0
 10
2.011137225496415
 20
0.0922117022235867
 10
2.011137225496415
 20
0.0
  0
LWPOLYLINE
  5
10B
100
AcDbEntity
  8
USP-GEO
100
AcDbPolyline
 90
        2
 70
   128
 43
0.0
 10
2.158675949054153
 20
9.174142254224602
 10
2.159598066076391
 20
9.174142254224602
  0
LWPOLYLINE
  5
10C
100
AcDbEntity
  8
USP-GEO
100
AcDbPolyline
 90
        2
 70
   128
 43
0.0
 10
2.158675949054153
 20
9.174142254224602
 10
2.158675949054153
 20
9.100372892445731
  0
LWPOLYLINE
  5
10D
100
AcDbEntity
  8
USP-GEO
100
AcDbPolyline
 90
        2
 70
   128
 43
0.0
 10
2.158675949054153
 20
8.085122050964047
 10
2.158675949054153
 20
9.100372892445731
  0
LWPOLYLINE
  5
10E
100
AcDbEntity
  8
USP-GEO
100
AcDbPolyline
 90
        2
 70
   128
 43
0.0
 10
2.158675949054153
 20
8.085122050964047
 10
2.158675949054153
 20
7.753159922959136
  0
LWPOLYLINE
  5
10F
100
AcDbEntity
  8
USP-GEO
100
AcDbPolyline
 90
        2
 70
   128
 43
0.0
 10
2.158675949054153
 20
7.753159922959136
 10
2.158675949054153
 20
5.556677175993311
  0
LWPOLYLINE
  5
110
100
AcDbEntity
  8
USP-GEO
100
AcDbPolyline
 90
        2
 70
   128
 43
0.0
 10
2.158675949054153
 20
5.408216335413337
 10
2.158675949054153
 20
5.556677175993311
  0
LWPOLYLINE
  5
111
100
AcDbEntity
  8
USP-GEO
100
AcDbPolyline
 90
        2
 70
   128
 43
0.0
 10
2.158675949054153
 20
2.251809768299978
 10
2.158675949054153
 20
5.408216335413337
  0
LWPOLYLINE
  5
112
100
AcDbEntity
  8
USP-GEO
100
AcDbPolyline
 90
        2
 70
   128
 43
0.0
 10
2.011137225496415
 20
0.0922117022235867
 10
2.011137225496415
 20
2.03050168296337
  0
LWPOLYLINE
  5
113
100
AcDbEntity
  8
USP-GEO
100
AcDbPolyline
 90
        2
 70
   128
 43
0.0
 10
0.0
 20
0.0922117022235867
 10
0.0
 20
2.03050168296337
  0
ARC
  5
114
100
AcDbEntity
  8
USP-GEO
100
AcDbCircle
 10
0.1325175077339651
 20
2.039495618580753
 30
0.0
 40
0.125
100
AcDbArc
 50
91.6316321288091
 51
183.8826982781177
  0
LWPOLYLINE
  5
115
100
AcDbEntity
  8
USP-GEO
100
AcDbPolyline
 90
        2
 70
   128
 43
0.0
 10
0.1475387235577372
 20
2.159598066076391
 10
0.1290963831130192
 20
2.159598066076391
  0
ARC
  5
116
100
AcDbEntity
  8
USP-GEO
100
AcDbCircle
 10
0.1552009081517696
 20
2.289495618580753
 30
0.0
 40
0.125
100
AcDbArc
 50
266.6242417394666
 51
342.7588096379805
  0
LWPOLYLINE
  5
117
100
AcDbEntity
  8
USP-GEO
100
AcDbPolyline
 90
        2
 70
   128
 43
0.0
 10
0.27663510667076
 20
2.251809768299978
 10
0.8852323413464269
 20
5.408216335413337
  0
ARC
  5
118
100
AcDbEntity
  8
USP-GEO
100
AcDbCircle
 10
0.1552009081517411
 20
5.552032467279355
 30
0.0
 40
0.75
100
AcDbArc
 50
348.8554433294447
 51
0.3555485840428336
  0
LWPOLYLINE
  5
119
100
AcDbEntity
  8
USP-GEO
100
AcDbPolyline
 90
        2
 70
   128
 43
0.0
 10
0.9036746817911449
 20
7.753159922959136
 10
0.9036746817911449
 20
5.556677175993311
  0
ARC
  5
11A
100
AcDbEntity
  8
USP-GEO
100
AcDbCircle
 10
1.405200908151741
 20
7.747293473654588
 30
0.0
 40
0.5
100
AcDbArc
 50
137.7890417354767
 51
179.3298307455426
  0
LWPOLYLINE
  5
11B
100
AcDbEntity
  8
USP-GEO
100
AcDbPolyline
 90
        2
 70
   128
 43
0.0
 10
1.032771064904167
 20
8.085122050964047
 10
1.937367863717547
 20
9.100372892445731
  0
ARC
  5
11C
100
AcDbEntity
  8
USP-GEO
100
AcDbCircle
 10
2.120383569230526
 20
8.930070618580737
 30
0.0
 40
0.25
100
AcDbArc
 50
89.66954655245794
 51
137.0607834319876
  0
CIRCLE
  5
11D
100
AcDbEntity
  8
USP-GEO
100
AcDbCircle
 10
1.405200908151769
 20
7.555070618580737
 30
0.0
 40
0.15625
  0
LWPOLYLINE
  5
11E
100
AcDbEntity
  8
USP-GEO
100
AcDbPolyline
 90
        2
 70
   128
 43
0.0
 10
1.494751693044332
 20
3.710598897477114
 10
1.605405735712636
 20
3.821252940145416
  0
LWPOLYLINE
  5
11F
100
AcDbEntity
  8
USP-GEO
100
AcDbPolyline
 90
        2
 70
   128
 43
0.0
 10
1.605405735712636
 20
3.599944854808809
 10
1.494751693044332
 20
3.710598897477114
  0
LWPOLYLINE
  5
120
100
AcDbEntity
  8
USP-GEO
100
AcDbPolyline
 90
        2
 70
   128
 43
0.0
 10
1.716059778380941
 20
3.710598897477114
 10
1.605405735712636
 20
3.599944854808809
  0
LWPOLYLINE
  5
121
100
AcDbEntity
  8
USP-GEO
100
AcDbPolyline
 90
        2
 70
   128
 43
0.0
 10
1.605405735712636
 20
3.821252940145416
 10
1.716059778380941
 20
3.710598897477114
  0
LWPOLYLINE
  5
122
100
AcDbEntity
  8
USP-GEO
100
AcDbPolyline
 90
        2
 70
   128
 43
0.0
 10
1.273443607707726
 20
0.9230391392580994
 10
1.12498276712775
 20
0.7939427561450785
  0
LWPOLYLINE
  5
123
100
AcDbEntity
  8
USP-GEO
100
AcDbPolyline
 90
        2
 70
   128
 43
0.0
 10
1.273443607707726
 20
0.9783661605922517
 10
1.273443607707726
 20
0.9230391392580994
  0
LWPOLYLINE
  5
124
100
AcDbEntity
  8
USP-GEO
100
AcDbPolyline
 90
        2
 70
   128
 43
0.0
 10
0.9958863840147316
 20
0.9783661605922517
 10
1.273443607707726
 20
0.9783661605922517
  0
LWPOLYLINE
  5
125
100
AcDbEntity
  8
USP-GEO
100
AcDbPolyline
 90
        2
 70
   128
 43
0.0
 10
0.9958863840147316
 20
0.9230391392580994
 10
0.9958863840147316
 20
0.9783661605922517
  0
LWPOLYLINE
  5
126
100
AcDbEntity
  8
USP-GEO
100
AcDbPolyline
 90
        2
 70
   128
 43
0.0
 10
2.12179126816472
 20
9.174142254224602
 10
2.122713385186955
 20
9.174142254224602
  0
LWPOLYLINE
  5
127
100
AcDbEntity
  8
USP-GEO
100
AcDbPolyline
 90
        2
 70
   128
 43
0.0
 10
2.12179126816472
 20
9.174142254224602
 10
2.158675949054153
 20
9.192584594669318
  0
LWPOLYLINE
  5
128
100
AcDbEntity
  8
USP-GEO
100
AcDbPolyline
 90
        2
 70
   128
 43
0.0
 10
3.708754663432639
 20
9.562353520585897
 10
3.708754663432639
 20
9.617680541920051
  0
LWPOLYLINE
  5
129
100
AcDbEntity
  8
USP-GEO
100
AcDbPolyline
 90
        2
 70
   128
 43
0.0
 10
3.708754663432639
 20
9.562353520585897
 10
2.250887651277739
 20
9.562353520585897
  0
ARC
  5
12A
100
AcDbEntity
  8
USP-GEO
100
AcDbCircle
 10
2.245200908151772
 20
9.517070618580811
 30
0.0
 40
0.038
100
AcDbArc
 50
82.84212083451047
 51
164.9336072692367
  0
LWPOLYLINE
  5
12B
100
AcDbEntity
  8
USP-GEO
100
AcDbPolyline
 90
        2
 70
   128
 43
0.0
 10
2.214002970388307
 20
9.174142254224602
 10
2.158675949054153
 20
9.174142254224602
  0
LWPOLYLINE
  5
12C
100
AcDbEntity
  8
USP-GEO
100
AcDbPolyline
 90
        2
 70
   128
 43
0.0
 10
2.158675949054153
 20
9.525468839696465
 10
2.158675949054153
 20
9.174142254224602
  0
LWPOLYLINE
  5
12D
100
AcDbEntity
  8
USP-GEO
100
AcDbPolyline
 90
        2
 70
   128
 43
0.0
 10
3.708754663432639
 20
9.617680541920051
 10
2.250887651277739
 20
9.617680541920051
  0
ARC
  5
12E
100
AcDbEntity
  8
USP-GEO
100
AcDbCircle
 10
2.245200908151772
 20
9.517070618580797
 30
0.0
 40
0.09
100
AcDbArc
 50
86.76493085167299
 51
174.4561654945162
  0
LWPOLYLINE
  5
12F
100
AcDbEntity
  8
USP-GEO
100
AcDbPolyline
 90
        2
 70
   128
 43
0.0
 10
2.214002970388307
 20
5.408216335413337
 10
2.214002970388307
 20
2.251809768299978
  0
LWPOLYLINE
  5
130
100
AcDbEntity
  8
USP-GEO
100
AcDbPolyline
 90
        2
 70
   128
 43
0.0
 10
2.214002970388307
 20
5.556677175993311
 10
2.214002970388307
 20
5.408216335413337
  0
LWPOLYLINE
  5
131
100
AcDbEntity
  8
USP-GEO
100
AcDbPolyline
 90
        2
 70
   128
 43
0.0
 10
2.214002970388307
 20
7.753159922959136
 10
2.214002970388307
 20
5.556677175993311
  0
LWPOLYLINE
  5
132
100
AcDbEntity
  8
USP-GEO
100
AcDbPolyline
 90
        2
 70
   128
 43
0.0
 10
2.214002970388307
 20
8.085122050964047
 10
2.214002970388307
 20
7.753159922959136
  0
LWPOLYLINE
  5
133
100
AcDbEntity
  8
USP-GEO
100
AcDbPolyline
 90
        2
 70
   128
 43
0.0
 10
2.214002970388307
 20
9.100372892445731
 10
2.214002970388307
 20
8.085122050964047
  0
LWPOLYLINE
  5
134
100
AcDbEntity
  8
USP-GEO
100
AcDbPolyline
 90
        2
 70
   128
 43
0.0
 10
2.214002970388307
 20
9.174142254224602
 10
2.214002970388307
 20
9.100372892445731
  0
LWPOLYLINE
  5
135
100
AcDbEntity
  8
USP-GEO
100
AcDbPolyline
 90
        2
 70
   128
 43
0.0
 10
2.214002970388307
 20
9.174142254224602
 10
2.214925087410541
 20
9.174142254224602
  0
LWPOLYLINE
  5
136
100
AcDbEntity
  8
USP-GEO
100
AcDbPolyline
 90
        2
 70
   128
 43
0.0
 10
2.214002970388307
 20
9.525468839696465
 10
2.214002970388307
 20
9.174142254224602
  0
LWPOLYLINE
  5
137
100
AcDbEntity
  8
USP-GEO
100
AcDbPolyline
 90
        2
 70
   128
 43
0.0
 10
2.12179126816472
 20
2.159598066076391
 10
2.140233608609438
 20
2.159598066076391
  0
LWPOLYLINE
  5
138
100
AcDbEntity
  8
USP-GEO
100
AcDbPolyline
 90
        2
 70
   128
 43
0.0
 10
2.158675949054153
 20
2.159598066076391
 10
2.12179126816472
 20
2.159598066076391
  0
LWPOLYLINE
  5
139
100
AcDbEntity
  8
USP-GEO
100
AcDbPolyline
 90
        2
 70
   128
 43
0.0
 10
2.158675949054153
 20
2.159598066076391
 10
2.158675949054153
 20
2.251809768299978
  0
LWPOLYLINE
  5
13A
100
AcDbEntity
  8
USP-GEO
100
AcDbPolyline
 90
        2
 70
   128
 43
0.0
 10
2.214002970388307
 20
2.251809768299978
 10
2.158675949054153
 20
2.251809768299978
  0
LWPOLYLINE
  5
13B
100
AcDbEntity
  8
USP-GEO
100
AcDbPolyline
 90
        2
 70
   128
 43
0.0
 10
2.214002970388307
 20
2.251809768299978
 10
2.214002970388307
 20
2.159598066076391
  0
LWPOLYLINE
  5
13C
100
AcDbEntity
  8
USP-GEO
100
AcDbPolyline
 90
        2
 70
   128
 43
0.0
 10
2.195560629943589
 20
2.159598066076391
 10
2.140233608609438
 20
2.159598066076391
  0
ARC
  5
13D
100
AcDbEntity
  8
USP-GEO
100
AcDbCircle
 10
2.132517507733965
 20
2.039495618580753
 30
0.0
 40
0.125
100
AcDbArc
 50
86.32402783883712
 51
184.237710973104
  0
LWPOLYLINE
  5
13E
100
AcDbEntity
  8
USP-GEO
100
AcDbPolyline
 90
        2
 70
   128
 43
0.0
 10
2.195560629943589
 20
2.159598066076391
 10
2.214002970388307
 20
2.159598066076391
  0
ARC
  5
13F
100
AcDbEntity
  8
USP-GEO
100
AcDbCircle
 10
0.3222363721796597
 20
1.320120618580853
 30
0.0
 40
0.25
100
AcDbArc
 50
35.35522270207197
 51
56.72228630493407
  0
ELLIPSE
  5
140
100
AcDbEntity
  8
USP-GEO
  6
CONTINUOUS
100
AcDbEllipse
 10
0.5097363721796598
 20
1.488072992782472
 30
0.0
 11
-0.0779999999999994
 21
0.000000000000002
 31
0.0
210
0.0
220
0.0
230
1.0
 40
0.7071067811865476
 41
3.258506449536513
 42
6.143383952267848
1001
ACAD
1000
RTLwPs
1070
   128
  0
CIRCLE
  5
141
100
AcDbEntity
  8
USP-GEO
100
AcDbCircle
 10
0.5097363721796598
 20
1.320120618580739
 30
0.0
 40
0.2974894956128717
  0
ELLIPSE
  5
142
100
AcDbEntity
  8
USP-GEO
  6
CONTINUOUS
100
AcDbEllipse
 10
0.5097363721796598
 20
1.526421369912378
 30
0.0
 11
-0.0779999999999994
 21
0.0000000000000014
 31
0.0
210
0.0
220
0.0
230
1.0
 40
0.7071067811865476
 41
5.815226729189303
 42
6.878013266128285
1001
ACAD
1000
RTLwPs
1070
   128
  0
ELLIPSE
  5
143
100
AcDbEntity
  8
USP-GEO
  6
CONTINUOUS
100
AcDbEllipse
 10
0.5097363721796598
 20
1.526421369912378
 30
0.0
 11
-0.0779999999999994
 21
0.0000000000000014
 31
0.0
210
0.0
220
0.0
230
1.0
 40
0.7071067811865476
 41
0.5884241966731373
 42
0.9778312520688892
1001
ACAD
1000
RTLwPs
1070
   128
  0
ELLIPSE
  5
144
100
AcDbEntity
  8
USP-GEO
  6
CONTINUOUS
100
AcDbEllipse
 10
0.5097363721796598
 20
1.526421369912378
 30
0.0
 11
-0.0779999999999994
 21
0.0000000000000014
 31
0.0
210
0.0
220
0.0
230
1.0
 40
0.7071067811865476
 41
4.892989981383347
 42
5.820772822762557
1001
ACAD
1000
RTLwPs
1070
   128
  0
ELLIPSE
  5
145
100
AcDbEntity
  8
USP-GEO
  6
CONTINUOUS
100
AcDbEllipse
 10
0.5097363721796598
 20
1.526421369912378
 30
0.0
 11
-0.0779999999999994
 21
0.0000000000000014
 31
0.0
210
0.0
220
0.0
230
1.0
 40
0.7071067811865476
 41
0.9689368463433524
 42
2.131045588897487
1001
ACAD
1000
RTLwPs
1070
   128
  0
ELLIPSE
  5
146
100
AcDbEntity
  8
USP-GEO
  6
CONTINUOUS
100
AcDbEllipse
 10
0.5097363721796598
 20
1.526421369912378
 30
0.0
 11
-0.0779999999999994
 21
0.0000000000000014
 31
0.0
210
0.0
220
0.0
230
1.0
 40
0.7071067811865476
 41
4.907936154276649
 42
10.35419958629116
1001
ACAD
1000
RTLwPs
1070
   128
  0
ELLIPSE
  5
147
100
AcDbEntity
  8
USP-GEO
  6
CONTINUOUS
100
AcDbEllipse
 10
0.5097363721796598
 20
1.526421369912378
 30
0.0
 11
-0.0779999999999994
 21
0.0000000000000014
 31
0.0
210
0.0
220
0.0
230
1.0
 40
0.7071067811865476
 41
4.081032173052146
 42
9.919778786523627
1001
ACAD
1000
RTLwPs
1070
   128
  0
ELLIPSE
  5
148
100
AcDbEntity
  8
USP-GEO
  6
CONTINUOUS
100
AcDbEllipse
 10
0.5097363721796598
 20
1.526421369912378
 30
0.0
 11
-0.0779999999999994
 21
0.0000000000000014
 31
0.0
210
0.0
220
0.0
230
1.0
 40
0.7071067811865476
 41
2.52281508509992
 42
8.404838849003127
1001
ACAD
1000
RTLwPs
1070
   128
  0
ELLIPSE
  5
149
100
AcDbEntity
  8
USP-GEO
  6
CONTINUOUS
100
AcDbEllipse
 10
0.5097363721796598
 20
1.526421369912378
 30
0.0
 11
-0.0779999999999994
 21
0.0000000000000014
 31
0.0
210
0.0
220
0.0
230
1.0
 40
0.7071067811865476
 41
2.913045327128142
 42
8.799005493475529
1001
ACAD
1000
RTLwPs
1070
   128
  0
ELLIPSE
  5
14A
100
AcDbEntity
  8
USP-GEO
  6
CONTINUOUS
100
AcDbEllipse
 10
0.5097363721796598
 20
1.526421369912378
 30
0.0
 11
-0.0779999999999994
 21
0.0000000000000014
 31
0.0
210
0.0
220
0.0
230
1.0
 40
0.7071067811865476
 41
2.91554841725996
 42
3.630444953017376
1001
ACAD
1000
RTLwPs
1070
   128
  0
LWPOLYLINE
  5
14B
100
AcDbEntity
  8
USP-GEO
100
AcDbPolyline
 90
        2
 70
   128
 43
0.0
 10
1.12498276712775
 20
0.7939427561450785
 10
0.9958863840147316
 20
0.9230391392580994
  0
LWPOLYLINE
  5
14C
100
AcDbEntity
  8
USP-GEO
100
AcDbPolyline
 90
        2
 70
   128
 43
0.0
 10
1.12498276712775
 20
0.8492697774792308
 10
1.051213405348882
 20
0.8861544583686651
  0
LWPOLYLINE
  5
14D
100
AcDbEntity
  8
USP-GEO
100
AcDbPolyline
 90
        2
 70
   128
 43
0.0
 10
0.9958863840147316
 20
0.9414814797028174
 10
1.273443607707726
 20
0.9414814797028174
  0
LWPOLYLINE
  5
14E
100
AcDbEntity
  8
USP-GEO
100
AcDbPolyline
 90
        2
 70
   128
 43
0.0
 10
1.218116586373575
 20
0.8861544583686651
 10
1.12498276712775
 20
0.8492697774792308
  0
TEXT
  5
14F
100
AcDbEntity
  8
USP-TXT
100
AcDbText
 10
-0.5831226682836799
 20
-0.9731273144414842
 30
0.0
 40
0.25
  1
TFL23950 - SIDE VIEW
 72
     1
 11
1.854377331716319
 21
-0.9731273144414842
 31
0.0
100
AcDbText
  0
ENDBLK
  5
151
100
AcDbEntity
  8
0
100
AcDbBlockEnd
  0
ENDSEC
  0
SECTION
  2
ENTITIES
  0
INSERT
  5
3
100
AcDbEntity
  8
USP
100
AcDbBlockReference
  2
TFL2395PR_T
 10
-0.0022580332260711
 20
14.80527347578447
 30
0.0
  0
INSERT
  5
8A
100
AcDbEntity
  8
USP
100
AcDbBlockReference
  2
TFL2395PR_F
 10
-0.0022580332260711
 20
1.73610891963559
 30
0.0
  0
INSERT
  5
105
100
AcDbEntity
  8
USP
100
AcDbBlockReference
  2
TFL2395PR_S
 10
10.55321552030785
 20
1.73610891963559
 30
0.0
  0
ENDSEC
  0
SECTION
  2
OBJECTS
  0
DICTIONARY
  5
169
100
AcDbDictionary
  3
ACAD_GROUP
350
167
  3
ACAD_MLINESTYLE
350
168
  0
DICTIONARY
  5
9
100
AcDbDictionary
280
     1
  3
ACAD_XREC_ROUNDTRIP
360
A
  0
DICTIONARY
  5
84
100
AcDbDictionary
280
     1
  3
ACAD_XREC_ROUNDTRIP
360
85
  0
DICTIONARY
  5
16C
100
AcDbDictionary
280
     1
  3
ACAD_XREC_ROUNDTRIP
360
16D
  0
DICTIONARY
  5
152
100
AcDbDictionary
280
     1
  3
ACAD_LAYOUTSELFREF
360
153
  0
DICTIONARY
  5
157
100
AcDbDictionary
280
     1
  3
ACAD_LAYOUTSELFREF
360
158
  0
DICTIONARY
  5
167
102
{ACAD_REACTORS
330
169
102
}
100
AcDbDictionary
  0
DICTIONARY
  5
168
102
{ACAD_REACTORS
330
169
102
}
100
AcDbDictionary
  3
STANDARD
350
16A
  0
XRECORD
  5
A
102
{ACAD_REACTORS
330
9
102
}
100
AcDbXrecord
102
EXTNAMES
  1
USP-GEO
  2
USP-Geo
  0
XRECORD
  5
85
102
{ACAD_REACTORS
330
84
102
}
100
AcDbXrecord
102
EXTNAMES
  1
USP-TXT
  2
USP-Txt
  0
XRECORD
  5
16D
102
{ACAD_REACTORS
330
16C
102
}
100
AcDbXrecord
102
ACADR14ROUNDTRIP
1000
DSTYLE
1002
{
1070
   276
 70
     2
1070
   277
 70
     5
1002
}
  0
XRECORD
  5
153
102
{ACAD_REACTORS
330
152
102
}
100
AcDbXrecord
340
2
  0
XRECORD
  5
158
102
{ACAD_REACTORS
330
157
102
}
100
AcDbXrecord
340
0
  0
MLINESTYLE
  5
16A
102
{ACAD_REACTORS
330
168
102
}
100
AcDbMlineStyle
  2
STANDARD
 70
     0
  3

 62
     0
 51
90.0
 52
90.0
 71
     2
 49
0.5
 62
   256
  6
BYLAYER
 49
-0.5
 62
   256
  6
BYLAYER
  0
ENDSEC
  0
EOF
