  0
SECTION
  2
HEADER
  9
$ACADVER
  1
AC1014
  9
$ACADMAINTVER
 70
     8
  9
$DWGCODEPAGE
  3
ANSI_1252
  9
$INSBASE
 10
0.0
 20
0.0
 30
0.0
  9
$EXTMIN
 10
-0.0004167556987031
 20
0.6531637791220551
 30
0.0
  9
$EXTMAX
 10
14.3378690973537
 20
17.81738240152632
 30
0.0
  9
$LIMMIN
 10
0.0
 20
0.0
  9
$LIMMAX
 10
12.0
 20
9.0
  9
$ORTHOMODE
 70
     0
  9
$REGENMODE
 70
     1
  9
$FILLMODE
 70
     1
  9
$QTEXTMODE
 70
     0
  9
$MIRRTEXT
 70
     0
  9
$DRAGMODE
 70
     2
  9
$LTSCALE
 40
1.5
  9
$OSMODE
 70
     0
  9
$ATTMODE
 70
     1
  9
$TEXTSIZE
 40
0.25
  9
$TRACEWID
 40
0.05
  9
$TEXTSTYLE
  7
STANDARD
  9
$CLAYER
  8
USP
  9
$CELTYPE
  6
BYLAYER
  9
$CECOLOR
 62
   256
  9
$CELTSCALE
 40
1.0
  9
$DELOBJ
 70
     1
  9
$DISPSILH
 70
     1
  9
$DIMSCALE
 40
5.0
  9
$DIMASZ
 40
0.125
  9
$DIMEXO
 40
0.0625
  9
$DIMDLI
 40
0.38
  9
$DIMRND
 40
0.0
  9
$DIMDLE
 40
0.0
  9
$DIMEXE
 40
0.09375
  9
$DIMTP
 40
0.0
  9
$DIMTM
 40
0.0
  9
$DIMTXT
 40
0.109375
  9
$DIMCEN
 40
0.0
  9
$DIMTSZ
 40
0.0
  9
$DIMTOL
 70
     0
  9
$DIMLIM
 70
     0
  9
$DIMTIH
 70
     1
  9
$DIMTOH
 70
     1
  9
$DIMSE1
 70
     0
  9
$DIMSE2
 70
     0
  9
$DIMTAD
 70
     0
  9
$DIMZIN
 70
     8
  9
$DIMBLK
  1

  9
$DIMASO
 70
     1
  9
$DIMSHO
 70
     1
  9
$DIMPOST
  1

  9
$DIMAPOST
  1

  9
$DIMALT
 70
     0
  9
$DIMALTD
 70
     2
  9
$DIMALTF
 40
25.4
  9
$DIMLFAC
 40
1.0
  9
$DIMTOFL
 70
     0
  9
$DIMTVP
 40
0.0
  9
$DIMTIX
 70
     0
  9
$DIMSOXD
 70
     0
  9
$DIMSAH
 70
     0
  9
$DIMBLK1
  1

  9
$DIMBLK2
  1

  9
$DIMSTYLE
  2
STANDARD
  9
$DIMCLRD
 70
   256
  9
$DIMCLRE
 70
   256
  9
$DIMCLRT
 70
   256
  9
$DIMTFAC
 40
1.0
  9
$DIMGAP
 40
0.09
  9
$DIMJUST
 70
     0
  9
$DIMSD1
 70
     0
  9
$DIMSD2
 70
     0
  9
$DIMTOLJ
 70
     1
  9
$DIMTZIN
 70
     0
  9
$DIMALTZ
 70
     0
  9
$DIMALTTZ
 70
     0
  9
$DIMFIT
 70
     3
  9
$DIMUPT
 70
     1
  9
$DIMUNIT
 70
     7
  9
$DIMDEC
 70
     4
  9
$DIMTDEC
 70
     4
  9
$DIMALTU
 70
     2
  9
$DIMALTTD
 70
     2
  9
$DIMTXSTY
  7
STANDARD
  9
$DIMAUNIT
 70
     0
  9
$LUNITS
 70
     5
  9
$LUPREC
 70
     6
  9
$SKETCHINC
 40
0.1
  9
$FILLETRAD
 40
0.0
  9
$AUNITS
 70
     0
  9
$AUPREC
 70
     1
  9
$MENU
  1
CUSTOM
  9
$ELEVATION
 40
0.0
  9
$PELEVATION
 40
0.0
  9
$THICKNESS
 40
0.0
  9
$LIMCHECK
 70
     0
  9
$BLIPMODE
 70
     0
  9
$CHAMFERA
 40
0.0
  9
$CHAMFERB
 40
0.0
  9
$CHAMFERC
 40
0.0
  9
$CHAMFERD
 40
0.0
  9
$SKPOLY
 70
     0
  9
$TDCREATE
 40
2451263.621564698
  9
$TDUPDATE
 40
2453025.980433483
  9
$TDINDWG
 40
1.0225092477
  9
$TDUSRTIMER
 40
1.0225092477
  9
$USRTIMER
 70
     1
  9
$ANGBASE
 50
0.0
  9
$ANGDIR
 70
     0
  9
$PDMODE
 70
     0
  9
$PDSIZE
 40
0.0
  9
$PLINEWID
 40
0.0
  9
$COORDS
 70
     2
  9
$SPLFRAME
 70
     0
  9
$SPLINETYPE
 70
     6
  9
$SPLINESEGS
 70
     8
  9
$ATTDIA
 70
     0
  9
$ATTREQ
 70
     0
  9
$HANDLING
 70
     1
  9
$HANDSEED
  5
172
  9
$SURFTAB1
 70
     6
  9
$SURFTAB2
 70
     6
  9
$SURFTYPE
 70
     6
  9
$SURFU
 70
     6
  9
$SURFV
 70
     6
  9
$UCSNAME
  2

  9
$UCSORG
 10
0.0
 20
0.0
 30
0.0
  9
$UCSXDIR
 10
1.0
 20
0.0
 30
0.0
  9
$UCSYDIR
 10
0.0
 20
1.0
 30
0.0
  9
$PUCSNAME
  2

  9
$PUCSORG
 10
0.0
 20
0.0
 30
0.0
  9
$PUCSXDIR
 10
1.0
 20
0.0
 30
0.0
  9
$PUCSYDIR
 10
0.0
 20
1.0
 30
0.0
  9
$USERI1
 70
     0
  9
$USERI2
 70
     0
  9
$USERI3
 70
     0
  9
$USERI4
 70
     0
  9
$USERI5
 70
     0
  9
$USERR1
 40
0.0
  9
$USERR2
 40
0.0
  9
$USERR3
 40
0.0
  9
$USERR4
 40
0.0
  9
$USERR5
 40
0.0
  9
$WORLDVIEW
 70
     1
  9
$SHADEDGE
 70
     3
  9
$SHADEDIF
 70
    70
  9
$TILEMODE
 70
     1
  9
$MAXACTVP
 70
    16
  9
$PINSBASE
 10
0.0
 20
0.0
 30
0.0
  9
$PLIMCHECK
 70
     0
  9
$PEXTMIN
 10
1.000000000000000E+20
 20
1.000000000000000E+20
 30
1.000000000000000E+20
  9
$PEXTMAX
 10
-1.000000000000000E+20
 20
-1.000000000000000E+20
 30
-1.000000000000000E+20
  9
$PLIMMIN
 10
0.0
 20
0.0
  9
$PLIMMAX
 10
12.0
 20
9.0
  9
$UNITMODE
 70
     0
  9
$VISRETAIN
 70
     0
  9
$PLINEGEN
 70
     0
  9
$PSLTSCALE
 70
     0
  9
$TREEDEPTH
 70
  3020
  9
$PICKSTYLE
 70
     1
  9
$CMLSTYLE
  2
STANDARD
  9
$CMLJUST
 70
     0
  9
$CMLSCALE
 40
1.0
  9
$PROXYGRAPHICS
 70
     1
  9
$MEASUREMENT
 70
     0
  0
ENDSEC
  0
SECTION
  2
CLASSES
  0
CLASS
  1
ACDBDICTIONARYWDFLT
  2
AcDbDictionaryWithDefault
  3
AutoCAD 2000
 90
        0
280
     0
281
     0
  0
CLASS
  1
ACDBPLACEHOLDER
  2
AcDbPlaceHolder
  3
AutoCAD 2000
 90
        0
280
     0
281
     0
  0
CLASS
  1
LAYOUT
  2
AcDbLayout
  3
AutoCAD 2000
 90
        0
280
     0
281
     0
  0
CLASS
  1
DICTIONARYVAR
  2
AcDbDictionaryVar
  3
"AutoCAD"
 90
        0
280
     0
281
     0
  0
CLASS
  1
SORTENTSTABLE
  2
AcDbSortentsTable
  3
"AutoCAD"
 90
        0
280
     0
281
     0
  0
CLASS
  1
LONG_TRANSACTION
  2
AcDbLongTransaction
  3
AutoCAD 2000
 90
        0
280
     0
281
     0
  0
CLASS
  1
LWPOLYLINE
  2
AcDbPolyline
  3
"AutoCAD"
 90
        0
280
     0
281
     1
  0
CLASS
  1
HATCH
  2
AcDbHatch
  3
"ACAD_SEDONA"
 90
        0
280
     0
281
     1
  0
CLASS
  1
XRECORD
  2
AcDbXrecord
  3
"<Built In>"
 90
        0
280
     0
281
     0
  0
CLASS
  1
LONG_TRANSACTION
  2
AcDbLongTransaction
  3
AutoCAD 2000
 90
        0
280
     0
281
     0
  0
CLASS
  1
LWPOLYLINE
  2
AcDbPolyline
  3
"AutoCAD"
 90
        0
280
     0
281
     1
  0
CLASS
  1
HATCH
  2
AcDbHatch
  3
"ACAD_SEDONA"
 90
        0
280
     0
281
     1
  0
CLASS
  1
XRECORD
  2
AcDbXrecord
  3
"<Built In>"
 90
        0
280
     0
281
     0
  0
CLASS
  1
LONG_TRANSACTION
  2
AcDbLongTransaction
  3
AutoCAD 2000
 90
        0
280
     0
281
     0
  0
CLASS
  1
LWPOLYLINE
  2
AcDbPolyline
  3
"AutoCAD"
 90
        0
280
     0
281
     1
  0
CLASS
  1
HATCH
  2
AcDbHatch
  3
"ACAD_SEDONA"
 90
        0
280
     0
281
     1
  0
CLASS
  1
XRECORD
  2
AcDbXrecord
  3
"<Built In>"
 90
        0
280
     0
281
     0
  0
CLASS
  1
LONG_TRANSACTION
  2
AcDbLongTransaction
  3
AutoCAD 2000
 90
        0
280
     0
281
     0
  0
CLASS
  1
LWPOLYLINE
  2
AcDbPolyline
  3
"AutoCAD"
 90
        0
280
     0
281
     1
  0
CLASS
  1
HATCH
  2
AcDbHatch
  3
"ACAD_SEDONA"
 90
        0
280
     0
281
     1
  0
CLASS
  1
XRECORD
  2
AcDbXrecord
  3
"<Built In>"
 90
        0
280
     0
281
     0
  0
CLASS
  1
LONG_TRANSACTION
  2
AcDbLongTransaction
  3
AutoCAD 2000
 90
        0
280
     0
281
     0
  0
CLASS
  1
LWPOLYLINE
  2
AcDbPolyline
  3
"AutoCAD"
 90
        0
280
     0
281
     1
  0
CLASS
  1
HATCH
  2
AcDbHatch
  3
"ACAD_SEDONA"
 90
        0
280
     0
281
     1
  0
CLASS
  1
XRECORD
  2
AcDbXrecord
  3
"<Built In>"
 90
        0
280
     0
281
     0
  0
ENDSEC
  0
SECTION
  2
TABLES
  0
TABLE
  2
VPORT
  5
163
100
AcDbSymbolTable
 70
     1
  0
VPORT
  5
164
100
AcDbSymbolTableRecord
100
AcDbViewportTableRecord
  2
*ACTIVE
 70
     0
 10
0.0
 20
0.0
 11
1.0
 21
1.0
 12
0.3059504010553891
 22
11.48156136880066
 13
0.0
 23
0.0
 14
1.0
 24
1.0
 15
0.0
 25
0.0
 16
0.0
 26
0.0
 36
1.0
 17
6.862775803156033
 27
-1.406766962391664
 37
-1.627990446037379
 40
18.96933665080231
 41
1.379227053140096
 42
50.0
 43
0.0
 44
0.0
 50
0.0
 51
0.0
 71
     0
 72
   100
 73
     1
 74
     1
 75
     0
 76
     0
 77
     0
 78
     0
  0
ENDTAB
  0
TABLE
  2
LTYPE
  5
15E
100
AcDbSymbolTable
 70
     1
  0
LTYPE
  5
15F
100
AcDbSymbolTableRecord
100
AcDbLinetypeTableRecord
  2
BYBLOCK
 70
     0
  3

 72
    65
 73
     0
 40
0.0
  0
LTYPE
  5
160
100
AcDbSymbolTableRecord
100
AcDbLinetypeTableRecord
  2
BYLAYER
 70
     0
  3

 72
    65
 73
     0
 40
0.0
  0
LTYPE
  5
5
100
AcDbSymbolTableRecord
100
AcDbLinetypeTableRecord
  2
CONTINUOUS
 70
     0
  3
Solid line
 72
    65
 73
     0
 40
0.0
  0
ENDTAB
  0
TABLE
  2
LAYER
  5
15C
100
AcDbSymbolTable
 70
     4
  0
LAYER
  5
8A
100
AcDbSymbolTableRecord
100
AcDbLayerTableRecord
  2
0
 70
     0
 62
     7
  6
CONTINUOUS
  0
LAYER
  5
8
102
{ACAD_XDICTIONARY
360
9
102
}
100
AcDbSymbolTableRecord
100
AcDbLayerTableRecord
  2
USP-GEO
 70
     0
 62
     7
  6
CONTINUOUS
  0
LAYER
  5
85
102
{ACAD_XDICTIONARY
360
86
102
}
100
AcDbSymbolTableRecord
100
AcDbLayerTableRecord
  2
USP-TXT
 70
     0
 62
     7
  6
CONTINUOUS
  0
LAYER
  5
4
100
AcDbSymbolTableRecord
100
AcDbLayerTableRecord
  2
USP
 70
     0
 62
     7
  6
CONTINUOUS
  0
ENDTAB
  0
TABLE
  2
STYLE
  5
15D
100
AcDbSymbolTable
 70
     1
  0
STYLE
  5
88
100
AcDbSymbolTableRecord
100
AcDbTextStyleTableRecord
  2
STANDARD
 70
     0
 40
0.0
 41
1.0
 50
0.0
 71
     0
 42
0.25
  3
txt
  4

  0
ENDTAB
  0
TABLE
  2
VIEW
  5
161
100
AcDbSymbolTable
 70
     0
  0
ENDTAB
  0
TABLE
  2
UCS
  5
162
100
AcDbSymbolTable
 70
     0
  0
ENDTAB
  0
TABLE
  2
APPID
  5
165
100
AcDbSymbolTable
 70
     1
  0
APPID
  5
5D
100
AcDbSymbolTableRecord
100
AcDbRegAppTableRecord
  2
ACAD
 70
     0
  0
ENDTAB
  0
TABLE
  2
DIMSTYLE
  5
166
100
AcDbSymbolTable
 70
     1
  0
DIMSTYLE
105
16C
102
{ACAD_XDICTIONARY
360
16D
102
}
100
AcDbSymbolTableRecord
100
AcDbDimStyleTableRecord
  2
STANDARD
 70
     0
  3

  4

  5

  6

  7

 40
1.0
 41
0.125
 42
0.0625
 43
0.38
 44
0.09375
 45
0.0
 46
0.0
 47
0.0
 48
0.0
140
0.109375
141
0.0
142
0.0
143
25.4
144
1.0
145
0.0
146
1.0
147
0.09
 71
     0
 72
     0
 73
     1
 74
     1
 75
     0
 76
     0
 77
     0
 78
     8
170
     0
171
     2
172
     0
173
     0
174
     0
175
     0
176
     0
177
     0
178
     0
270
     7
271
     4
272
     4
273
     2
274
     2
340
88
275
     0
280
     0
281
     0
282
     0
283
     1
284
     0
285
     0
286
     0
287
     3
288
     0
  0
ENDTAB
  0
TABLE
  2
BLOCK_RECORD
  5
1
100
AcDbSymbolTable
 70
     3
  0
BLOCK_RECORD
  5
2
102
{ACAD_XDICTIONARY
360
153
102
}
100
AcDbSymbolTableRecord
100
AcDbBlockTableRecord
  2
*MODEL_SPACE
  0
BLOCK_RECORD
  5
157
102
{ACAD_XDICTIONARY
360
158
102
}
100
AcDbSymbolTableRecord
100
AcDbBlockTableRecord
  2
*PAPER_SPACE
  0
BLOCK_RECORD
  5
6
100
AcDbSymbolTableRecord
100
AcDbBlockTableRecord
  2
TFL25938PR_T
  0
BLOCK_RECORD
  5
8D
100
AcDbSymbolTableRecord
100
AcDbBlockTableRecord
  2
TFL25938PR_F
  0
BLOCK_RECORD
  5
108
100
AcDbSymbolTableRecord
100
AcDbBlockTableRecord
  2
TFL25938PR_S
  0
ENDTAB
  0
ENDSEC
  0
SECTION
  2
BLOCKS
  0
BLOCK
  5
155
100
AcDbEntity
  8
0
100
AcDbBlockBegin
  2
*MODEL_SPACE
 70
     0
 10
0.0
 20
0.0
 30
0.0
  3
*MODEL_SPACE
  1

  0
ENDBLK
  5
156
100
AcDbEntity
  8
0
100
AcDbBlockEnd
  0
BLOCK
  5
15A
100
AcDbEntity
 67
     1
  8
0
100
AcDbBlockBegin
  2
*PAPER_SPACE
 70
     0
 10
0.0
 20
0.0
 30
0.0
  3
*PAPER_SPACE
  1

  0
ENDBLK
  5
15B
100
AcDbEntity
 67
     1
  8
0
100
AcDbBlockEnd
  0
BLOCK
  5
89
100
AcDbEntity
  8
0
100
AcDbBlockBegin
  2
TFL25938PR_T
 70
     0
 10
0.0
 20
0.0
 30
0.0
  3
TFL25938PR_T
  1

  0
LWPOLYLINE
  5
7
100
AcDbEntity
  8
USP-GEO
100
AcDbPolyline
 90
        2
 70
   128
 43
0.0
 10
2.024064214033403
 20
-3.712707001979726
 10
1.970822717829104
 20
-3.712707001979726
  0
LWPOLYLINE
  5
B
100
AcDbEntity
  8
USP-GEO
100
AcDbPolyline
 90
        2
 70
   128
 43
0.0
 10
6.552253466208963
 20
-1.510283775661925
 10
4.65241940998559
 20
-1.510283775661925
  0
LWPOLYLINE
  5
C
100
AcDbEntity
  8
USP-GEO
100
AcDbPolyline
 90
        2
 70
   128
 43
0.0
 10
1.899834056223372
 20
-1.510283775661925
 10
0.0
 20
-1.510283775661925
  0
LWPOLYLINE
  5
D
100
AcDbEntity
  8
USP-GEO
100
AcDbPolyline
 90
        2
 70
   128
 43
0.0
 10
4.528189252175561
 20
-3.712707001979726
 10
4.528189252175561
 20
-3.588476844169697
  0
LWPOLYLINE
  5
E
100
AcDbEntity
  8
USP-GEO
100
AcDbPolyline
 90
        2
 70
   128
 43
0.0
 10
4.528189252175561
 20
-3.588476844169697
 10
4.528189252175561
 20
-3.570729678768264
  0
LWPOLYLINE
  5
F
100
AcDbEntity
  8
USP-GEO
100
AcDbPolyline
 90
        2
 70
   128
 43
0.0
 10
4.528189252175561
 20
-3.570729678768264
 10
4.528189252175561
 20
-3.446499520958235
  0
LWPOLYLINE
  5
10
100
AcDbEntity
  8
USP-GEO
100
AcDbPolyline
 90
        2
 70
   128
 43
0.0
 10
4.528189252175561
 20
-3.446499520958235
 10
4.581430748379858
 20
-3.446499520958235
  0
LWPOLYLINE
  5
11
100
AcDbEntity
  8
USP-GEO
100
AcDbPolyline
 90
        2
 70
   128
 43
0.0
 10
4.528189252175561
 20
-3.446499520958235
 10
4.528189252175561
 20
-2.824461373638019
  0
LWPOLYLINE
  5
12
100
AcDbEntity
  8
USP-GEO
100
AcDbPolyline
 90
        2
 70
   128
 43
0.0
 10
4.528189252175561
 20
-2.824461373638019
 10
4.528189252175561
 20
-2.806714208236584
  0
LWPOLYLINE
  5
13
100
AcDbEntity
  8
USP-GEO
100
AcDbPolyline
 90
        2
 70
   128
 43
0.0
 10
4.528189252175561
 20
-2.806714208236584
 10
4.581430748379858
 20
-2.806714208236584
  0
LWPOLYLINE
  5
14
100
AcDbEntity
  8
USP-GEO
100
AcDbPolyline
 90
        2
 70
   128
 43
0.0
 10
4.528189252175561
 20
-2.806714208236584
 10
4.528189252175561
 20
-2.682484050426555
  0
LWPOLYLINE
  5
15
100
AcDbEntity
  8
USP-GEO
100
AcDbPolyline
 90
        2
 70
   128
 43
0.0
 10
4.528189252175561
 20
-2.682484050426555
 10
4.528189252175561
 20
-1.776491256683417
  0
LWPOLYLINE
  5
16
100
AcDbEntity
  8
USP-GEO
100
AcDbPolyline
 90
        2
 70
   128
 43
0.0
 10
4.528189252175561
 20
-1.776491256683417
 10
4.528189252175561
 20
-1.599019602669088
  0
LWPOLYLINE
  5
17
100
AcDbEntity
  8
USP-GEO
100
AcDbPolyline
 90
        2
 70
   128
 43
0.0
 10
4.545936417576994
 20
-1.563525271866222
 10
4.581430748379858
 20
-1.563525271866222
  0
LWPOLYLINE
  5
18
100
AcDbEntity
  8
USP-GEO
100
AcDbPolyline
 90
        2
 70
   128
 43
0.0
 10
2.024064214033403
 20
-2.806714208236584
 10
1.970822717829104
 20
-2.806714208236584
  0
LWPOLYLINE
  5
19
100
AcDbEntity
  8
USP-GEO
100
AcDbPolyline
 90
        2
 70
   128
 43
0.0
 10
2.024064214033403
 20
-3.446499520958235
 10
1.970822717829104
 20
-3.446499520958235
  0
LWPOLYLINE
  5
1A
100
AcDbEntity
  8
USP-GEO
100
AcDbPolyline
 90
        2
 70
   128
 43
0.0
 10
4.528189252175561
 20
-3.712707001979726
 10
4.581430748379858
 20
-3.712707001979726
  0
LWPOLYLINE
  5
1B
100
AcDbEntity
  8
USP-GEO
100
AcDbPolyline
 90
        2
 70
   128
 43
0.0
 10
2.059558544836267
 20
-3.712707001979726
 10
2.024064214033403
 20
-3.712707001979726
  0
LWPOLYLINE
  5
1C
100
AcDbEntity
  8
USP-GEO
100
AcDbPolyline
 90
        2
 70
   128
 43
0.0
 10
2.024064214033403
 20
-1.705502595077685
 10
2.059558544836267
 20
-1.705502595077685
  0
LWPOLYLINE
  5
1D
100
AcDbEntity
  8
USP-GEO
100
AcDbPolyline
 90
        2
 70
   128
 43
0.0
 10
2.059558544836267
 20
-3.712707001979726
 10
4.492694921372695
 20
-3.712707001979726
  0
LWPOLYLINE
  5
1E
100
AcDbEntity
  8
USP-GEO
100
AcDbPolyline
 90
        2
 70
   128
 43
0.0
 10
4.492694921372695
 20
-1.705502595077685
 10
2.059558544836267
 20
-1.705502595077685
  0
LWPOLYLINE
  5
1F
100
AcDbEntity
  8
USP-GEO
100
AcDbPolyline
 90
        2
 70
   128
 43
0.0
 10
3.781920947045314
 20
-3.340016528549639
 10
3.657690789235285
 20
-3.464246686359668
  0
LWPOLYLINE
  5
20
100
AcDbEntity
  8
USP-GEO
100
AcDbPolyline
 90
        2
 70
   128
 43
0.0
 10
3.657690789235285
 20
-3.214899012469539
 10
3.781920947045314
 20
-3.340016528549639
  0
LWPOLYLINE
  5
21
100
AcDbEntity
  8
USP-GEO
100
AcDbPolyline
 90
        2
 70
   128
 43
0.0
 10
3.533460631425256
 20
-3.340016528549639
 10
3.657690789235285
 20
-3.214899012469539
  0
LWPOLYLINE
  5
22
100
AcDbEntity
  8
USP-GEO
100
AcDbPolyline
 90
        2
 70
   128
 43
0.0
 10
3.657690789235285
 20
-3.464246686359668
 10
3.533460631425256
 20
-3.340016528549639
  0
LWPOLYLINE
  5
23
100
AcDbEntity
  8
USP-GEO
100
AcDbPolyline
 90
        2
 70
   128
 43
0.0
 10
3.036540000185139
 20
-3.340016528549639
 10
2.91230984237511
 20
-3.464246686359668
  0
LWPOLYLINE
  5
24
100
AcDbEntity
  8
USP-GEO
100
AcDbPolyline
 90
        2
 70
   128
 43
0.0
 10
2.91230984237511
 20
-3.214899012469539
 10
3.036540000185139
 20
-3.340016528549639
  0
LWPOLYLINE
  5
25
100
AcDbEntity
  8
USP-GEO
100
AcDbPolyline
 90
        2
 70
   128
 43
0.0
 10
2.770332519163648
 20
-3.340016528549639
 10
2.91230984237511
 20
-3.214899012469539
  0
LWPOLYLINE
  5
26
100
AcDbEntity
  8
USP-GEO
100
AcDbPolyline
 90
        2
 70
   128
 43
0.0
 10
2.91230984237511
 20
-3.464246686359668
 10
2.770332519163648
 20
-3.340016528549639
  0
LWPOLYLINE
  5
27
100
AcDbEntity
  8
USP-GEO
100
AcDbPolyline
 90
        2
 70
   128
 43
0.0
 10
4.528189252175561
 20
-3.712707001979726
 10
4.492694921372695
 20
-3.712707001979726
  0
LWPOLYLINE
  5
28
100
AcDbEntity
  8
USP-GEO
100
AcDbPolyline
 90
        2
 70
   128
 43
0.0
 10
4.492694921372695
 20
-1.705502595077685
 10
4.528189252175561
 20
-1.705502595077685
  0
CIRCLE
  5
29
100
AcDbEntity
  8
USP-GEO
100
AcDbCircle
 10
0.2068944978600928
 20
-0.517432603127606
 30
0.0
 40
0.09
  0
CIRCLE
  5
2A
100
AcDbEntity
  8
USP-GEO
100
AcDbCircle
 10
1.606894497860098
 20
-0.3174326031276173
 30
0.0
 40
0.09
  0
LWPOLYLINE
  5
2B
100
AcDbEntity
  8
USP-GEO
100
AcDbPolyline
 90
        2
 70
   128
 43
0.0
 10
0.0
 20
0.0
 10
0.0
 20
-1.474789444859059
  0
LWPOLYLINE
  5
2C
100
AcDbEntity
  8
USP-GEO
100
AcDbPolyline
 90
        2
 70
   128
 43
0.0
 10
0.0
 20
0.0
 10
1.899834056223372
 20
0.0
  0
LWPOLYLINE
  5
2D
100
AcDbEntity
  8
USP-GEO
100
AcDbPolyline
 90
        2
 70
   128
 43
0.0
 10
1.899834056223372
 20
0.0
 10
1.899834056223372
 20
-1.474789444859059
  0
LWPOLYLINE
  5
2E
100
AcDbEntity
  8
USP-GEO
100
AcDbPolyline
 90
        2
 70
   128
 43
0.0
 10
1.899834056223372
 20
-1.474789444859059
 10
1.899834056223372
 20
-1.563525271866222
  0
LWPOLYLINE
  5
2F
100
AcDbEntity
  8
USP-GEO
100
AcDbPolyline
 90
        2
 70
   128
 43
0.0
 10
1.899834056223372
 20
-1.563525271866222
 10
0.0
 20
-1.563525271866222
  0
LWPOLYLINE
  5
30
100
AcDbEntity
  8
USP-GEO
100
AcDbPolyline
 90
        2
 70
   128
 43
0.0
 10
0.0
 20
-1.563525271866222
 10
0.0
 20
-1.474789444859059
  0
CIRCLE
  5
31
100
AcDbEntity
  8
USP-GEO
100
AcDbCircle
 10
6.353027697024744
 20
-0.5174326031276131
 30
0.0
 40
0.09
  0
CIRCLE
  5
32
100
AcDbEntity
  8
USP-GEO
100
AcDbCircle
 10
4.953027697024738
 20
-0.3174326031276244
 30
0.0
 40
0.09
  0
LWPOLYLINE
  5
33
100
AcDbEntity
  8
USP-GEO
100
AcDbPolyline
 90
        2
 70
   128
 43
0.0
 10
4.65241940998559
 20
0.0
 10
4.65241940998559
 20
-1.474789444859059
  0
LWPOLYLINE
  5
34
100
AcDbEntity
  8
USP-GEO
100
AcDbPolyline
 90
        2
 70
   128
 43
0.0
 10
6.552253466208963
 20
0.0
 10
4.65241940998559
 20
0.0
  0
LWPOLYLINE
  5
35
100
AcDbEntity
  8
USP-GEO
100
AcDbPolyline
 90
        2
 70
   128
 43
0.0
 10
6.552253466208963
 20
0.0
 10
6.552253466208963
 20
-1.474789444859059
  0
LWPOLYLINE
  5
36
100
AcDbEntity
  8
USP-GEO
100
AcDbPolyline
 90
        2
 70
   128
 43
0.0
 10
6.552253466208963
 20
-1.563525271866222
 10
4.65241940998559
 20
-1.563525271866222
  0
LWPOLYLINE
  5
37
100
AcDbEntity
  8
USP-GEO
100
AcDbPolyline
 90
        2
 70
   128
 43
0.0
 10
4.65241940998559
 20
-1.563525271866222
 10
4.65241940998559
 20
-1.474789444859059
  0
LWPOLYLINE
  5
38
100
AcDbEntity
  8
USP-GEO
100
AcDbPolyline
 90
        2
 70
   128
 43
0.0
 10
6.552253466208963
 20
-1.474789444859059
 10
6.552253466208963
 20
-1.563525271866222
  0
LWPOLYLINE
  5
39
100
AcDbEntity
  8
USP-GEO
100
AcDbPolyline
 90
        2
 70
   128
 43
0.0
 10
4.581430748379858
 20
-3.588476844169697
 10
4.581430748379858
 20
-3.712707001979726
  0
LWPOLYLINE
  5
3A
100
AcDbEntity
  8
USP-GEO
100
AcDbPolyline
 90
        2
 70
   128
 43
0.0
 10
4.581430748379858
 20
-3.570729678768264
 10
4.581430748379858
 20
-3.588476844169697
  0
LWPOLYLINE
  5
3B
100
AcDbEntity
  8
USP-GEO
100
AcDbPolyline
 90
        2
 70
   128
 43
0.0
 10
4.581430748379858
 20
-3.570729678768264
 10
4.581430748379858
 20
-3.446499520958235
  0
LWPOLYLINE
  5
3C
100
AcDbEntity
  8
USP-GEO
100
AcDbPolyline
 90
        2
 70
   128
 43
0.0
 10
4.581430748379858
 20
-3.446499520958235
 10
4.581430748379858
 20
-2.824461373638019
  0
LWPOLYLINE
  5
3D
100
AcDbEntity
  8
USP-GEO
100
AcDbPolyline
 90
        2
 70
   128
 43
0.0
 10
4.581430748379858
 20
-2.824461373638019
 10
4.581430748379858
 20
-2.806714208236584
  0
LWPOLYLINE
  5
3E
100
AcDbEntity
  8
USP-GEO
100
AcDbPolyline
 90
        2
 70
   128
 43
0.0
 10
4.581430748379858
 20
-2.682484050426555
 10
4.581430748379858
 20
-2.806714208236584
  0
LWPOLYLINE
  5
3F
100
AcDbEntity
  8
USP-GEO
100
AcDbPolyline
 90
        2
 70
   128
 43
0.0
 10
4.581430748379858
 20
-2.682484050426555
 10
4.581430748379858
 20
-1.776491256683417
  0
LWPOLYLINE
  5
40
100
AcDbEntity
  8
USP-GEO
100
AcDbPolyline
 90
        2
 70
   128
 43
0.0
 10
4.581430748379858
 20
-1.599019602669088
 10
4.581430748379858
 20
-1.776491256683417
  0
LWPOLYLINE
  5
41
100
AcDbEntity
  8
USP-GEO
100
AcDbPolyline
 90
        2
 70
   128
 43
0.0
 10
4.581430748379858
 20
-1.599019602669088
 10
4.58231810664993
 20
-1.599019602669088
  0
LWPOLYLINE
  5
42
100
AcDbEntity
  8
USP-GEO
100
AcDbPolyline
 90
        3
 70
   128
 43
0.0
 10
4.616925079182724
 20
-1.563525271866222
 10
4.599177913781291
 20
-1.563525271866222
 10
4.581430748379858
 20
-1.599019602669088
  0
LWPOLYLINE
  5
43
100
AcDbEntity
  8
USP-GEO
100
AcDbPolyline
 90
        2
 70
   128
 43
0.0
 10
4.581430748379858
 20
-1.563525271866222
 10
4.65241940998559
 20
-1.563525271866222
  0
LWPOLYLINE
  5
44
100
AcDbEntity
  8
USP-GEO
100
AcDbPolyline
 90
        2
 70
   128
 43
0.0
 10
4.581430748379858
 20
-1.510283775661925
 10
4.581430748379858
 20
-1.563525271866222
  0
LWPOLYLINE
  5
45
100
AcDbEntity
  8
USP-GEO
100
AcDbPolyline
 90
        2
 70
   128
 43
0.0
 10
4.616925079182724
 20
-1.510283775661925
 10
4.65241940998559
 20
-1.510283775661925
  0
LWPOLYLINE
  5
46
100
AcDbEntity
  8
USP-GEO
100
AcDbPolyline
 90
        2
 70
   128
 43
0.0
 10
4.616925079182724
 20
-1.510283775661925
 10
4.581430748379858
 20
-1.510283775661925
  0
ARC
  5
47
100
AcDbEntity
  8
USP-GEO
100
AcDbCircle
 10
4.619961097442315
 20
-1.607432603127602
 30
0.0
 40
0.09
100
AcDbArc
 50
111.6338497927467
 51
149.3259345094948
  0
LWPOLYLINE
  5
48
100
AcDbEntity
  8
USP-GEO
100
AcDbPolyline
 90
        2
 70
   128
 43
0.0
 10
4.545936417576994
 20
-1.563525271866222
 10
4.528189252175561
 20
-1.599019602669088
  0
LWPOLYLINE
  5
49
100
AcDbEntity
  8
USP-GEO
100
AcDbPolyline
 90
        2
 70
   128
 43
0.0
 10
4.528189252175561
 20
-1.599019602669088
 10
4.529076610445633
 20
-1.599019602669088
  0
LWPOLYLINE
  5
4A
100
AcDbEntity
  8
USP-GEO
100
AcDbPolyline
 90
        2
 70
   128
 43
0.0
 10
1.899834056223372
 20
-1.563525271866222
 10
1.970822717829104
 20
-1.563525271866222
  0
LWPOLYLINE
  5
4B
100
AcDbEntity
  8
USP-GEO
100
AcDbPolyline
 90
        2
 70
   128
 43
0.0
 10
1.899834056223372
 20
-1.510283775661925
 10
1.935328387026238
 20
-1.510283775661925
  0
LWPOLYLINE
  5
4C
100
AcDbEntity
  8
USP-GEO
100
AcDbPolyline
 90
        2
 70
   128
 43
0.0
 10
1.970822717829104
 20
-1.510283775661925
 10
1.970822717829104
 20
-1.563525271866222
  0
LWPOLYLINE
  5
4D
100
AcDbEntity
  8
USP-GEO
100
AcDbPolyline
 90
        2
 70
   128
 43
0.0
 10
2.024064214033403
 20
-1.563525271866222
 10
1.970822717829104
 20
-1.563525271866222
  0
LWPOLYLINE
  5
4E
100
AcDbEntity
  8
USP-GEO
100
AcDbPolyline
 90
        2
 70
   128
 43
0.0
 10
2.024064214033403
 20
-1.599019602669088
 10
2.024064214033403
 20
-1.563525271866222
  0
ARC
  5
4F
100
AcDbEntity
  8
USP-GEO
100
AcDbCircle
 10
1.939961097442294
 20
-1.607432603127623
 30
0.0
 40
0.09
100
AcDbArc
 50
27.5675057746287
 51
72.37632005054931
  0
LWPOLYLINE
  5
50
100
AcDbEntity
  8
USP-GEO
100
AcDbPolyline
 90
        2
 70
   128
 43
0.0
 10
1.970822717829104
 20
-1.510283775661925
 10
1.935328387026238
 20
-1.510283775661925
  0
LWPOLYLINE
  5
51
100
AcDbEntity
  8
USP-GEO
100
AcDbPolyline
 90
        2
 70
   128
 43
0.0
 10
2.024064214033403
 20
-1.599019602669088
 10
2.024951572303473
 20
-1.599019602669088
  0
LWPOLYLINE
  5
52
100
AcDbEntity
  8
USP-GEO
100
AcDbPolyline
 90
        2
 70
   128
 43
0.0
 10
1.970822717829104
 20
-1.776491256683417
 10
1.970822717829104
 20
-1.599019602669088
  0
LWPOLYLINE
  5
53
100
AcDbEntity
  8
USP-GEO
100
AcDbPolyline
 90
        2
 70
   128
 43
0.0
 10
1.970822717829104
 20
-2.682484050426555
 10
1.970822717829104
 20
-1.776491256683417
  0
LWPOLYLINE
  5
54
100
AcDbEntity
  8
USP-GEO
100
AcDbPolyline
 90
        2
 70
   128
 43
0.0
 10
1.970822717829104
 20
-2.806714208236584
 10
1.970822717829104
 20
-2.682484050426555
  0
LWPOLYLINE
  5
55
100
AcDbEntity
  8
USP-GEO
100
AcDbPolyline
 90
        2
 70
   128
 43
0.0
 10
1.970822717829104
 20
-2.806714208236584
 10
1.970822717829104
 20
-2.824461373638019
  0
LWPOLYLINE
  5
56
100
AcDbEntity
  8
USP-GEO
100
AcDbPolyline
 90
        2
 70
   128
 43
0.0
 10
1.970822717829104
 20
-3.446499520958235
 10
1.970822717829104
 20
-2.824461373638019
  0
LWPOLYLINE
  5
57
100
AcDbEntity
  8
USP-GEO
100
AcDbPolyline
 90
        2
 70
   128
 43
0.0
 10
1.970822717829104
 20
-3.446499520958235
 10
1.970822717829104
 20
-3.570729678768264
  0
LWPOLYLINE
  5
58
100
AcDbEntity
  8
USP-GEO
100
AcDbPolyline
 90
        2
 70
   128
 43
0.0
 10
1.970822717829104
 20
-3.570729678768264
 10
1.970822717829104
 20
-3.588476844169697
  0
LWPOLYLINE
  5
59
100
AcDbEntity
  8
USP-GEO
100
AcDbPolyline
 90
        2
 70
   128
 43
0.0
 10
1.970822717829104
 20
-3.712707001979726
 10
1.970822717829104
 20
-3.588476844169697
  0
LWPOLYLINE
  5
5A
100
AcDbEntity
  8
USP-GEO
100
AcDbPolyline
 90
        2
 70
   128
 43
0.0
 10
1.970822717829104
 20
-1.599019602669088
 10
1.971710076099176
 20
-1.599019602669088
  0
LWPOLYLINE
  5
5B
100
AcDbEntity
  8
USP-GEO
100
AcDbPolyline
 90
        3
 70
   128
 43
0.0
 10
1.970822717829104
 20
-1.599019602669088
 10
1.970822717829104
 20
-1.563525271866222
 10
1.935328387026238
 20
-1.563525271866222
  0
ELLIPSE
  5
5C
100
AcDbEntity
  8
USP-GEO
  6
CONTINUOUS
100
AcDbEllipse
 10
4.697913471644058
 20
-3.214897139099681
 30
0.0
 11
0.0
 21
-0.0779999999999994
 31
0.0
210
0.0
220
0.0
230
1.0
 40
0.7071067811865475
 41
1.04487718844857
 42
6.74812163140208
1001
ACAD
1000
RTLwPs
1070
   128
  0
ELLIPSE
  5
5E
100
AcDbEntity
  8
USP-GEO
  6
CONTINUOUS
100
AcDbEllipse
 10
4.697913471644058
 20
-3.214897139099681
 30
0.0
 11
0.0
 21
-0.0779999999999994
 31
0.0
210
0.0
220
0.0
230
1.0
 40
0.7071067811865475
 41
2.096669636055884
 42
2.657685706503537
1001
ACAD
1000
RTLwPs
1070
   128
  0
ELLIPSE
  5
5F
100
AcDbEntity
  8
USP-GEO
  6
CONTINUOUS
100
AcDbEllipse
 10
4.697913471644058
 20
-3.214897139099681
 30
0.0
 11
0.0
 21
-0.0779999999999994
 31
0.0
210
0.0
220
0.0
230
1.0
 40
0.7071067811865475
 41
1.053651781214273
 42
2.087895509738107
1001
ACAD
1000
RTLwPs
1070
   128
  0
ELLIPSE
  5
60
100
AcDbEntity
  8
USP-GEO
  6
CONTINUOUS
100
AcDbEllipse
 10
4.736261848773965
 20
-3.214897139099681
 30
0.0
 11
0.0
 21
-0.0779999999999994
 31
0.0
210
0.0
220
0.0
230
1.0
 40
0.7071067811865475
 41
4.041805159063629
 42
5.62306737230944
1001
ACAD
1000
RTLwPs
1070
   128
  0
ELLIPSE
  5
61
100
AcDbEntity
  8
USP-GEO
  6
CONTINUOUS
100
AcDbEllipse
 10
4.736261848773965
 20
-3.214897139099681
 30
0.0
 11
0.0
 21
-0.0779999999999994
 31
0.0
210
0.0
220
0.0
230
1.0
 40
0.7071067811865475
 41
3.67607956870585
 42
4.050804587734527
1001
ACAD
1000
RTLwPs
1070
   128
  0
ELLIPSE
  5
62
100
AcDbEntity
  8
USP-GEO
  6
CONTINUOUS
100
AcDbEllipse
 10
4.736261848773965
 20
-3.214897139099681
 30
0.0
 11
0.0
 21
-0.0779999999999994
 31
0.0
210
0.0
220
0.0
230
1.0
 40
0.7071067811865475
 41
5.608763392502929
 42
6.051954559854157
1001
ACAD
1000
RTLwPs
1070
   128
  0
ELLIPSE
  5
63
100
AcDbEntity
  8
USP-GEO
  6
CONTINUOUS
100
AcDbEllipse
 10
4.736261848773965
 20
-3.214897139099681
 30
0.0
 11
0.0
 21
-0.0779999999999994
 31
0.0
210
0.0
220
0.0
230
1.0
 40
0.7071067811865475
 41
3.330046510668756
 42
3.689069046447181
1001
ACAD
1000
RTLwPs
1070
   128
  0
ELLIPSE
  5
64
100
AcDbEntity
  8
USP-GEO
  6
CONTINUOUS
100
AcDbEllipse
 10
4.736261848773965
 20
-3.214897139099681
 30
0.0
 11
0.0
 21
-0.0779999999999994
 31
0.0
210
0.0
220
0.0
230
1.0
 40
0.7071067811865475
 41
0.0959826608615858
 42
6.035478226487184
1001
ACAD
1000
RTLwPs
1070
   128
  0
ELLIPSE
  5
65
100
AcDbEntity
  8
USP-GEO
  6
CONTINUOUS
100
AcDbEllipse
 10
4.736261848773965
 20
-3.214897139099681
 30
0.0
 11
0.0
 21
-0.0779999999999994
 31
0.0
210
0.0
220
0.0
230
1.0
 40
0.7071067811865475
 41
2.321075184901841
 42
3.34365633357144
1001
ACAD
1000
RTLwPs
1070
   128
  0
ELLIPSE
  5
66
100
AcDbEntity
  8
USP-GEO
  6
CONTINUOUS
100
AcDbEllipse
 10
4.736261848773965
 20
-3.214897139099681
 30
0.0
 11
0.0
 21
-0.0779999999999994
 31
0.0
210
0.0
220
0.0
230
1.0
 40
0.7071067811865475
 41
0.1132508027810894
 42
2.310244534482114
1001
ACAD
1000
RTLwPs
1070
   128
  0
ELLIPSE
  5
67
100
AcDbEntity
  8
USP-GEO
  6
CONTINUOUS
100
AcDbEllipse
 10
1.862008723240551
 20
-3.40239713909971
 30
0.0
 11
0.0
 21
-0.0779999999999994
 31
0.0
210
0.0
220
0.0
230
1.0
 40
0.7071067811865475
 41
4.157448512257727
 42
10.43272900235179
1001
ACAD
1000
RTLwPs
1070
   128
  0
ELLIPSE
  5
68
100
AcDbEntity
  8
USP-GEO
  6
CONTINUOUS
100
AcDbEllipse
 10
1.862008723240551
 20
-3.40239713909971
 30
0.0
 11
0.0
 21
-0.0779999999999994
 31
0.0
210
0.0
220
0.0
230
1.0
 40
0.7071067811865475
 41
3.407248903011415
 42
5.944288194188703
1001
ACAD
1000
RTLwPs
1070
   128
  0
ELLIPSE
  5
69
100
AcDbEntity
  8
USP-GEO
  6
CONTINUOUS
100
AcDbEllipse
 10
1.823660346110644
 20
-3.40239713909971
 30
0.0
 11
0.0
 21
-0.0779999999999994
 31
0.0
210
0.0
220
0.0
230
1.0
 40
0.7071067811865475
 41
5.288009039805385
 42
5.690987421821622
1001
ACAD
1000
RTLwPs
1070
   128
  0
ELLIPSE
  5
6A
100
AcDbEntity
  8
USP-GEO
  6
CONTINUOUS
100
AcDbEllipse
 10
1.823660346110644
 20
-3.40239713909971
 30
0.0
 11
0.0
 21
-0.0779999999999994
 31
0.0
210
0.0
220
0.0
230
1.0
 40
0.7071067811865475
 41
3.344801972656638
 42
5.296551555759532
1001
ACAD
1000
RTLwPs
1070
   128
  0
ELLIPSE
  5
6B
100
AcDbEntity
  8
USP-GEO
  6
CONTINUOUS
100
AcDbEllipse
 10
1.823660346110644
 20
-3.40239713909971
 30
0.0
 11
0.0
 21
-0.0779999999999994
 31
0.0
210
0.0
220
0.0
230
1.0
 40
0.7071067811865475
 41
5.67715027477887
 42
6.390659468941149
1001
ACAD
1000
RTLwPs
1070
   128
  0
ELLIPSE
  5
6C
100
AcDbEntity
  8
USP-GEO
  6
CONTINUOUS
100
AcDbEllipse
 10
1.823660346110644
 20
-3.40239713909971
 30
0.0
 11
0.0
 21
-0.0779999999999994
 31
0.0
210
0.0
220
0.0
230
1.0
 40
0.7071067811865475
 41
3.359778030946951
 42
9.318010687438171
1001
ACAD
1000
RTLwPs
1070
   128
  0
ELLIPSE
  5
6D
100
AcDbEntity
  8
USP-GEO
  6
CONTINUOUS
100
AcDbEllipse
 10
1.823660346110644
 20
-3.40239713909971
 30
0.0
 11
0.0
 21
-0.0779999999999994
 31
0.0
210
0.0
220
0.0
230
1.0
 40
0.7071067811865475
 41
0.4987215367195475
 42
6.375049992246163
1001
ACAD
1000
RTLwPs
1070
   128
  0
ELLIPSE
  5
6E
100
AcDbEntity
  8
USP-GEO
  6
CONTINUOUS
100
AcDbEllipse
 10
1.823660346110644
 20
-3.40239713909971
 30
0.0
 11
0.0
 21
-0.0779999999999994
 31
0.0
210
0.0
220
0.0
230
1.0
 40
0.7071067811865475
 41
3.050333434610903
 42
8.669052683636117
1001
ACAD
1000
RTLwPs
1070
   128
  0
ELLIPSE
  5
6F
100
AcDbEntity
  8
USP-GEO
  6
CONTINUOUS
100
AcDbEllipse
 10
1.823660346110644
 20
-3.40239713909971
 30
0.0
 11
0.0
 21
-0.0779999999999994
 31
0.0
210
0.0
220
0.0
230
1.0
 40
0.7071067811865475
 41
0.9271406493397387
 42
6.766125634209255
1001
ACAD
1000
RTLwPs
1070
   128
  0
ELLIPSE
  5
70
100
AcDbEntity
  8
USP-GEO
  6
CONTINUOUS
100
AcDbEllipse
 10
1.823660346110644
 20
-3.40239713909971
 30
0.0
 11
0.0
 21
-0.0779999999999994
 31
0.0
210
0.0
220
0.0
230
1.0
 40
0.7071067811865475
 41
0.9167512387955079
 42
2.396630139631223
1001
ACAD
1000
RTLwPs
1070
   128
  0
ELLIPSE
  5
71
100
AcDbEntity
  8
USP-GEO
  6
CONTINUOUS
100
AcDbEllipse
 10
1.823660346110644
 20
-3.40239713909971
 30
0.0
 11
0.0
 21
-0.0779999999999994
 31
0.0
210
0.0
220
0.0
230
1.0
 40
0.7071067811865475
 41
1.680954625325348
 42
7.962504928724711
1001
ACAD
1000
RTLwPs
1070
   128
  0
LWPOLYLINE
  5
72
100
AcDbEntity
  8
USP-GEO
100
AcDbPolyline
 90
        2
 70
   128
 43
0.0
 10
2.024064214033403
 20
-3.588476844169697
 10
2.024064214033403
 20
-3.712707001979726
  0
LWPOLYLINE
  5
73
100
AcDbEntity
  8
USP-GEO
100
AcDbPolyline
 90
        2
 70
   128
 43
0.0
 10
2.024064214033403
 20
-3.570729678768264
 10
2.024064214033403
 20
-3.588476844169697
  0
LWPOLYLINE
  5
74
100
AcDbEntity
  8
USP-GEO
100
AcDbPolyline
 90
        2
 70
   128
 43
0.0
 10
2.024064214033403
 20
-3.446499520958235
 10
2.024064214033403
 20
-3.570729678768264
  0
LWPOLYLINE
  5
75
100
AcDbEntity
  8
USP-GEO
100
AcDbPolyline
 90
        2
 70
   128
 43
0.0
 10
2.024064214033403
 20
-2.824461373638019
 10
2.024064214033403
 20
-3.446499520958235
  0
LWPOLYLINE
  5
76
100
AcDbEntity
  8
USP-GEO
100
AcDbPolyline
 90
        2
 70
   128
 43
0.0
 10
2.024064214033403
 20
-2.806714208236584
 10
2.024064214033403
 20
-2.824461373638019
  0
LWPOLYLINE
  5
77
100
AcDbEntity
  8
USP-GEO
100
AcDbPolyline
 90
        2
 70
   128
 43
0.0
 10
2.024064214033403
 20
-2.682484050426555
 10
2.024064214033403
 20
-2.806714208236584
  0
LWPOLYLINE
  5
78
100
AcDbEntity
  8
USP-GEO
100
AcDbPolyline
 90
        2
 70
   128
 43
0.0
 10
2.024064214033403
 20
-1.776491256683417
 10
2.024064214033403
 20
-2.682484050426555
  0
LWPOLYLINE
  5
79
100
AcDbEntity
  8
USP-GEO
100
AcDbPolyline
 90
        2
 70
   128
 43
0.0
 10
2.024064214033403
 20
-1.599019602669088
 10
2.024064214033403
 20
-1.776491256683417
  0
LWPOLYLINE
  5
7A
100
AcDbEntity
  8
USP-GEO
100
AcDbPolyline
 90
        2
 70
   128
 43
0.0
 10
2.0773057102377
 20
-2.717978381229421
 10
2.183788702646298
 20
-2.593748223419392
  0
LWPOLYLINE
  5
7B
100
AcDbEntity
  8
USP-GEO
100
AcDbPolyline
 90
        2
 70
   128
 43
0.0
 10
2.183788702646298
 20
-2.593748223419392
 10
2.0773057102377
 20
-2.451770900207931
  0
LWPOLYLINE
  5
7C
100
AcDbEntity
  8
USP-GEO
100
AcDbPolyline
 90
        2
 70
   128
 43
0.0
 10
2.0773057102377
 20
-2.451770900207931
 10
2.024064214033403
 20
-2.451770900207931
  0
LWPOLYLINE
  5
7D
100
AcDbEntity
  8
USP-GEO
100
AcDbPolyline
 90
        2
 70
   128
 43
0.0
 10
2.024064214033403
 20
-2.717978381229421
 10
2.0773057102377
 20
-2.717978381229421
  0
LWPOLYLINE
  5
7E
100
AcDbEntity
  8
USP-GEO
100
AcDbPolyline
 90
        2
 70
   128
 43
0.0
 10
4.492694921372695
 20
-2.717978381229421
 10
4.368464763562666
 20
-2.593748223419392
  0
LWPOLYLINE
  5
7F
100
AcDbEntity
  8
USP-GEO
100
AcDbPolyline
 90
        2
 70
   128
 43
0.0
 10
4.368464763562666
 20
-2.593748223419392
 10
4.492694921372695
 20
-2.451770900207931
  0
LWPOLYLINE
  5
80
100
AcDbEntity
  8
USP-GEO
100
AcDbPolyline
 90
        2
 70
   128
 43
0.0
 10
4.492694921372695
 20
-2.451770900207931
 10
4.528189252175561
 20
-2.451770900207931
  0
LWPOLYLINE
  5
81
100
AcDbEntity
  8
USP-GEO
100
AcDbPolyline
 90
        2
 70
   128
 43
0.0
 10
4.528189252175561
 20
-2.717978381229421
 10
4.492694921372695
 20
-2.717978381229421
  0
ARC
  5
82
100
AcDbEntity
  8
USP-GEO
100
AcDbCircle
 10
2.029961097442297
 20
-3.402397139099713
 30
0.0
 40
0.3020000000000011
100
AcDbArc
 50
100.7420015575395
 51
258.5722650263371
  0
ARC
  5
83
100
AcDbEntity
  8
USP-GEO
100
AcDbCircle
 10
4.529961097442312
 20
-3.214897139099685
 30
0.0
 40
0.3020000000000011
100
AcDbArc
 50
280.2424983047543
 51
80.31861230363631
  0
TEXT
  5
84
100
AcDbEntity
  8
USP-TXT
100
AcDbText
 10
0.9011267331044825
 20
-4.434088246224847
 30
0.0
 40
0.25
  1
TFL25938 - TOP VIEW
 72
     1
 11
3.276126733104481
 21
-4.434088246224847
 31
0.0
100
AcDbText
  0
ENDBLK
  5
8B
100
AcDbEntity
  8
0
100
AcDbBlockEnd
  0
BLOCK
  5
105
100
AcDbEntity
  8
0
100
AcDbBlockBegin
  2
TFL25938PR_F
 70
     0
 10
0.0
 20
0.0
 30
0.0
  3
TFL25938PR_F
  1

  0
LWPOLYLINE
  5
8E
100
AcDbEntity
  8
USP-GEO
100
AcDbPolyline
 90
        2
 70
   128
 43
0.0
 10
6.551767134858447
 20
9.432618410861493
 10
4.651933078635074
 20
9.432618410861493
  0
LWPOLYLINE
  5
8F
100
AcDbEntity
  8
USP-GEO
100
AcDbPolyline
 90
        2
 70
   128
 43
0.0
 10
1.899347724872857
 20
9.432618410861493
 10
-0.000486331350515
 20
9.432618410861493
  0
LWPOLYLINE
  5
90
100
AcDbEntity
  8
USP-GEO
100
AcDbPolyline
 90
        2
 70
   128
 43
0.0
 10
4.882646228853699
 20
4.849412945941493
 10
5.006876386663728
 20
4.742929953532895
  0
LWPOLYLINE
  5
91
100
AcDbEntity
  8
USP-GEO
100
AcDbPolyline
 90
        2
 70
   128
 43
0.0
 10
4.776163236445103
 20
4.742929953532895
 10
4.882646228853699
 20
4.849412945941493
  0
LWPOLYLINE
  5
92
100
AcDbEntity
  8
USP-GEO
100
AcDbPolyline
 90
        2
 70
   128
 43
0.0
 10
4.882646228853699
 20
4.617812437452794
 10
4.776163236445103
 20
4.742929953532895
  0
LWPOLYLINE
  5
93
100
AcDbEntity
  8
USP-GEO
100
AcDbPolyline
 90
        2
 70
   128
 43
0.0
 10
5.006876386663728
 20
4.742929953532895
 10
4.882646228853699
 20
4.617812437452794
  0
CIRCLE
  5
94
100
AcDbEntity
  8
USP-GEO
100
AcDbCircle
 10
5.02754136567424
 20
8.437485584654274
 30
0.0
 40
0.09
  0
LWPOLYLINE
  5
95
100
AcDbEntity
  8
USP-GEO
100
AcDbPolyline
 90
        2
 70
   128
 43
0.0
 10
4.651933078635074
 20
9.396236721788557
 10
4.651933078635074
 20
9.165523571569931
  0
ARC
  5
96
100
AcDbEntity
  8
USP-GEO
100
AcDbCircle
 10
6.546657427170801
 20
9.168369523157712
 30
0.0
 40
0.1058839385034389
100
AcDbArc
 50
272.6758860614306
 51
273.1397226709922
  0
ARC
  5
97
100
AcDbEntity
  8
USP-GEO
100
AcDbCircle
 10
6.546657427170801
 20
8.812485584654274
 30
0.0
 40
0.25
100
AcDbArc
 50
88.81274852225953
 51
137.2774320429042
  0
LWPOLYLINE
  5
98
100
AcDbEntity
  8
USP-GEO
100
AcDbPolyline
 90
        2
 70
   128
 43
0.0
 10
5.451442879969619
 20
7.957828966002434
 10
6.356548315442688
 20
8.988051917555605
  0
ARC
  5
99
100
AcDbEntity
  8
USP-GEO
100
AcDbCircle
 10
5.831474766091988
 20
7.629708439728124
 30
0.0
 40
0.5
100
AcDbArc
 50
139.1925879864884
 51
179.0165397302368
  0
LWPOLYLINE
  5
9A
100
AcDbEntity
  8
USP-GEO
100
AcDbPolyline
 90
        2
 70
   128
 43
0.0
 10
5.326325363889518
 20
7.638379988776645
 10
5.326325363889518
 20
5.470563734991637
  0
ARC
  5
9B
100
AcDbEntity
  8
USP-GEO
100
AcDbCircle
 10
4.581474766091988
 20
5.465647433352861
 30
0.0
 40
0.75
100
AcDbArc
 50
349.3248508181173
 51
0.3781687832891349
  0
LWPOLYLINE
  5
9C
100
AcDbEntity
  8
USP-GEO
100
AcDbPolyline
 90
        2
 70
   128
 43
0.0
 10
4.705174574839372
 20
2.166928895514935
 10
5.308578198488085
 20
5.328586411780175
  0
CIRCLE
  5
9D
100
AcDbEntity
  8
USP-GEO
100
AcDbCircle
 10
1.531408166509566
 20
8.43748558465416
 30
0.0
 40
0.09
  0
LWPOLYLINE
  5
9E
100
AcDbEntity
  8
USP-GEO
100
AcDbPolyline
 90
        2
 70
   128
 43
0.0
 10
1.668634574654233
 20
4.617812437452794
 10
1.562151582245637
 20
4.742929953532895
  0
LWPOLYLINE
  5
9F
100
AcDbEntity
  8
USP-GEO
100
AcDbPolyline
 90
        2
 70
   128
 43
0.0
 10
1.775117567062828
 20
4.742929953532895
 10
1.668634574654233
 20
4.617812437452794
  0
LWPOLYLINE
  5
A0
100
AcDbEntity
  8
USP-GEO
100
AcDbPolyline
 90
        2
 70
   128
 43
0.0
 10
1.668634574654233
 20
4.849412945941493
 10
1.775117567062828
 20
4.742929953532895
  0
LWPOLYLINE
  5
A1
100
AcDbEntity
  8
USP-GEO
100
AcDbPolyline
 90
        2
 70
   128
 43
0.0
 10
1.562151582245637
 20
4.742929953532895
 10
1.668634574654233
 20
4.849412945941493
  0
ARC
  5
A2
100
AcDbEntity
  8
USP-GEO
100
AcDbCircle
 10
1.97747476609179
 20
2.20311058465416
 30
0.0
 40
0.125
100
AcDbArc
 50
195.3986886894873
 51
251.1558997775809
  0
LWPOLYLINE
  5
A3
100
AcDbEntity
  8
USP-GEO
100
AcDbPolyline
 90
        2
 70
   128
 43
0.0
 10
1.84610622866856
 20
2.166928895514935
 10
1.242702605019847
 20
5.328586411780175
  0
ARC
  5
A4
100
AcDbEntity
  8
USP-GEO
100
AcDbCircle
 10
1.977474766091818
 20
5.46564743335279
 30
0.0
 40
0.75
100
AcDbArc
 50
179.6256849261703
 51
190.5662556582052
  0
LWPOLYLINE
  5
A5
100
AcDbEntity
  8
USP-GEO
100
AcDbPolyline
 90
        2
 70
   128
 43
0.0
 10
1.224955439618414
 20
7.638379988776645
 10
1.224955439618414
 20
5.470563734991637
  0
ARC
  5
A6
100
AcDbEntity
  8
USP-GEO
100
AcDbCircle
 10
0.7274747660918189
 20
7.629708439728011
 30
0.0
 40
0.5
100
AcDbArc
 50
0.9986173898287391
 51
41.31835650481579
  0
LWPOLYLINE
  5
A7
100
AcDbEntity
  8
USP-GEO
100
AcDbPolyline
 90
        2
 70
   128
 43
0.0
 10
1.100725281808385
 20
7.957828966002434
 10
0.1947324880652448
 20
8.988051917555605
  0
ARC
  5
A8
100
AcDbEntity
  8
USP-GEO
100
AcDbCircle
 10
0.0122921050130054
 20
8.81248558465416
 30
0.0
 40
0.25
100
AcDbArc
 50
43.90000479419442
 51
88.84549622062413
  0
ARC
  5
A9
100
AcDbEntity
  8
USP-GEO
100
AcDbCircle
 10
0.0122921050130054
 20
9.168369523157599
 30
0.0
 40
0.1058839385034389
100
AcDbArc
 50
263.3334804119517
 51
272.602160330358
  0
LWPOLYLINE
  5
AA
100
AcDbEntity
  8
USP-GEO
100
AcDbPolyline
 90
        2
 70
   128
 43
0.0
 10
-0.000486331350515
 20
9.396236721788557
 10
-0.000486331350515
 20
9.059040579161337
  0
LWPOLYLINE
  5
AB
100
AcDbEntity
  8
USP-GEO
100
AcDbPolyline
 90
        2
 70
   128
 43
0.0
 10
4.527702920825046
 20
1.953962910697741
 10
4.527702920825046
 20
2.07819306850777
  0
LWPOLYLINE
  5
AC
100
AcDbEntity
  8
USP-GEO
100
AcDbPolyline
 90
        2
 70
   128
 43
0.0
 10
4.527702920825046
 20
2.07819306850777
 10
4.580944417029343
 20
2.07819306850777
  0
LWPOLYLINE
  5
AD
100
AcDbEntity
  8
USP-GEO
100
AcDbPolyline
 90
        2
 70
   128
 43
0.0
 10
4.527702920825046
 20
2.07819306850777
 10
4.527702920825046
 20
2.166928895514935
  0
LWPOLYLINE
  5
AE
100
AcDbEntity
  8
USP-GEO
100
AcDbPolyline
 90
        2
 70
   128
 43
0.0
 10
4.527702920825046
 20
2.166928895514935
 10
4.580944417029343
 20
2.166928895514935
  0
LWPOLYLINE
  5
AF
100
AcDbEntity
  8
USP-GEO
100
AcDbPolyline
 90
        2
 70
   128
 43
0.0
 10
4.527702920825046
 20
2.166928895514935
 10
4.527702920825046
 20
5.328586411780175
  0
LWPOLYLINE
  5
B0
100
AcDbEntity
  8
USP-GEO
100
AcDbPolyline
 90
        2
 70
   128
 43
0.0
 10
4.527702920825046
 20
5.328586411780175
 10
4.527702920825046
 20
5.470563734991637
  0
LWPOLYLINE
  5
B1
100
AcDbEntity
  8
USP-GEO
100
AcDbPolyline
 90
        2
 70
   128
 43
0.0
 10
4.527702920825046
 20
5.470563734991637
 10
4.527702920825046
 20
7.638379988776645
  0
LWPOLYLINE
  5
B2
100
AcDbEntity
  8
USP-GEO
100
AcDbPolyline
 90
        2
 70
   128
 43
0.0
 10
4.527702920825046
 20
7.638379988776645
 10
4.527702920825046
 20
7.957828966002434
  0
LWPOLYLINE
  5
B3
100
AcDbEntity
  8
USP-GEO
100
AcDbPolyline
 90
        2
 70
   128
 43
0.0
 10
4.527702920825046
 20
7.957828966002434
 10
4.527702920825046
 20
8.988051917555605
  0
LWPOLYLINE
  5
B4
100
AcDbEntity
  8
USP-GEO
100
AcDbPolyline
 90
        2
 70
   128
 43
0.0
 10
4.527702920825046
 20
8.988051917555605
 10
4.527702920825046
 20
9.059040579161337
  0
LWPOLYLINE
  5
B5
100
AcDbEntity
  8
USP-GEO
100
AcDbPolyline
 90
        2
 70
   128
 43
0.0
 10
4.545450086226479
 20
9.076787744562768
 10
4.580944417029343
 20
9.076787744562768
  0
LWPOLYLINE
  5
B6
100
AcDbEntity
  8
USP-GEO
100
AcDbPolyline
 90
        2
 70
   128
 43
0.0
 10
4.616438747832209
 20
9.076787744562768
 10
4.580944417029343
 20
9.076787744562768
  0
LWPOLYLINE
  5
B7
100
AcDbEntity
  8
USP-GEO
100
AcDbPolyline
 90
        2
 70
   128
 43
0.0
 10
2.023577882682888
 20
2.166928895514935
 10
1.970336386478589
 20
2.166928895514935
  0
LWPOLYLINE
  5
B8
100
AcDbEntity
  8
USP-GEO
100
AcDbPolyline
 90
        2
 70
   128
 43
0.0
 10
2.023577882682888
 20
2.07819306850777
 10
1.970336386478589
 20
2.07819306850777
  0
ARC
  5
B9
100
AcDbEntity
  8
USP-GEO
100
AcDbCircle
 10
2.067474766091793
 20
0.1004855846541819
 30
0.0
 40
0.09
100
AcDbArc
 50
186.8969318048138
 51
265.2200766151477
  0
LWPOLYLINE
  5
BA
100
AcDbEntity
  8
USP-GEO
100
AcDbPolyline
 90
        2
 70
   128
 43
0.0
 10
4.527702920825046
 20
0.088735827007163
 10
4.527702920825046
 20
1.953962910697741
  0
LWPOLYLINE
  5
BB
100
AcDbEntity
  8
USP-GEO
100
AcDbPolyline
 90
        2
 70
   128
 43
0.0
 10
2.059072213485752
 20
0.0
 10
4.49220859002218
 20
0.0
  0
ARC
  5
BC
100
AcDbEntity
  8
USP-GEO
100
AcDbCircle
 10
4.491474766091799
 20
0.1004855846541819
 30
0.0
 40
0.09
100
AcDbArc
 50
270.4184109278652
 51
352.5183472803671
  0
ARC
  5
BD
100
AcDbEntity
  8
USP-GEO
100
AcDbCircle
 10
2.067474766091779
 20
0.1004855846541819
 30
0.0
 40
0.038
100
AcDbArc
 50
194.9849264369641
 51
259.9151657156497
  0
LWPOLYLINE
  5
BE
100
AcDbEntity
  8
USP-GEO
100
AcDbPolyline
 90
        2
 70
   128
 43
0.0
 10
2.059072213485752
 20
0.0532414962042971
 10
4.49220859002218
 20
0.0532414962042971
  0
ARC
  5
BF
100
AcDbEntity
  8
USP-GEO
100
AcDbCircle
 10
4.491474766091785
 20
0.1004855846541819
 30
0.0
 40
0.038
100
AcDbArc
 50
270.8898813523355
 51
342.0307374201765
  0
LWPOLYLINE
  5
C0
100
AcDbEntity
  8
USP-GEO
100
AcDbPolyline
 90
        2
 70
   128
 43
0.0
 10
1.899347724872857
 20
9.396236721788557
 10
1.899347724872857
 20
9.165523571569931
  0
LWPOLYLINE
  5
C1
100
AcDbEntity
  8
USP-GEO
100
AcDbPolyline
 90
        2
 70
   128
 43
0.0
 10
-0.000486331350515
 20
9.485859907065792
 10
1.899347724872857
 20
9.485859907065792
  0
LWPOLYLINE
  5
C2
100
AcDbEntity
  8
USP-GEO
100
AcDbPolyline
 90
        2
 70
   128
 43
0.0
 10
1.899347724872857
 20
9.485859907065792
 10
1.899347724872857
 20
9.396236721788557
  0
LWPOLYLINE
  5
C3
100
AcDbEntity
  8
USP-GEO
100
AcDbPolyline
 90
        2
 70
   128
 43
0.0
 10
-0.000486331350515
 20
9.396236721788557
 10
-0.000486331350515
 20
9.485859907065792
  0
LWPOLYLINE
  5
C4
100
AcDbEntity
  8
USP-GEO
100
AcDbPolyline
 90
        2
 70
   128
 43
0.0
 10
6.551767134858447
 20
9.396236721788557
 10
6.551767134858447
 20
9.059040579161337
  0
LWPOLYLINE
  5
C5
100
AcDbEntity
  8
USP-GEO
100
AcDbPolyline
 90
        2
 70
   128
 43
0.0
 10
4.651933078635074
 20
9.396236721788557
 10
4.651933078635074
 20
9.485859907065792
  0
LWPOLYLINE
  5
C6
100
AcDbEntity
  8
USP-GEO
100
AcDbPolyline
 90
        2
 70
   128
 43
0.0
 10
4.651933078635074
 20
9.485859907065792
 10
6.551767134858447
 20
9.485859907065792
  0
LWPOLYLINE
  5
C7
100
AcDbEntity
  8
USP-GEO
100
AcDbPolyline
 90
        2
 70
   128
 43
0.0
 10
6.551767134858447
 20
9.485859907065792
 10
6.551767134858447
 20
9.396236721788557
  0
LWPOLYLINE
  5
C8
100
AcDbEntity
  8
USP-GEO
100
AcDbPolyline
 90
        2
 70
   128
 43
0.0
 10
4.580944417029343
 20
0.088735827007163
 10
4.580944417029343
 20
1.953962910697741
  0
LWPOLYLINE
  5
C9
100
AcDbEntity
  8
USP-GEO
100
AcDbPolyline
 90
        2
 70
   128
 43
0.0
 10
4.580944417029343
 20
2.07819306850777
 10
4.580944417029343
 20
1.953962910697741
  0
LWPOLYLINE
  5
CA
100
AcDbEntity
  8
USP-GEO
100
AcDbPolyline
 90
        2
 70
   128
 43
0.0
 10
4.580944417029343
 20
2.07819306850777
 10
4.580944417029343
 20
2.166928895514935
  0
LWPOLYLINE
  5
CB
100
AcDbEntity
  8
USP-GEO
100
AcDbPolyline
 90
        2
 70
   128
 43
0.0
 10
4.580944417029343
 20
2.166928895514935
 10
4.580944417029343
 20
5.328586411780175
  0
LWPOLYLINE
  5
CC
100
AcDbEntity
  8
USP-GEO
100
AcDbPolyline
 90
        2
 70
   128
 43
0.0
 10
4.580944417029343
 20
5.328586411780175
 10
4.580944417029343
 20
5.470563734991637
  0
LWPOLYLINE
  5
CD
100
AcDbEntity
  8
USP-GEO
100
AcDbPolyline
 90
        2
 70
   128
 43
0.0
 10
4.580944417029343
 20
7.638379988776645
 10
4.580944417029343
 20
5.470563734991637
  0
LWPOLYLINE
  5
CE
100
AcDbEntity
  8
USP-GEO
100
AcDbPolyline
 90
        2
 70
   128
 43
0.0
 10
4.580944417029343
 20
7.957828966002434
 10
4.580944417029343
 20
7.638379988776645
  0
LWPOLYLINE
  5
CF
100
AcDbEntity
  8
USP-GEO
100
AcDbPolyline
 90
        2
 70
   128
 43
0.0
 10
4.580944417029343
 20
7.957828966002434
 10
4.580944417029343
 20
8.988051917555605
  0
LWPOLYLINE
  5
D0
100
AcDbEntity
  8
USP-GEO
100
AcDbPolyline
 90
        2
 70
   128
 43
0.0
 10
4.580944417029343
 20
9.059040579161337
 10
4.580944417029343
 20
8.988051917555605
  0
LWPOLYLINE
  5
D1
100
AcDbEntity
  8
USP-GEO
100
AcDbPolyline
 90
        2
 70
   128
 43
0.0
 10
4.580944417029343
 20
9.059040579161337
 10
4.581831775299415
 20
9.059040579161337
  0
LWPOLYLINE
  5
D2
100
AcDbEntity
  8
USP-GEO
100
AcDbPolyline
 90
        2
 70
   128
 43
0.0
 10
4.580944417029343
 20
9.059040579161337
 10
4.616438747832209
 20
9.076787744562768
  0
ARC
  5
D3
100
AcDbEntity
  8
USP-GEO
100
AcDbCircle
 10
4.546657427170801
 20
9.168369523157712
 30
0.0
 40
0.1058839385034389
100
AcDbArc
 50
290.5252262828061
 51
358.4514813434935
  0
LWPOLYLINE
  5
D4
100
AcDbEntity
  8
USP-GEO
100
AcDbPolyline
 90
        2
 70
   128
 43
0.0
 10
4.616438747832209
 20
2.07819306850777
 10
4.580944417029343
 20
2.07819306850777
  0
ARC
  5
D5
100
AcDbEntity
  8
USP-GEO
100
AcDbCircle
 10
4.581474766092016
 20
2.203110584654259
 30
0.0
 40
0.125
100
AcDbArc
 50
285.6367499467871
 51
343.6960174348586
  0
LWPOLYLINE
  5
D6
100
AcDbEntity
  8
USP-GEO
100
AcDbPolyline
 90
        2
 70
   128
 43
0.0
 10
4.545450086226479
 20
9.076787744562768
 10
4.527702920825046
 20
9.059040579161337
  0
LWPOLYLINE
  5
D7
100
AcDbEntity
  8
USP-GEO
100
AcDbPolyline
 90
        2
 70
   128
 43
0.0
 10
4.527702920825046
 20
9.059040579161337
 10
4.528590279095118
 20
9.059040579161337
  0
ARC
  5
D8
100
AcDbEntity
  8
USP-GEO
100
AcDbCircle
 10
2.012292105013005
 20
9.168369523157599
 30
0.0
 40
0.1058839385034389
100
AcDbArc
 50
181.4434230091026
 51
245.386395436224
  0
LWPOLYLINE
  5
D9
100
AcDbEntity
  8
USP-GEO
100
AcDbPolyline
 90
        2
 70
   128
 43
0.0
 10
1.970336386478589
 20
9.076787744562768
 10
1.934842055675723
 20
9.076787744562768
  0
LWPOLYLINE
  5
DA
100
AcDbEntity
  8
USP-GEO
100
AcDbPolyline
 90
        2
 70
   128
 43
0.0
 10
2.023577882682888
 20
9.076787744562768
 10
1.970336386478589
 20
9.076787744562768
  0
LWPOLYLINE
  5
DB
100
AcDbEntity
  8
USP-GEO
100
AcDbPolyline
 90
        2
 70
   128
 43
0.0
 10
2.023577882682888
 20
9.059040579161337
 10
2.023577882682888
 20
9.076787744562768
  0
LWPOLYLINE
  5
DC
100
AcDbEntity
  8
USP-GEO
100
AcDbPolyline
 90
        2
 70
   128
 43
0.0
 10
2.023577882682888
 20
9.059040579161337
 10
2.024465240952958
 20
9.059040579161337
  0
LWPOLYLINE
  5
DD
100
AcDbEntity
  8
USP-GEO
100
AcDbPolyline
 90
        2
 70
   128
 43
0.0
 10
1.970336386478589
 20
8.988051917555605
 10
1.970336386478589
 20
9.059040579161337
  0
LWPOLYLINE
  5
DE
100
AcDbEntity
  8
USP-GEO
100
AcDbPolyline
 90
        2
 70
   128
 43
0.0
 10
1.970336386478589
 20
7.957828966002434
 10
1.970336386478589
 20
8.988051917555605
  0
LWPOLYLINE
  5
DF
100
AcDbEntity
  8
USP-GEO
100
AcDbPolyline
 90
        2
 70
   128
 43
0.0
 10
1.970336386478589
 20
7.638379988776645
 10
1.970336386478589
 20
7.957828966002434
  0
LWPOLYLINE
  5
E0
100
AcDbEntity
  8
USP-GEO
100
AcDbPolyline
 90
        2
 70
   128
 43
0.0
 10
1.970336386478589
 20
7.638379988776645
 10
1.970336386478589
 20
5.470563734991637
  0
LWPOLYLINE
  5
E1
100
AcDbEntity
  8
USP-GEO
100
AcDbPolyline
 90
        2
 70
   128
 43
0.0
 10
1.970336386478589
 20
5.470563734991637
 10
1.970336386478589
 20
5.328586411780175
  0
LWPOLYLINE
  5
E2
100
AcDbEntity
  8
USP-GEO
100
AcDbPolyline
 90
        2
 70
   128
 43
0.0
 10
1.970336386478589
 20
2.166928895514935
 10
1.970336386478589
 20
5.328586411780175
  0
LWPOLYLINE
  5
E3
100
AcDbEntity
  8
USP-GEO
100
AcDbPolyline
 90
        2
 70
   128
 43
0.0
 10
1.970336386478589
 20
2.166928895514935
 10
1.970336386478589
 20
2.07819306850777
  0
LWPOLYLINE
  5
E4
100
AcDbEntity
  8
USP-GEO
100
AcDbPolyline
 90
        2
 70
   128
 43
0.0
 10
1.970336386478589
 20
1.953962910697741
 10
1.970336386478589
 20
2.07819306850777
  0
LWPOLYLINE
  5
E5
100
AcDbEntity
  8
USP-GEO
100
AcDbPolyline
 90
        2
 70
   128
 43
0.0
 10
1.970336386478589
 20
1.953962910697741
 10
1.970336386478589
 20
0.088735827007163
  0
LWPOLYLINE
  5
E6
100
AcDbEntity
  8
USP-GEO
100
AcDbPolyline
 90
        2
 70
   128
 43
0.0
 10
1.970336386478589
 20
9.059040579161337
 10
1.971223744748661
 20
9.059040579161337
  0
LWPOLYLINE
  5
E7
100
AcDbEntity
  8
USP-GEO
100
AcDbPolyline
 90
        2
 70
   128
 43
0.0
 10
1.970336386478589
 20
2.07819306850777
 10
1.934842055675723
 20
2.07819306850777
  0
LWPOLYLINE
  5
E8
100
AcDbEntity
  8
USP-GEO
100
AcDbPolyline
 90
        2
 70
   128
 43
0.0
 10
1.934842055675723
 20
9.076787744562768
 10
1.970336386478589
 20
9.059040579161337
  0
LWPOLYLINE
  5
E9
100
AcDbEntity
  8
USP-GEO
100
AcDbPolyline
 90
        2
 70
   128
 43
0.0
 10
4.68742740943794
 20
1.49164925199042
 10
4.793910401846536
 20
1.385166259581822
  0
LWPOLYLINE
  5
EA
100
AcDbEntity
  8
USP-GEO
100
AcDbPolyline
 90
        2
 70
   128
 43
0.0
 10
1.881600559471426
 20
1.49164925199042
 10
1.775117567062828
 20
1.385166259581822
  0
LWPOLYLINE
  5
EB
100
AcDbEntity
  8
USP-GEO
100
AcDbPolyline
 90
        2
 70
   128
 43
0.0
 10
2.023577882682888
 20
1.953962910697741
 10
2.023577882682888
 20
0.088735827007163
  0
LWPOLYLINE
  5
EC
100
AcDbEntity
  8
USP-GEO
100
AcDbPolyline
 90
        2
 70
   128
 43
0.0
 10
2.023577882682888
 20
2.07819306850777
 10
2.023577882682888
 20
1.953962910697741
  0
LWPOLYLINE
  5
ED
100
AcDbEntity
  8
USP-GEO
100
AcDbPolyline
 90
        2
 70
   128
 43
0.0
 10
2.023577882682888
 20
2.166928895514935
 10
2.023577882682888
 20
2.07819306850777
  0
LWPOLYLINE
  5
EE
100
AcDbEntity
  8
USP-GEO
100
AcDbPolyline
 90
        2
 70
   128
 43
0.0
 10
2.023577882682888
 20
5.328586411780175
 10
2.023577882682888
 20
2.166928895514935
  0
LWPOLYLINE
  5
EF
100
AcDbEntity
  8
USP-GEO
100
AcDbPolyline
 90
        2
 70
   128
 43
0.0
 10
2.023577882682888
 20
5.470563734991637
 10
2.023577882682888
 20
5.328586411780175
  0
LWPOLYLINE
  5
F0
100
AcDbEntity
  8
USP-GEO
100
AcDbPolyline
 90
        2
 70
   128
 43
0.0
 10
2.023577882682888
 20
7.638379988776645
 10
2.023577882682888
 20
5.470563734991637
  0
LWPOLYLINE
  5
F1
100
AcDbEntity
  8
USP-GEO
100
AcDbPolyline
 90
        2
 70
   128
 43
0.0
 10
2.023577882682888
 20
7.957828966002434
 10
2.023577882682888
 20
7.638379988776645
  0
LWPOLYLINE
  5
F2
100
AcDbEntity
  8
USP-GEO
100
AcDbPolyline
 90
        2
 70
   128
 43
0.0
 10
2.023577882682888
 20
8.988051917555605
 10
2.023577882682888
 20
7.957828966002434
  0
LWPOLYLINE
  5
F3
100
AcDbEntity
  8
USP-GEO
100
AcDbPolyline
 90
        2
 70
   128
 43
0.0
 10
2.023577882682888
 20
9.059040579161337
 10
2.023577882682888
 20
8.988051917555605
  0
LWPOLYLINE
  5
F4
100
AcDbEntity
  8
USP-GEO
100
AcDbPolyline
 90
        2
 70
   128
 43
0.0
 10
2.041325048084321
 20
0.8341167738673362
 10
2.147808040492917
 20
0.7631281122616063
  0
LWPOLYLINE
  5
F5
100
AcDbEntity
  8
USP-GEO
100
AcDbPolyline
 90
        2
 70
   128
 43
0.0
 10
2.076819378887185
 20
0.8696111046702021
 10
2.183302371295783
 20
0.7986224430644722
  0
LWPOLYLINE
  5
F6
100
AcDbEntity
  8
USP-GEO
100
AcDbPolyline
 90
        2
 70
   128
 43
0.0
 10
2.183302371295783
 20
0.7986224430644722
 10
2.147808040492917
 20
0.7631281122616063
  0
LWPOLYLINE
  5
F7
100
AcDbEntity
  8
USP-GEO
100
AcDbPolyline
 90
        2
 70
   128
 43
0.0
 10
2.023577882682888
 20
0.905105435473068
 10
2.076819378887185
 20
0.8696111046702021
  0
LWPOLYLINE
  5
F8
100
AcDbEntity
  8
USP-GEO
100
AcDbPolyline
 90
        2
 70
   128
 43
0.0
 10
2.076819378887185
 20
0.8696111046702021
 10
2.041325048084321
 20
0.8341167738673362
  0
LWPOLYLINE
  5
F9
100
AcDbEntity
  8
USP-GEO
100
AcDbPolyline
 90
        2
 70
   128
 43
0.0
 10
2.023577882682888
 20
0.8341167738673362
 10
2.041325048084321
 20
0.8341167738673362
  0
LWPOLYLINE
  5
FA
100
AcDbEntity
  8
USP-GEO
100
AcDbPolyline
 90
        2
 70
   128
 43
0.0
 10
4.49220859002218
 20
0.8696111046702021
 10
4.367978432212151
 20
0.7986224430644722
  0
LWPOLYLINE
  5
FB
100
AcDbEntity
  8
USP-GEO
100
AcDbPolyline
 90
        2
 70
   128
 43
0.0
 10
4.367978432212151
 20
0.7986224430644722
 10
4.403472763015017
 20
0.7631281122616063
  0
LWPOLYLINE
  5
FC
100
AcDbEntity
  8
USP-GEO
100
AcDbPolyline
 90
        2
 70
   128
 43
0.0
 10
4.509955755423613
 20
0.8341167738673362
 10
4.403472763015017
 20
0.7631281122616063
  0
LWPOLYLINE
  5
FD
100
AcDbEntity
  8
USP-GEO
100
AcDbPolyline
 90
        2
 70
   128
 43
0.0
 10
4.527702920825046
 20
0.8341167738673362
 10
4.509955755423613
 20
0.8341167738673362
  0
LWPOLYLINE
  5
FE
100
AcDbEntity
  8
USP-GEO
100
AcDbPolyline
 90
        2
 70
   128
 43
0.0
 10
4.49220859002218
 20
0.8696111046702021
 10
4.509955755423613
 20
0.8341167738673362
  0
LWPOLYLINE
  5
FF
100
AcDbEntity
  8
USP-GEO
100
AcDbPolyline
 90
        2
 70
   128
 43
0.0
 10
4.527702920825046
 20
0.905105435473068
 10
4.49220859002218
 20
0.8696111046702021
  0
ARC
  5
100
100
AcDbEntity
  8
USP-GEO
100
AcDbCircle
 10
2.029474766091782
 20
1.233735584654274
 30
0.0
 40
0.3020000000000011
100
AcDbArc
 50
101.3956745678063
 51
119.8277039353555
  0
ARC
  5
101
100
AcDbEntity
  8
USP-GEO
100
AcDbCircle
 10
2.029474766091782
 20
1.233735584654274
 30
0.0
 40
0.3020000000000011
100
AcDbArc
 50
149.2326933594521
 51
259.229472938819
  0
ARC
  5
102
100
AcDbEntity
  8
USP-GEO
100
AcDbCircle
 10
4.529474766091796
 20
1.233735584654189
 30
0.0
 40
0.3020000000000011
100
AcDbArc
 50
58.51567731816722
 51
80.05040322954732
  0
ARC
  5
103
100
AcDbEntity
  8
USP-GEO
100
AcDbCircle
 10
4.529474766091796
 20
1.233735584654189
 30
0.0
 40
0.302000000000001
100
AcDbArc
 50
279.4005931701933
 51
29.79787211729814
  0
TEXT
  5
104
100
AcDbEntity
  8
USP-TXT
100
AcDbText
 10
0.6506404017539676
 20
-0.7152583700863407
 30
0.0
 40
0.25
  1
TFL25938 - FRONT VIEW
 72
     1
 11
3.275640401753966
 21
-0.7152583700863407
 31
0.0
100
AcDbText
  0
ENDBLK
  5
106
100
AcDbEntity
  8
0
100
AcDbBlockEnd
  0
BLOCK
  5
151
100
AcDbEntity
  8
0
100
AcDbBlockBegin
  2
TFL25938PR_S
 70
     0
 10
0.0
 20
0.0
 30
0.0
  3
TFL25938PR_S
  1

  0
LWPOLYLINE
  5
109
100
AcDbEntity
  8
USP-GEO
100
AcDbPolyline
 90
        2
 70
   128
 43
0.0
 10
1.988569883230535
 20
0.0532414962042971
 10
0.0
 20
0.0532414962042971
  0
LWPOLYLINE
  5
10A
100
AcDbEntity
  8
USP-GEO
100
AcDbPolyline
 90
        2
 70
   128
 43
0.0
 10
2.14829437184343
 20
9.059040579161337
 10
2.149181730113504
 20
9.059040579161337
  0
LWPOLYLINE
  5
10B
100
AcDbEntity
  8
USP-GEO
100
AcDbPolyline
 90
        2
 70
   128
 43
0.0
 10
2.14829437184343
 20
9.059040579161337
 10
2.14829437184343
 20
8.988051917555605
  0
LWPOLYLINE
  5
10C
100
AcDbEntity
  8
USP-GEO
100
AcDbPolyline
 90
        2
 70
   128
 43
0.0
 10
2.14829437184343
 20
7.957828966002434
 10
2.14829437184343
 20
8.988051917555605
  0
LWPOLYLINE
  5
10D
100
AcDbEntity
  8
USP-GEO
100
AcDbPolyline
 90
        2
 70
   128
 43
0.0
 10
2.14829437184343
 20
7.957828966002434
 10
2.14829437184343
 20
7.638379988776645
  0
LWPOLYLINE
  5
10E
100
AcDbEntity
  8
USP-GEO
100
AcDbPolyline
 90
        2
 70
   128
 43
0.0
 10
2.14829437184343
 20
7.638379988776645
 10
2.14829437184343
 20
5.470563734991637
  0
LWPOLYLINE
  5
10F
100
AcDbEntity
  8
USP-GEO
100
AcDbPolyline
 90
        2
 70
   128
 43
0.0
 10
2.14829437184343
 20
5.328586411780175
 10
2.14829437184343
 20
5.470563734991637
  0
LWPOLYLINE
  5
110
100
AcDbEntity
  8
USP-GEO
100
AcDbPolyline
 90
        2
 70
   128
 43
0.0
 10
2.14829437184343
 20
2.166928895514935
 10
2.14829437184343
 20
5.328586411780175
  0
LWPOLYLINE
  5
111
100
AcDbEntity
  8
USP-GEO
100
AcDbPolyline
 90
        2
 70
   128
 43
0.0
 10
1.988569883230535
 20
0.0
 10
0.0
 20
0.0
  0
LWPOLYLINE
  5
112
100
AcDbEntity
  8
USP-GEO
100
AcDbPolyline
 90
        2
 70
   128
 43
0.0
 10
0.0
 20
0.0
 10
0.0
 20
0.088735827007163
  0
LWPOLYLINE
  5
113
100
AcDbEntity
  8
USP-GEO
100
AcDbPolyline
 90
        2
 70
   128
 43
0.0
 10
1.988569883230535
 20
0.088735827007163
 10
1.988569883230535
 20
0.0
  0
LWPOLYLINE
  5
114
100
AcDbEntity
  8
USP-GEO
100
AcDbPolyline
 90
        2
 70
   128
 43
0.0
 10
3.693185120038151
 20
9.432618410861493
 10
3.693185120038151
 20
9.485859907065792
  0
LWPOLYLINE
  5
115
100
AcDbEntity
  8
USP-GEO
100
AcDbPolyline
 90
        2
 70
   128
 43
0.0
 10
2.201535868047727
 20
9.059040579161337
 10
2.14829437184343
 20
9.059040579161337
  0
LWPOLYLINE
  5
116
100
AcDbEntity
  8
USP-GEO
100
AcDbPolyline
 90
        2
 70
   128
 43
0.0
 10
2.14829437184343
 20
9.396236721788557
 10
2.14829437184343
 20
9.059040579161337
  0
LWPOLYLINE
  5
117
100
AcDbEntity
  8
USP-GEO
100
AcDbPolyline
 90
        2
 70
   128
 43
0.0
 10
3.693185120038151
 20
9.485859907065792
 10
2.237030198850593
 20
9.485859907065792
  0
ARC
  5
118
100
AcDbEntity
  8
USP-GEO
100
AcDbCircle
 10
2.231446041217768
 20
9.399485584654273
 30
0.0
 40
0.09
100
AcDbArc
 50
86.30093752334147
 51
182.2374956016768
  0
LWPOLYLINE
  5
119
100
AcDbEntity
  8
USP-GEO
100
AcDbPolyline
 90
        2
 70
   128
 43
0.0
 10
3.693185120038151
 20
9.432618410861493
 10
2.237030198850593
 20
9.432618410861493
  0
ARC
  5
11A
100
AcDbEntity
  8
USP-GEO
100
AcDbCircle
 10
2.231446041217775
 20
9.399485584654273
 30
0.0
 40
0.038
100
AcDbArc
 50
80.43335867023676
 51
186.1992015227225
  0
CIRCLE
  5
11B
100
AcDbEntity
  8
USP-GEO
100
AcDbCircle
 10
1.391446041217776
 20
7.437485584654217
 30
0.0
 40
0.15625
  0
LWPOLYLINE
  5
11C
100
AcDbEntity
  8
USP-GEO
100
AcDbPolyline
 90
        2
 70
   128
 43
0.0
 10
1.598132244399018
 20
3.516600824293893
 10
1.49164925199042
 20
3.623083816702489
  0
LWPOLYLINE
  5
11D
100
AcDbEntity
  8
USP-GEO
100
AcDbPolyline
 90
        2
 70
   128
 43
0.0
 10
1.704615236807612
 20
3.623083816702489
 10
1.598132244399018
 20
3.516600824293893
  0
LWPOLYLINE
  5
11E
100
AcDbEntity
  8
USP-GEO
100
AcDbPolyline
 90
        2
 70
   128
 43
0.0
 10
1.598132244399018
 20
3.729566809111087
 10
1.704615236807612
 20
3.623083816702489
  0
LWPOLYLINE
  5
11F
100
AcDbEntity
  8
USP-GEO
100
AcDbPolyline
 90
        2
 70
   128
 43
0.0
 10
1.49164925199042
 20
3.623083816702489
 10
1.598132244399018
 20
3.729566809111087
  0
LWPOLYLINE
  5
120
100
AcDbEntity
  8
USP-GEO
100
AcDbPolyline
 90
        2
 70
   128
 43
0.0
 10
1.260936101771793
 20
0.8518639392687692
 10
1.118071420290259
 20
0.7098866160573074
  0
LWPOLYLINE
  5
121
100
AcDbEntity
  8
USP-GEO
100
AcDbPolyline
 90
        2
 70
   128
 43
0.0
 10
0.993841262480231
 20
0.905105435473068
 10
1.260936101771793
 20
0.905105435473068
  0
LWPOLYLINE
  5
122
100
AcDbEntity
  8
USP-GEO
100
AcDbPolyline
 90
        2
 70
   128
 43
0.0
 10
1.988569883230535
 20
0.088735827007163
 10
1.988569883230535
 20
1.953962910697741
  0
LWPOLYLINE
  5
123
100
AcDbEntity
  8
USP-GEO
100
AcDbPolyline
 90
        2
 70
   128
 43
0.0
 10
0.0
 20
0.088735827007163
 10
0.0
 20
1.953962910697741
  0
ARC
  5
124
100
AcDbEntity
  8
USP-GEO
100
AcDbCircle
 10
0.1187626407999858
 20
1.953110584654202
 30
0.0
 40
0.125
100
AcDbArc
 50
87.49712068897293
 51
179.5888113775007
  0
LWPOLYLINE
  5
125
100
AcDbEntity
  8
USP-GEO
100
AcDbPolyline
 90
        2
 70
   128
 43
0.0
 10
0.1419773232114601
 20
2.07819306850777
 10
0.1242301578100289
 20
2.07819306850777
  0
ARC
  5
126
100
AcDbEntity
  8
USP-GEO
100
AcDbCircle
 10
0.141446041217776
 20
2.203110584654202
 30
0.0
 40
0.125
100
AcDbArc
 50
270.2436810574748
 51
343.8274717623438
  0
LWPOLYLINE
  5
127
100
AcDbEntity
  8
USP-GEO
100
AcDbPolyline
 90
        2
 70
   128
 43
0.0
 10
0.2662074810214889
 20
2.166928895514935
 10
0.8696111046702021
 20
5.328586411780175
  0
ARC
  5
128
100
AcDbEntity
  8
USP-GEO
100
AcDbCircle
 10
0.1414460412177618
 20
5.465647433352804
 30
0.0
 40
0.75
100
AcDbArc
 50
349.3400577579262
 51
0.3776305643523919
  0
LWPOLYLINE
  5
129
100
AcDbEntity
  8
USP-GEO
100
AcDbPolyline
 90
        2
 70
   128
 43
0.0
 10
0.8873582700716369
 20
7.638379988776645
 10
0.8873582700716369
 20
5.470563734991637
  0
ARC
  5
12A
100
AcDbEntity
  8
USP-GEO
100
AcDbCircle
 10
1.391446041217776
 20
7.629708439728068
 30
0.0
 40
0.5
100
AcDbArc
 50
139.1795878257442
 51
179.0144689276515
  0
LWPOLYLINE
  5
12B
100
AcDbEntity
  8
USP-GEO
100
AcDbPolyline
 90
        2
 70
   128
 43
0.0
 10
1.011588427881665
 20
7.957828966002434
 10
1.917581221624804
 20
8.988051917555605
  0
ARC
  5
12C
100
AcDbEntity
  8
USP-GEO
100
AcDbCircle
 10
2.106628702296561
 20
8.812485584654217
 30
0.0
 40
0.25
100
AcDbArc
 50
88.56617040352865
 51
137.1174764963116
  0
LWPOLYLINE
  5
12D
100
AcDbEntity
  8
USP-GEO
100
AcDbPolyline
 90
        2
 70
   128
 43
0.0
 10
2.112800041040564
 20
9.059040579161337
 10
2.113687399310638
 20
9.059040579161337
  0
LWPOLYLINE
  5
12E
100
AcDbEntity
  8
USP-GEO
100
AcDbPolyline
 90
        2
 70
   128
 43
0.0
 10
2.112800041040564
 20
9.059040579161337
 10
2.14829437184343
 20
9.076787744562768
  0
LWPOLYLINE
  5
12F
100
AcDbEntity
  8
USP-GEO
100
AcDbPolyline
 90
        2
 70
   128
 43
0.0
 10
2.201535868047727
 20
5.328586411780175
 10
2.201535868047727
 20
2.166928895514935
  0
LWPOLYLINE
  5
130
100
AcDbEntity
  8
USP-GEO
100
AcDbPolyline
 90
        2
 70
   128
 43
0.0
 10
2.201535868047727
 20
5.470563734991637
 10
2.201535868047727
 20
5.328586411780175
  0
LWPOLYLINE
  5
131
100
AcDbEntity
  8
USP-GEO
100
AcDbPolyline
 90
        2
 70
   128
 43
0.0
 10
2.201535868047727
 20
7.638379988776645
 10
2.201535868047727
 20
5.470563734991637
  0
LWPOLYLINE
  5
132
100
AcDbEntity
  8
USP-GEO
100
AcDbPolyline
 90
        2
 70
   128
 43
0.0
 10
2.201535868047727
 20
7.957828966002434
 10
2.201535868047727
 20
7.638379988776645
  0
LWPOLYLINE
  5
133
100
AcDbEntity
  8
USP-GEO
100
AcDbPolyline
 90
        2
 70
   128
 43
0.0
 10
2.201535868047727
 20
8.988051917555605
 10
2.201535868047727
 20
7.957828966002434
  0
LWPOLYLINE
  5
134
100
AcDbEntity
  8
USP-GEO
100
AcDbPolyline
 90
        2
 70
   128
 43
0.0
 10
2.201535868047727
 20
9.059040579161337
 10
2.201535868047727
 20
8.988051917555605
  0
LWPOLYLINE
  5
135
100
AcDbEntity
  8
USP-GEO
100
AcDbPolyline
 90
        2
 70
   128
 43
0.0
 10
2.201535868047727
 20
9.059040579161337
 10
2.202423226317801
 20
9.059040579161337
  0
LWPOLYLINE
  5
136
100
AcDbEntity
  8
USP-GEO
100
AcDbPolyline
 90
        2
 70
   128
 43
0.0
 10
2.201535868047727
 20
9.396236721788557
 10
2.201535868047727
 20
9.059040579161337
  0
LWPOLYLINE
  5
137
100
AcDbEntity
  8
USP-GEO
100
AcDbPolyline
 90
        2
 70
   128
 43
0.0
 10
2.112800041040564
 20
2.07819306850777
 10
2.113687399310638
 20
2.07819306850777
  0
LWPOLYLINE
  5
138
100
AcDbEntity
  8
USP-GEO
100
AcDbPolyline
 90
        2
 70
   128
 43
0.0
 10
2.14829437184343
 20
2.07819306850777
 10
2.112800041040564
 20
2.07819306850777
  0
LWPOLYLINE
  5
139
100
AcDbEntity
  8
USP-GEO
100
AcDbPolyline
 90
        2
 70
   128
 43
0.0
 10
2.14829437184343
 20
2.07819306850777
 10
2.14829437184343
 20
2.166928895514935
  0
LWPOLYLINE
  5
13A
100
AcDbEntity
  8
USP-GEO
100
AcDbPolyline
 90
        2
 70
   128
 43
0.0
 10
2.201535868047727
 20
2.166928895514935
 10
2.14829437184343
 20
2.166928895514935
  0
LWPOLYLINE
  5
13B
100
AcDbEntity
  8
USP-GEO
100
AcDbPolyline
 90
        2
 70
   128
 43
0.0
 10
2.201535868047727
 20
2.166928895514935
 10
2.201535868047727
 20
2.07819306850777
  0
LWPOLYLINE
  5
13C
100
AcDbEntity
  8
USP-GEO
100
AcDbPolyline
 90
        2
 70
   128
 43
0.0
 10
2.183788702646296
 20
2.07819306850777
 10
2.112800041040564
 20
2.07819306850777
  0
ARC
  5
13D
100
AcDbEntity
  8
USP-GEO
100
AcDbCircle
 10
2.118762640799999
 20
1.953110584654202
 30
0.0
 40
0.125
100
AcDbArc
 50
92.72918614990702
 51
179.624910107662
  0
LWPOLYLINE
  5
13E
100
AcDbEntity
  8
USP-GEO
100
AcDbPolyline
 90
        2
 70
   128
 43
0.0
 10
2.183788702646296
 20
2.07819306850777
 10
2.201535868047727
 20
2.07819306850777
  0
ELLIPSE
  5
13F
100
AcDbEntity
  8
USP-GEO
  6
CONTINUOUS
100
AcDbEllipse
 10
0.4959815052456982
 20
1.401687958855911
 30
0.0
 11
-0.0779999999999994
 21
0.000000000000002
 31
0.0
210
0.0
220
0.0
230
1.0
 40
0.7071067811865476
 41
3.494640116520954
 42
5.917389813194585
1001
ACAD
1000
RTLwPs
1070
   128
  0
CIRCLE
  5
140
100
AcDbEntity
  8
USP-GEO
100
AcDbCircle
 10
0.4959815052456947
 20
1.233735584654189
 30
0.0
 40
0.2974894956128703
  0
ELLIPSE
  5
141
100
AcDbEntity
  8
USP-GEO
  6
CONTINUOUS
100
AcDbEllipse
 10
0.4959815052456982
 20
1.440036335985817
 30
0.0
 11
-0.0779999999999994
 21
0.0000000000000013
 31
0.0
210
0.0
220
0.0
230
1.0
 40
0.7071067811865476
 41
5.964808052332332
 42
6.660403881973589
1001
ACAD
1000
RTLwPs
1070
   128
  0
ELLIPSE
  5
142
100
AcDbEntity
  8
USP-GEO
  6
CONTINUOUS
100
AcDbEllipse
 10
0.4959815052456982
 20
1.440036335985817
 30
0.0
 11
-0.0779999999999994
 21
0.0000000000000013
 31
0.0
210
0.0
220
0.0
230
1.0
 40
0.7071067811865476
 41
5.533233617033189
 42
5.968578718041464
1001
ACAD
1000
RTLwPs
1070
   128
  0
ELLIPSE
  5
143
100
AcDbEntity
  8
USP-GEO
  6
CONTINUOUS
100
AcDbEllipse
 10
0.4959815052456982
 20
1.440036335985817
 30
0.0
 11
-0.0779999999999994
 21
0.0000000000000013
 31
0.0
210
0.0
220
0.0
230
1.0
 40
0.7071067811865476
 41
0.3728732556970212
 42
1.817886092571558
1001
ACAD
1000
RTLwPs
1070
   128
  0
ELLIPSE
  5
144
100
AcDbEntity
  8
USP-GEO
  6
CONTINUOUS
100
AcDbEllipse
 10
0.4959815052456982
 20
1.440036335985817
 30
0.0
 11
-0.0779999999999994
 21
0.0000000000000013
 31
0.0
210
0.0
220
0.0
230
1.0
 40
0.7071067811865476
 41
4.450390370821867
 42
5.541762291876686
1001
ACAD
1000
RTLwPs
1070
   128
  0
ELLIPSE
  5
145
100
AcDbEntity
  8
USP-GEO
  6
CONTINUOUS
100
AcDbEllipse
 10
0.4959815052456982
 20
1.440036335985817
 30
0.0
 11
-0.0779999999999994
 21
0.0000000000000013
 31
0.0
210
0.0
220
0.0
230
1.0
 40
0.7071067811865476
 41
4.461765881315393
 42
10.14060637124791
1001
ACAD
1000
RTLwPs
1070
   128
  0
ELLIPSE
  5
146
100
AcDbEntity
  8
USP-GEO
  6
CONTINUOUS
100
AcDbEllipse
 10
0.4959815052456982
 20
1.440036335985817
 30
0.0
 11
-0.0779999999999994
 21
0.0000000000000013
 31
0.0
210
0.0
220
0.0
230
1.0
 40
0.7071067811865476
 41
3.865473840995324
 42
9.731681569017155
1001
ACAD
1000
RTLwPs
1070
   128
  0
ELLIPSE
  5
147
100
AcDbEntity
  8
USP-GEO
  6
CONTINUOUS
100
AcDbEllipse
 10
0.4959815052456982
 20
1.440036335985817
 30
0.0
 11
-0.0779999999999994
 21
0.0000000000000013
 31
0.0
210
0.0
220
0.0
230
1.0
 40
0.7071067811865476
 41
1.807106022598303
 42
2.777609080305064
1001
ACAD
1000
RTLwPs
1070
   128
  0
ELLIPSE
  5
148
100
AcDbEntity
  8
USP-GEO
  6
CONTINUOUS
100
AcDbEllipse
 10
0.4959815052456982
 20
1.440036335985817
 30
0.0
 11
-0.0779999999999994
 21
0.0000000000000013
 31
0.0
210
0.0
220
0.0
230
1.0
 40
0.7071067811865476
 41
3.444982768489659
 42
9.064854785082388
1001
ACAD
1000
RTLwPs
1070
   128
  0
ARC
  5
149
100
AcDbEntity
  8
USP-GEO
100
AcDbCircle
 10
0.3084815052456626
 20
1.233735584654274
 30
0.0
 40
0.25
100
AcDbArc
 50
36.29490738089935
 51
56.55296534094166
  0
LWPOLYLINE
  5
14A
100
AcDbEntity
  8
USP-GEO
100
AcDbPolyline
 90
        2
 70
   128
 43
0.0
 10
1.260936101771793
 20
0.905105435473068
 10
1.260936101771793
 20
0.8518639392687692
  0
LWPOLYLINE
  5
14B
100
AcDbEntity
  8
USP-GEO
100
AcDbPolyline
 90
        2
 70
   128
 43
0.0
 10
0.993841262480231
 20
0.8518639392687692
 10
0.993841262480231
 20
0.905105435473068
  0
LWPOLYLINE
  5
14C
100
AcDbEntity
  8
USP-GEO
100
AcDbPolyline
 90
        2
 70
   128
 43
0.0
 10
1.118071420290259
 20
0.7098866160573074
 10
0.993841262480231
 20
0.8518639392687692
  0
LWPOLYLINE
  5
14D
100
AcDbEntity
  8
USP-GEO
100
AcDbPolyline
 90
        2
 70
   128
 43
0.0
 10
1.260936101771793
 20
0.8518639392687692
 10
0.993841262480231
 20
0.8518639392687692
  0
LWPOLYLINE
  5
14E
100
AcDbEntity
  8
USP-GEO
100
AcDbPolyline
 90
        2
 70
   128
 43
0.0
 10
1.118071420290259
 20
0.7631281122616063
 10
1.206807247297426
 20
0.7986224430644722
  0
LWPOLYLINE
  5
14F
100
AcDbEntity
  8
USP-GEO
100
AcDbPolyline
 90
        2
 70
   128
 43
0.0
 10
1.029335593283096
 20
0.7986224430644722
 10
1.118071420290259
 20
0.7631281122616063
  0
TEXT
  5
150
100
AcDbEntity
  8
USP-TXT
100
AcDbText
 10
-0.6117407733142573
 20
-0.7152583700863407
 30
0.0
 40
0.25
  1
TFL25938 - SIDE VIEW
 72
     1
 11
1.846592560019075
 21
-0.7152583700863407
 31
0.0
100
AcDbText
  0
ENDBLK
  5
152
100
AcDbEntity
  8
0
100
AcDbBlockEnd
  0
ENDSEC
  0
SECTION
  2
ENTITIES
  0
INSERT
  5
3
100
AcDbEntity
  8
USP
100
AcDbBlockReference
  2
TFL25938PR_T
 10
-0.0004167556987031
 20
17.81738240152632
 30
0.0
  0
INSERT
  5
8C
100
AcDbEntity
  8
USP
100
AcDbBlockReference
  2
TFL25938PR_F
 10
0.0000695756518119
 20
1.368422149208395
 30
0.0
  0
INSERT
  5
107
100
AcDbEntity
  8
USP
100
AcDbBlockReference
  2
TFL25938PR_S
 10
10.03294320400129
 20
1.368422149208395
 30
0.0
  0
ENDSEC
  0
SECTION
  2
OBJECTS
  0
DICTIONARY
  5
16A
100
AcDbDictionary
  3
ACAD_GROUP
350
168
  3
ACAD_MLINESTYLE
350
169
  0
DICTIONARY
  5
9
100
AcDbDictionary
280
     1
  3
ACAD_XREC_ROUNDTRIP
360
A
  0
DICTIONARY
  5
86
100
AcDbDictionary
280
     1
  3
ACAD_XREC_ROUNDTRIP
360
87
  0
DICTIONARY
  5
16D
100
AcDbDictionary
280
     1
  3
ACAD_XREC_ROUNDTRIP
360
16E
  0
DICTIONARY
  5
153
100
AcDbDictionary
280
     1
  3
ACAD_LAYOUTSELFREF
360
154
  0
DICTIONARY
  5
158
100
AcDbDictionary
280
     1
  3
ACAD_LAYOUTSELFREF
360
159
  0
DICTIONARY
  5
168
102
{ACAD_REACTORS
330
16A
102
}
100
AcDbDictionary
  0
DICTIONARY
  5
169
102
{ACAD_REACTORS
330
16A
102
}
100
AcDbDictionary
  3
STANDARD
350
16B
  0
XRECORD
  5
A
102
{ACAD_REACTORS
330
9
102
}
100
AcDbXrecord
102
EXTNAMES
  1
USP-GEO
  2
USP-Geo
  0
XRECORD
  5
87
102
{ACAD_REACTORS
330
86
102
}
100
AcDbXrecord
102
EXTNAMES
  1
USP-TXT
  2
USP-Txt
  0
XRECORD
  5
16E
102
{ACAD_REACTORS
330
16D
102
}
100
AcDbXrecord
102
ACADR14ROUNDTRIP
1000
DSTYLE
1002
{
1070
   276
 70
     2
1070
   277
 70
     5
1002
}
  0
XRECORD
  5
154
102
{ACAD_REACTORS
330
153
102
}
100
AcDbXrecord
340
2
  0
XRECORD
  5
159
102
{ACAD_REACTORS
330
158
102
}
100
AcDbXrecord
340
0
  0
MLINESTYLE
  5
16B
102
{ACAD_REACTORS
330
169
102
}
100
AcDbMlineStyle
  2
STANDARD
 70
     0
  3

 62
     0
 51
90.0
 52
90.0
 71
     2
 49
0.5
 62
   256
  6
BYLAYER
 49
-0.5
 62
   256
  6
BYLAYER
  0
ENDSEC
  0
EOF
