  0
SECTION
  2
HEADER
  9
$ACADVER
  1
AC1014
  9
$ACADMAINTVER
 70
     9
  9
$DWGCODEPAGE
  3
ANSI_1252
  9
$INSBASE
 10
0.0
 20
0.0
 30
0.0
  9
$EXTMIN
 10
0.0005238742763254
 20
0.0009831342227713
 30
-1.050183983838884
  9
$EXTMAX
 10
14.61597012010744
 20
15.18981223025217
 30
0.0
  9
$LIMMIN
 10
0.0
 20
0.0
  9
$LIMMAX
 10
12.0
 20
9.0
  9
$ORTHOMODE
 70
     1
  9
$REGENMODE
 70
     1
  9
$FILLMODE
 70
     1
  9
$QTEXTMODE
 70
     0
  9
$MIRRTEXT
 70
     0
  9
$DRAGMODE
 70
     2
  9
$LTSCALE
 40
1.5
  9
$OSMODE
 70
     0
  9
$ATTMODE
 70
     1
  9
$TEXTSIZE
 40
0.75
  9
$TRACEWID
 40
0.05
  9
$TEXTSTYLE
  7
STANDARD
  9
$CLAYER
  8
USP
  9
$CELTYPE
  6
BYLAYER
  9
$CECOLOR
 62
   256
  9
$CELTSCALE
 40
1.0
  9
$DELOBJ
 70
     1
  9
$DISPSILH
 70
     1
  9
$DIMSCALE
 40
3.0
  9
$DIMASZ
 40
0.125
  9
$DIMEXO
 40
0.0625
  9
$DIMDLI
 40
0.37890625
  9
$DIMRND
 40
0.0
  9
$DIMDLE
 40
0.0
  9
$DIMEXE
 40
0.09375
  9
$DIMTP
 40
0.0
  9
$DIMTM
 40
0.0
  9
$DIMTXT
 40
0.109375
  9
$DIMCEN
 40
0.0
  9
$DIMTSZ
 40
0.0
  9
$DIMTOL
 70
     0
  9
$DIMLIM
 70
     0
  9
$DIMTIH
 70
     1
  9
$DIMTOH
 70
     1
  9
$DIMSE1
 70
     0
  9
$DIMSE2
 70
     0
  9
$DIMTAD
 70
     0
  9
$DIMZIN
 70
     8
  9
$DIMBLK
  1

  9
$DIMASO
 70
     1
  9
$DIMSHO
 70
     1
  9
$DIMPOST
  1

  9
$DIMAPOST
  1

  9
$DIMALT
 70
     0
  9
$DIMALTD
 70
     2
  9
$DIMALTF
 40
25.4
  9
$DIMLFAC
 40
1.0
  9
$DIMTOFL
 70
     0
  9
$DIMTVP
 40
0.0
  9
$DIMTIX
 70
     0
  9
$DIMSOXD
 70
     0
  9
$DIMSAH
 70
     0
  9
$DIMBLK1
  1

  9
$DIMBLK2
  1

  9
$DIMSTYLE
  2
STANDARD
  9
$DIMCLRD
 70
     0
  9
$DIMCLRE
 70
     0
  9
$DIMCLRT
 70
   256
  9
$DIMTFAC
 40
1.0
  9
$DIMGAP
 40
0.08984375
  9
$DIMJUST
 70
     0
  9
$DIMSD1
 70
     0
  9
$DIMSD2
 70
     0
  9
$DIMTOLJ
 70
     1
  9
$DIMTZIN
 70
     0
  9
$DIMALTZ
 70
     0
  9
$DIMALTTZ
 70
     0
  9
$DIMFIT
 70
     3
  9
$DIMUPT
 70
     1
  9
$DIMUNIT
 70
     2
  9
$DIMDEC
 70
     3
  9
$DIMTDEC
 70
     3
  9
$DIMALTU
 70
     2
  9
$DIMALTTD
 70
     2
  9
$DIMTXSTY
  7
STANDARD
  9
$DIMAUNIT
 70
     0
  9
$LUNITS
 70
     5
  9
$LUPREC
 70
     6
  9
$SKETCHINC
 40
0.1
  9
$FILLETRAD
 40
0.0
  9
$AUNITS
 70
     0
  9
$AUPREC
 70
     1
  9
$MENU
  1
CUSTOM
  9
$ELEVATION
 40
0.0
  9
$PELEVATION
 40
0.0
  9
$THICKNESS
 40
0.0
  9
$LIMCHECK
 70
     0
  9
$BLIPMODE
 70
     0
  9
$CHAMFERA
 40
0.0
  9
$CHAMFERB
 40
0.0
  9
$CHAMFERC
 40
0.0
  9
$CHAMFERD
 40
0.0
  9
$SKPOLY
 70
     0
  9
$TDCREATE
 40
2451263.663231366
  9
$TDUPDATE
 40
2452768.680821030
  9
$TDINDWG
 40
0.4580694329
  9
$TDUSRTIMER
 40
0.4580694329
  9
$USRTIMER
 70
     1
  9
$ANGBASE
 50
0.0
  9
$ANGDIR
 70
     0
  9
$PDMODE
 70
     0
  9
$PDSIZE
 40
0.0
  9
$PLINEWID
 40
0.0
  9
$COORDS
 70
     2
  9
$SPLFRAME
 70
     0
  9
$SPLINETYPE
 70
     6
  9
$SPLINESEGS
 70
     8
  9
$ATTDIA
 70
     0
  9
$ATTREQ
 70
     0
  9
$HANDLING
 70
     1
  9
$HANDSEED
  5
434
  9
$SURFTAB1
 70
     6
  9
$SURFTAB2
 70
     6
  9
$SURFTYPE
 70
     6
  9
$SURFU
 70
     6
  9
$SURFV
 70
     6
  9
$UCSNAME
  2

  9
$UCSORG
 10
0.0
 20
0.0
 30
0.0
  9
$UCSXDIR
 10
1.0
 20
0.0
 30
0.0
  9
$UCSYDIR
 10
0.0
 20
1.0
 30
0.0
  9
$PUCSNAME
  2

  9
$PUCSORG
 10
0.0
 20
0.0
 30
0.0
  9
$PUCSXDIR
 10
1.0
 20
0.0
 30
0.0
  9
$PUCSYDIR
 10
0.0
 20
1.0
 30
0.0
  9
$USERI1
 70
     0
  9
$USERI2
 70
     0
  9
$USERI3
 70
     0
  9
$USERI4
 70
     0
  9
$USERI5
 70
     0
  9
$USERR1
 40
0.0
  9
$USERR2
 40
0.0
  9
$USERR3
 40
0.0
  9
$USERR4
 40
0.0
  9
$USERR5
 40
0.0
  9
$WORLDVIEW
 70
     1
  9
$SHADEDGE
 70
     3
  9
$SHADEDIF
 70
    70
  9
$TILEMODE
 70
     1
  9
$MAXACTVP
 70
    16
  9
$PINSBASE
 10
0.0
 20
0.0
 30
0.0
  9
$PLIMCHECK
 70
     0
  9
$PEXTMIN
 10
1.000000000000000E+20
 20
1.000000000000000E+20
 30
1.000000000000000E+20
  9
$PEXTMAX
 10
-1.000000000000000E+20
 20
-1.000000000000000E+20
 30
-1.000000000000000E+20
  9
$PLIMMIN
 10
0.0
 20
0.0
  9
$PLIMMAX
 10
12.0
 20
9.0
  9
$UNITMODE
 70
     0
  9
$VISRETAIN
 70
     0
  9
$PLINEGEN
 70
     0
  9
$PSLTSCALE
 70
     0
  9
$TREEDEPTH
 70
  3020
  9
$PICKSTYLE
 70
     0
  9
$CMLSTYLE
  2
STANDARD
  9
$CMLJUST
 70
     0
  9
$CMLSCALE
 40
1.0
  9
$PROXYGRAPHICS
 70
     1
  9
$MEASUREMENT
 70
     0
  0
ENDSEC
  0
SECTION
  2
CLASSES
  0
CLASS
  1
ACDBDICTIONARYWDFLT
  2
AcDbDictionaryWithDefault
  3
AutoCAD 2000
 90
        0
280
     0
281
     0
  0
CLASS
  1
ACDBPLACEHOLDER
  2
AcDbPlaceHolder
  3
AutoCAD 2000
 90
        0
280
     0
281
     0
  0
CLASS
  1
LAYOUT
  2
AcDbLayout
  3
AutoCAD 2000
 90
        0
280
     0
281
     0
  0
CLASS
  1
DICTIONARYVAR
  2
AcDbDictionaryVar
  3
"AutoCAD"
 90
        0
280
     0
281
     0
  0
CLASS
  1
LONG_TRANSACTION
  2
AcDbLongTransaction
  3
AutoCAD 2000
 90
        0
280
     0
281
     0
  0
CLASS
  1
LWPOLYLINE
  2
AcDbPolyline
  3
"AutoCAD"
 90
        0
280
     0
281
     1
  0
CLASS
  1
HATCH
  2
AcDbHatch
  3
"ACAD_SEDONA"
 90
        0
280
     0
281
     1
  0
CLASS
  1
XRECORD
  2
AcDbXrecord
  3
"<Built In>"
 90
        0
280
     0
281
     0
  0
ENDSEC
  0
SECTION
  2
TABLES
  0
TABLE
  2
VPORT
  5
424
100
AcDbSymbolTable
 70
     1
  0
VPORT
  5
425
100
AcDbSymbolTableRecord
100
AcDbViewportTableRecord
  2
*ACTIVE
 70
     0
 10
0.0
 20
0.0
 11
1.0
 21
1.0
 12
-15.33188309848229
 22
18.55128833848025
 13
0.0
 23
0.0
 14
1.0
 24
1.0
 15
0.0
 25
0.0
 16
0.0
 26
0.0
 36
1.0
 17
23.09603071721725
 27
-10.27010416511325
 37
-10.44050274849355
 40
18.43379562242333
 41
1.457627118644067
 42
50.0
 43
10.55307667737539
 44
10.55307667737539
 50
0.0
 51
0.0
 71
     0
 72
   100
 73
     1
 74
     1
 75
     0
 76
     0
 77
     0
 78
     0
  0
ENDTAB
  0
TABLE
  2
LTYPE
  5
41F
100
AcDbSymbolTable
 70
     1
  0
LTYPE
  5
420
100
AcDbSymbolTableRecord
100
AcDbLinetypeTableRecord
  2
BYBLOCK
 70
     0
  3

 72
    65
 73
     0
 40
0.0
  0
LTYPE
  5
421
100
AcDbSymbolTableRecord
100
AcDbLinetypeTableRecord
  2
BYLAYER
 70
     0
  3

 72
    65
 73
     0
 40
0.0
  0
LTYPE
  5
5
100
AcDbSymbolTableRecord
100
AcDbLinetypeTableRecord
  2
CONTINUOUS
 70
     0
  3
Solid line
 72
    65
 73
     0
 40
0.0
  0
ENDTAB
  0
TABLE
  2
LAYER
  5
41D
100
AcDbSymbolTable
 70
     4
  0
LAYER
  5
131
100
AcDbSymbolTableRecord
100
AcDbLayerTableRecord
  2
0
 70
     0
 62
     7
  6
CONTINUOUS
  0
LAYER
  5
8
102
{ACAD_XDICTIONARY
360
9
102
}
100
AcDbSymbolTableRecord
100
AcDbLayerTableRecord
  2
USP-GEO
 70
     0
 62
     7
  6
CONTINUOUS
  0
LAYER
  5
11
102
{ACAD_XDICTIONARY
360
12
102
}
100
AcDbSymbolTableRecord
100
AcDbLayerTableRecord
  2
USP-TXT
 70
     0
 62
     7
  6
CONTINUOUS
  0
LAYER
  5
4
100
AcDbSymbolTableRecord
100
AcDbLayerTableRecord
  2
USP
 70
     0
 62
     7
  6
CONTINUOUS
  0
ENDTAB
  0
TABLE
  2
STYLE
  5
41E
100
AcDbSymbolTable
 70
     1
  0
STYLE
  5
14
100
AcDbSymbolTableRecord
100
AcDbTextStyleTableRecord
  2
STANDARD
 70
     0
 40
0.0
 41
1.0
 50
0.0
 71
     0
 42
0.75
  3
txt
  4

  0
ENDTAB
  0
TABLE
  2
VIEW
  5
422
100
AcDbSymbolTable
 70
     0
  0
ENDTAB
  0
TABLE
  2
UCS
  5
423
100
AcDbSymbolTable
 70
     0
  0
ENDTAB
  0
TABLE
  2
APPID
  5
426
100
AcDbSymbolTable
 70
     1
  0
APPID
  5
427
100
AcDbSymbolTableRecord
100
AcDbRegAppTableRecord
  2
ACAD
 70
     0
  0
ENDTAB
  0
TABLE
  2
DIMSTYLE
  5
428
100
AcDbSymbolTable
 70
     1
  0
DIMSTYLE
105
430
100
AcDbSymbolTableRecord
100
AcDbDimStyleTableRecord
  2
STANDARD
 70
     0
  3

  4

  5

  6

  7

 40
1.0
 41
0.18
 42
0.0625
 43
0.38
 44
0.18
 45
0.0
 46
0.0
 47
0.0
 48
0.0
140
0.18
141
0.09
142
0.0
143
25.4
144
1.0
145
0.0
146
1.0
147
0.09
 71
     0
 72
     0
 73
     1
 74
     1
 75
     0
 76
     0
 77
     0
 78
     0
170
     0
171
     2
172
     0
173
     0
174
     0
175
     0
176
     0
177
     0
178
     0
270
     2
271
     4
272
     4
273
     2
274
     2
340
14
275
     0
280
     0
281
     0
282
     0
283
     1
284
     0
285
     0
286
     0
287
     3
288
     0
  0
ENDTAB
  0
TABLE
  2
BLOCK_RECORD
  5
1
100
AcDbSymbolTable
 70
     3
  0
BLOCK_RECORD
  5
2
102
{ACAD_XDICTIONARY
360
414
102
}
100
AcDbSymbolTableRecord
100
AcDbBlockTableRecord
  2
*MODEL_SPACE
  0
BLOCK_RECORD
  5
418
102
{ACAD_XDICTIONARY
360
419
102
}
100
AcDbSymbolTableRecord
100
AcDbBlockTableRecord
  2
*PAPER_SPACE
  0
BLOCK_RECORD
  5
6
100
AcDbSymbolTableRecord
100
AcDbBlockTableRecord
  2
THD28-2_T
  0
BLOCK_RECORD
  5
134
100
AcDbSymbolTableRecord
100
AcDbBlockTableRecord
  2
THD28-2_F
  0
BLOCK_RECORD
  5
29A
100
AcDbSymbolTableRecord
100
AcDbBlockTableRecord
  2
THD28-2_S
  0
ENDTAB
  0
ENDSEC
  0
SECTION
  2
BLOCKS
  0
BLOCK
  5
416
100
AcDbEntity
  8
0
100
AcDbBlockBegin
  2
*MODEL_SPACE
 70
     0
 10
0.0
 20
0.0
 30
0.0
  3
*MODEL_SPACE
  1

  0
ENDBLK
  5
417
100
AcDbEntity
  8
0
100
AcDbBlockEnd
  0
BLOCK
  5
41B
100
AcDbEntity
 67
     1
  8
0
100
AcDbBlockBegin
  2
*PAPER_SPACE
 70
     0
 10
0.0
 20
0.0
 30
0.0
  3
*PAPER_SPACE
  1

  0
ENDBLK
  5
41C
100
AcDbEntity
 67
     1
  8
0
100
AcDbBlockEnd
  0
BLOCK
  5
130
100
AcDbEntity
  8
0
100
AcDbBlockBegin
  2
THD28-2_T
 70
     0
 10
0.0
 20
0.0
 30
0.0
  3
THD28-2_T
  1

  0
LWPOLYLINE
  5
7
100
AcDbEntity
  8
USP-GEO
100
AcDbPolyline
 90
       19
 70
   129
 43
0.0
 10
6.917877996789297
 20
3.20196325426671
 10
7.008842861967327
 20
3.20196325426671
 10
7.06948610541935
 20
3.20196325426671
 10
7.084646916282355
 20
3.20196325426671
 10
7.099807727145361
 20
3.20196325426671
 10
7.084646916282355
 20
3.20196325426671
 10
7.099807727145361
 20
3.20196325426671
 10
7.114968538008366
 20
3.20196325426671
 10
7.099807727145361
 20
3.20196325426671
 10
7.114968538008366
 20
3.20196325426671
 10
7.554632053035518
 20
3.20196325426671
 10
7.114968538008366
 20
3.20196325426671
 10
7.554632053035518
 20
3.20196325426671
 10
7.569792863898523
 20
3.20196325426671
 10
7.554632053035518
 20
3.20196325426671
 10
7.569792863898523
 20
3.20196325426671
 10
7.584953674761528
 20
3.20196325426671
 10
5.507164545986658
 20
3.20196325426671
 10
5.582968600301683
 20
3.20196325426671
  0
LWPOLYLINE
  5
B
100
AcDbEntity
  8
USP-GEO
100
AcDbPolyline
 90
       14
 70
   129
 43
0.0
 10
6.917877996789297
 20
3.126159199951683
 10
7.008842861967327
 20
3.126159199951683
 10
7.06948610541935
 20
3.126159199951683
 10
7.084646916282355
 20
3.126159199951683
 10
7.099807727145361
 20
3.126159199951683
 10
7.084646916282355
 20
3.126159199951683
 10
7.099807727145361
 20
3.126159199951683
 10
7.114968538008366
 20
3.126159199951683
 10
7.099807727145361
 20
3.126159199951683
 10
7.114968538008366
 20
3.126159199951683
 10
7.554632053035518
 20
3.126159199951683
 10
7.569792863898523
 20
3.126159199951683
 10
7.584953674761528
 20
3.126159199951683
 10
5.582968600301683
 20
3.126159199951683
  0
LWPOLYLINE
  5
C
100
AcDbEntity
  8
USP-GEO
100
AcDbPolyline
 90
        3
 70
   128
 43
0.0
 10
7.114968538008366
 20
3.126159199951683
 10
7.554632053035518
 20
3.126159199951683
 10
7.114968538008366
 20
3.126159199951683
  0
LWPOLYLINE
  5
D
100
AcDbEntity
  8
USP-GEO
100
AcDbPolyline
 90
        6
 70
   129
 43
0.0
 10
5.507164545986658
 20
2.124787642450186
 10
5.582968600301683
 20
2.124787642450186
 10
5.582968600301683
 20
3.126159199951683
 10
7.584953674761528
 20
3.126159199951683
 10
7.584953674761528
 20
3.20196325426671
 10
5.507164545986658
 20
3.20196325426671
  0
LWPOLYLINE
  5
E
100
AcDbEntity
  8
USP-GEO
100
AcDbPolyline
 90
        7
 70
   128
 43
0.0
 10
7.584953674761528
 20
3.20196325426671
 10
7.569792863898523
 20
3.20196325426671
 10
7.554632053035518
 20
3.20196325426671
 10
7.114968538008366
 20
3.20196325426671
 10
7.099807727145361
 20
3.20196325426671
 10
7.084646916282355
 20
3.20196325426671
 10
7.085404956825506
 20
3.20196325426671
  0
LWPOLYLINE
  5
F
100
AcDbEntity
  8
USP-GEO
100
AcDbPolyline
 90
        3
 70
   128
 43
0.0
 10
7.554632053035518
 20
3.126159199951683
 10
7.114968538008366
 20
3.126159199951683
 10
7.114968538008366
 20
3.20196325426671
  0
TEXT
  5
10
100
AcDbEntity
  8
USP-TXT
100
AcDbText
 10
1.12098085765234
 20
-0.8419157227274531
 30
-1.050183983838884
 40
0.296875
  1
THD28-2 - TOP VIEW
 72
     1
 11
3.792855857652339
 21
-0.8419157227274531
 31
-1.050183983838884
100
AcDbText
  0
LWPOLYLINE
  5
15
100
AcDbEntity
  8
USP-GEO
100
AcDbPolyline
 90
       18
 70
   129
 43
0.0
 10
0.0
 20
3.126159199951683
 10
2.002743115002994
 20
3.126159199951683
 10
0.6678337185153822
 20
3.126159199951683
 10
0.5768688533373503
 20
3.126159199951683
 10
0.5162256098853284
 20
3.126159199951683
 10
0.5010647990223234
 20
3.126159199951683
 10
0.4859039881593184
 20
3.126159199951683
 10
0.5010647990223234
 20
3.126159199951683
 10
0.4859039881593184
 20
3.126159199951683
 10
0.4707431772963134
 20
3.126159199951683
 10
0.4859039881593184
 20
3.126159199951683
 10
0.4707431772963134
 20
3.126159199951683
 10
0.0303216217260101
 20
3.126159199951683
 10
0.4707431772963134
 20
3.126159199951683
 10
0.0303216217260101
 20
3.126159199951683
 10
0.015160810863005
 20
3.126159199951683
 10
0.0303216217260101
 20
3.126159199951683
 10
0.015160810863005
 20
3.126159199951683
  0
LWPOLYLINE
  5
16
100
AcDbEntity
  8
USP-GEO
100
AcDbPolyline
 90
        6
 70
   128
 43
0.0
 10
0.6678337185153822
 20
3.20196325426671
 10
0.6678337185153822
 20
3.126159199951683
 10
2.002743115002994
 20
3.126159199951683
 10
2.002743115002994
 20
3.20196325426671
 10
2.078547169318019
 20
3.20196325426671
 10
2.078547169318019
 20
3.126159199951683
  0
LWPOLYLINE
  5
17
100
AcDbEntity
  8
USP-GEO
100
AcDbPolyline
 90
        9
 70
   128
 43
0.0
 10
2.002743115002994
 20
3.20196325426671
 10
0.6678337185153822
 20
3.20196325426671
 10
0.5768688533373503
 20
3.20196325426671
 10
0.5162256098853284
 20
3.20196325426671
 10
0.5010647990223234
 20
3.20196325426671
 10
0.5010647990223234
 20
3.126159199951683
 10
0.5162256098853284
 20
3.126159199951683
 10
0.5768688533373503
 20
3.126159199951683
 10
0.6678337185153822
 20
3.126159199951683
  0
LWPOLYLINE
  5
18
100
AcDbEntity
  8
USP-GEO
100
AcDbPolyline
 90
        7
 70
   128
 43
0.0
 10
0.5010647990223234
 20
3.20196325426671
 10
0.5162256098853284
 20
3.20196325426671
 10
0.5768688533373503
 20
3.20196325426671
 10
0.6678337185153822
 20
3.20196325426671
 10
2.002743115002994
 20
3.20196325426671
 10
2.078547169318019
 20
3.20196325426671
 10
0.0
 20
3.20196325426671
  0
LWPOLYLINE
  5
19
100
AcDbEntity
  8
USP-GEO
100
AcDbPolyline
 90
        4
 70
   128
 43
0.0
 10
0.0
 20
3.126159199951683
 10
2.002743115002994
 20
3.126159199951683
 10
2.002743115002994
 20
2.124787642450186
 10
2.078547169318019
 20
2.124787642450186
  0
LWPOLYLINE
  5
1A
100
AcDbEntity
  8
USP-GEO
100
AcDbPolyline
 90
        3
 70
   128
 43
0.0
 10
2.078547169318019
 20
2.124787642450186
 10
2.078547169318019
 20
3.20196325426671
 10
0.0
 20
3.20196325426671
  0
LWPOLYLINE
  5
1B
100
AcDbEntity
  8
USP-GEO
100
AcDbPolyline
 90
       14
 70
   128
 43
0.0
 10
0.0
 20
3.20196325426671
 10
0.015160810863005
 20
3.20196325426671
 10
0.0303216217260101
 20
3.20196325426671
 10
0.015160810863005
 20
3.20196325426671
 10
0.0303216217260101
 20
3.20196325426671
 10
0.4707431772963134
 20
3.20196325426671
 10
0.0303216217260101
 20
3.20196325426671
 10
0.4707431772963134
 20
3.20196325426671
 10
0.4859039881593184
 20
3.20196325426671
 10
0.4707431772963134
 20
3.20196325426671
 10
0.4859039881593184
 20
3.20196325426671
 10
0.5010647990223234
 20
3.20196325426671
 10
0.4859039881593184
 20
3.20196325426671
 10
0.5010647990223234
 20
3.20196325426671
  0
LWPOLYLINE
  5
1C
100
AcDbEntity
  8
USP-GEO
100
AcDbPolyline
 90
        4
 70
   129
 43
0.0
 10
0.0303216217260101
 20
3.20196325426671
 10
0.0303216217260101
 20
3.126159199951683
 10
0.4707431772963134
 20
3.126159199951683
 10
0.4707431772963134
 20
3.20196325426671
  0
LWPOLYLINE
  5
1D
100
AcDbEntity
  8
USP-GEO
100
AcDbPolyline
 90
        2
 70
   129
 43
0.0
 10
0.0007580405431504
 20
3.126159199951683
 10
0.0
 20
3.126159199951683
  0
LWPOLYLINE
  5
1E
100
AcDbEntity
  8
USP-GEO
100
AcDbPolyline
 90
        2
 70
   129
 43
0.0
 10
0.0007580405431504
 20
3.126159199951683
 10
0.0
 20
3.126159199951683
  0
LWPOLYLINE
  5
1F
100
AcDbEntity
  8
USP-GEO
100
AcDbPolyline
 90
        2
 70
   129
 43
0.0
 10
0.0
 20
3.126159199951683
 10
0.015160810863005
 20
3.126159199951683
  0
LWPOLYLINE
  5
20
100
AcDbEntity
  8
USP-GEO
100
AcDbPolyline
 90
        2
 70
   129
 43
0.0
 10
0.0
 20
3.126159199951683
 10
0.0
 20
3.20196325426671
  0
LWPOLYLINE
  5
21
100
AcDbEntity
  8
USP-GEO
100
AcDbPolyline
 90
        2
 70
   129
 43
0.0
 10
0.0007580405431504
 20
3.20196325426671
 10
0.0
 20
3.20196325426671
  0
LWPOLYLINE
  5
22
100
AcDbEntity
  8
USP-GEO
100
AcDbPolyline
 90
        3
 70
   128
 43
0.0
 10
0.0
 20
3.20196325426671
 10
0.015160810863005
 20
3.20196325426671
 10
0.0
 20
3.20196325426671
  0
LWPOLYLINE
  5
23
100
AcDbEntity
  8
USP-GEO
100
AcDbPolyline
 90
        2
 70
   128
 43
0.0
 10
0.0
 20
3.20196325426671
 10
0.0007580405431504
 20
3.20196325426671
  0
LWPOLYLINE
  5
24
100
AcDbEntity
  8
USP-GEO
100
AcDbPolyline
 90
        4
 70
   128
 43
0.0
 10
0.0
 20
3.20196325426671
 10
0.0
 20
3.126159199951683
 10
0.015160810863005
 20
3.126159199951683
 10
0.0303216217260101
 20
3.126159199951683
  0
LWPOLYLINE
  5
25
100
AcDbEntity
  8
USP-GEO
100
AcDbPolyline
 90
        3
 70
   128
 43
0.0
 10
0.0303216217260101
 20
3.20196325426671
 10
0.015160810863005
 20
3.20196325426671
 10
0.0
 20
3.20196325426671
  0
LWPOLYLINE
  5
26
100
AcDbEntity
  8
USP-GEO
100
AcDbPolyline
 90
        2
 70
   129
 43
0.0
 10
0.0
 20
3.20196325426671
 10
0.0
 20
3.126159199951683
  0
LWPOLYLINE
  5
27
100
AcDbEntity
  8
USP-GEO
100
AcDbPolyline
 90
        3
 70
   128
 43
0.0
 10
0.2122513520820739
 20
3.126159199951683
 10
0.257733784671089
 20
3.126159199951683
 10
0.2122513520820739
 20
3.126159199951683
  0
LWPOLYLINE
  5
28
100
AcDbEntity
  8
USP-GEO
100
AcDbPolyline
 90
        6
 70
   129
 43
0.0
 10
0.2122513520820739
 20
3.126159199951683
 10
0.257733784671089
 20
3.126159199951683
 10
0.3039742578032545
 20
3.126159199951683
 10
0.257733784671089
 20
3.126159199951683
 10
0.3039742578032545
 20
3.126159199951683
 10
0.257733784671089
 20
3.126159199951683
  0
LWPOLYLINE
  5
29
100
AcDbEntity
  8
USP-GEO
100
AcDbPolyline
 90
        8
 70
   129
 43
0.0
 10
0.257733784671089
 20
3.20196325426671
 10
0.3039742578032545
 20
3.20196325426671
 10
0.257733784671089
 20
3.20196325426671
 10
0.3039742578032545
 20
3.20196325426671
 10
0.257733784671089
 20
3.20196325426671
 10
0.2122513520820739
 20
3.20196325426671
 10
0.257733784671089
 20
3.20196325426671
 10
0.2122513520820739
 20
3.20196325426671
  0
LWPOLYLINE
  5
2A
100
AcDbEntity
  8
USP-GEO
100
AcDbPolyline
 90
       10
 70
   128
 43
0.0
 10
0.3797783121182814
 20
3.20196325426671
 10
0.3494566903922713
 20
3.20196325426671
 10
0.3039742578032545
 20
3.20196325426671
 10
0.257733784671089
 20
3.20196325426671
 10
0.2122513520820739
 20
3.20196325426671
 10
0.2122513520820739
 20
3.126159199951683
 10
0.257733784671089
 20
3.126159199951683
 10
0.3039742578032545
 20
3.126159199951683
 10
0.3494566903922713
 20
3.126159199951683
 10
0.3797783121182814
 20
3.126159199951683
  0
LWPOLYLINE
  5
2B
100
AcDbEntity
  8
USP-GEO
100
AcDbPolyline
 90
        2
 70
   129
 43
0.0
 10
0.2130093926252243
 20
3.126159199951683
 10
0.2122513520820739
 20
3.126159199951683
  0
LWPOLYLINE
  5
2C
100
AcDbEntity
  8
USP-GEO
100
AcDbPolyline
 90
        2
 70
   128
 43
0.0
 10
0.2122513520820739
 20
3.126159199951683
 10
0.2130093926252243
 20
3.126159199951683
  0
LWPOLYLINE
  5
2D
100
AcDbEntity
  8
USP-GEO
100
AcDbPolyline
 90
        2
 70
   129
 43
0.0
 10
0.2130093926252243
 20
3.20196325426671
 10
0.2122513520820739
 20
3.20196325426671
  0
LWPOLYLINE
  5
2E
100
AcDbEntity
  8
USP-GEO
100
AcDbPolyline
 90
        5
 70
   128
 43
0.0
 10
0.3494566903922713
 20
3.126159199951683
 10
0.3039742578032545
 20
3.126159199951683
 10
0.3494566903922713
 20
3.126159199951683
 10
0.3039742578032545
 20
3.126159199951683
 10
0.3494566903922713
 20
3.126159199951683
  0
LWPOLYLINE
  5
2F
100
AcDbEntity
  8
USP-GEO
100
AcDbPolyline
 90
        5
 70
   128
 43
0.0
 10
0.3797783121182814
 20
3.126159199951683
 10
0.3494566903922713
 20
3.126159199951683
 10
0.3797783121182814
 20
3.126159199951683
 10
0.3494566903922713
 20
3.126159199951683
 10
0.3797783121182814
 20
3.126159199951683
  0
LWPOLYLINE
  5
30
100
AcDbEntity
  8
USP-GEO
100
AcDbPolyline
 90
        5
 70
   128
 43
0.0
 10
0.3494566903922713
 20
3.20196325426671
 10
0.3039742578032545
 20
3.20196325426671
 10
0.3494566903922713
 20
3.20196325426671
 10
0.3039742578032545
 20
3.20196325426671
 10
0.3494566903922713
 20
3.20196325426671
  0
LWPOLYLINE
  5
31
100
AcDbEntity
  8
USP-GEO
100
AcDbPolyline
 90
        5
 70
   128
 43
0.0
 10
0.3797783121182814
 20
3.20196325426671
 10
0.3494566903922713
 20
3.20196325426671
 10
0.3797783121182814
 20
3.20196325426671
 10
0.3494566903922713
 20
3.20196325426671
 10
0.3797783121182814
 20
3.20196325426671
  0
LWPOLYLINE
  5
32
100
AcDbEntity
  8
USP-GEO
100
AcDbPolyline
 90
        4
 70
   128
 43
0.0
 10
0.3805363526614318
 20
3.126159199951683
 10
0.3797783121182814
 20
3.126159199951683
 10
0.3797783121182814
 20
3.20196325426671
 10
0.3805363526614318
 20
3.20196325426671
  0
LWPOLYLINE
  5
33
100
AcDbEntity
  8
USP-GEO
100
AcDbPolyline
 90
       20
 70
   129
 43
0.0
 10
0.7587985836934124
 20
3.126159199951683
 10
0.8042810162824292
 20
3.126159199951683
 10
0.7587985836934124
 20
3.126159199951683
 10
0.8042810162824292
 20
3.126159199951683
 10
0.7587985836934124
 20
3.126159199951683
 10
0.8042810162824292
 20
3.126159199951683
 10
0.7587985836934124
 20
3.126159199951683
 10
0.8042810162824292
 20
3.126159199951683
 10
0.7587985836934124
 20
3.126159199951683
 10
0.8042810162824292
 20
3.126159199951683
 10
0.7587985836934124
 20
3.126159199951683
 10
0.7133161511043973
 20
3.126159199951683
 10
0.7587985836934124
 20
3.126159199951683
 10
0.7133161511043973
 20
3.126159199951683
 10
0.7587985836934124
 20
3.126159199951683
 10
0.7133161511043973
 20
3.126159199951683
 10
0.7587985836934124
 20
3.126159199951683
 10
0.7133161511043973
 20
3.126159199951683
 10
0.7587985836934124
 20
3.126159199951683
 10
0.7133161511043973
 20
3.126159199951683
  0
LWPOLYLINE
  5
34
100
AcDbEntity
  8
USP-GEO
100
AcDbPolyline
 90
       20
 70
   129
 43
0.0
 10
0.7587985836934124
 20
3.20196325426671
 10
0.8042810162824292
 20
3.20196325426671
 10
0.7587985836934124
 20
3.20196325426671
 10
0.8042810162824292
 20
3.20196325426671
 10
0.7587985836934124
 20
3.20196325426671
 10
0.8042810162824292
 20
3.20196325426671
 10
0.7587985836934124
 20
3.20196325426671
 10
0.8042810162824292
 20
3.20196325426671
 10
0.7587985836934124
 20
3.20196325426671
 10
0.8042810162824292
 20
3.20196325426671
 10
0.7587985836934124
 20
3.20196325426671
 10
0.7133161511043973
 20
3.20196325426671
 10
0.7587985836934124
 20
3.20196325426671
 10
0.7133161511043973
 20
3.20196325426671
 10
0.7587985836934124
 20
3.20196325426671
 10
0.7133161511043973
 20
3.20196325426671
 10
0.7587985836934124
 20
3.20196325426671
 10
0.7133161511043973
 20
3.20196325426671
 10
0.7587985836934124
 20
3.20196325426671
 10
0.7133161511043973
 20
3.20196325426671
  0
LWPOLYLINE
  5
35
100
AcDbEntity
  8
USP-GEO
100
AcDbPolyline
 90
       10
 70
   128
 43
0.0
 10
0.8800850705974543
 20
3.20196325426671
 10
0.8346026380084392
 20
3.20196325426671
 10
0.8042810162824292
 20
3.20196325426671
 10
0.7587985836934124
 20
3.20196325426671
 10
0.7133161511043973
 20
3.20196325426671
 10
0.7133161511043973
 20
3.126159199951683
 10
0.7587985836934124
 20
3.126159199951683
 10
0.8042810162824292
 20
3.126159199951683
 10
0.8346026380084392
 20
3.126159199951683
 10
0.8800850705974543
 20
3.126159199951683
  0
LWPOLYLINE
  5
36
100
AcDbEntity
  8
USP-GEO
100
AcDbPolyline
 90
        2
 70
   129
 43
0.0
 10
0.5010647990223234
 20
3.20196325426671
 10
0.5010647990223234
 20
3.126159199951683
  0
LWPOLYLINE
  5
37
100
AcDbEntity
  8
USP-GEO
100
AcDbPolyline
 90
        2
 70
   128
 43
0.0
 10
0.5010647990223234
 20
3.20196325426671
 10
0.5010647990223234
 20
3.126159199951683
  0
LWPOLYLINE
  5
38
100
AcDbEntity
  8
USP-GEO
100
AcDbPolyline
 90
        5
 70
   128
 43
0.0
 10
0.4859039881593184
 20
3.126159199951683
 10
0.5010647990223234
 20
3.126159199951683
 10
0.5010647990223234
 20
3.20196325426671
 10
0.4859039881593184
 20
3.20196325426671
 10
0.4707431772963134
 20
3.20196325426671
  0
LWPOLYLINE
  5
39
100
AcDbEntity
  8
USP-GEO
100
AcDbPolyline
 90
        3
 70
   128
 43
0.0
 10
0.4707431772963134
 20
3.126159199951683
 10
0.4859039881593184
 20
3.126159199951683
 10
0.4866620287024688
 20
3.126159199951683
  0
LWPOLYLINE
  5
3A
100
AcDbEntity
  8
USP-GEO
100
AcDbPolyline
 90
        2
 70
   129
 43
0.0
 10
0.7140741916475477
 20
3.126159199951683
 10
0.7133161511043973
 20
3.126159199951683
  0
LWPOLYLINE
  5
3B
100
AcDbEntity
  8
USP-GEO
100
AcDbPolyline
 90
        2
 70
   129
 43
0.0
 10
0.7140741916475477
 20
3.126159199951683
 10
0.7133161511043973
 20
3.126159199951683
  0
LWPOLYLINE
  5
3C
100
AcDbEntity
  8
USP-GEO
100
AcDbPolyline
 90
        2
 70
   129
 43
0.0
 10
0.7140741916475477
 20
3.20196325426671
 10
0.7133161511043973
 20
3.20196325426671
  0
LWPOLYLINE
  5
3D
100
AcDbEntity
  8
USP-GEO
100
AcDbPolyline
 90
        2
 70
   128
 43
0.0
 10
0.7133161511043973
 20
3.20196325426671
 10
0.7140741916475477
 20
3.20196325426671
  0
LWPOLYLINE
  5
3E
100
AcDbEntity
  8
USP-GEO
100
AcDbPolyline
 90
       11
 70
   128
 43
0.0
 10
0.8346026380084392
 20
3.126159199951683
 10
0.8042810162824292
 20
3.126159199951683
 10
0.8346026380084392
 20
3.126159199951683
 10
0.8042810162824292
 20
3.126159199951683
 10
0.8346026380084392
 20
3.126159199951683
 10
0.8042810162824292
 20
3.126159199951683
 10
0.8346026380084392
 20
3.126159199951683
 10
0.8042810162824292
 20
3.126159199951683
 10
0.8346026380084392
 20
3.126159199951683
 10
0.8042810162824292
 20
3.126159199951683
 10
0.8346026380084392
 20
3.126159199951683
  0
LWPOLYLINE
  5
3F
100
AcDbEntity
  8
USP-GEO
100
AcDbPolyline
 90
       11
 70
   128
 43
0.0
 10
0.8800850705974543
 20
3.126159199951683
 10
0.8346026380084392
 20
3.126159199951683
 10
0.8800850705974543
 20
3.126159199951683
 10
0.8346026380084392
 20
3.126159199951683
 10
0.8800850705974543
 20
3.126159199951683
 10
0.8346026380084392
 20
3.126159199951683
 10
0.8800850705974543
 20
3.126159199951683
 10
0.8346026380084392
 20
3.126159199951683
 10
0.8800850705974543
 20
3.126159199951683
 10
0.8346026380084392
 20
3.126159199951683
 10
0.8800850705974543
 20
3.126159199951683
  0
LWPOLYLINE
  5
40
100
AcDbEntity
  8
USP-GEO
100
AcDbPolyline
 90
       11
 70
   128
 43
0.0
 10
0.8346026380084392
 20
3.20196325426671
 10
0.8042810162824292
 20
3.20196325426671
 10
0.8346026380084392
 20
3.20196325426671
 10
0.8042810162824292
 20
3.20196325426671
 10
0.8346026380084392
 20
3.20196325426671
 10
0.8042810162824292
 20
3.20196325426671
 10
0.8346026380084392
 20
3.20196325426671
 10
0.8042810162824292
 20
3.20196325426671
 10
0.8346026380084392
 20
3.20196325426671
 10
0.8042810162824292
 20
3.20196325426671
 10
0.8346026380084392
 20
3.20196325426671
  0
LWPOLYLINE
  5
41
100
AcDbEntity
  8
USP-GEO
100
AcDbPolyline
 90
       11
 70
   128
 43
0.0
 10
0.8800850705974543
 20
3.20196325426671
 10
0.8346026380084392
 20
3.20196325426671
 10
0.8800850705974543
 20
3.20196325426671
 10
0.8346026380084392
 20
3.20196325426671
 10
0.8800850705974543
 20
3.20196325426671
 10
0.8346026380084392
 20
3.20196325426671
 10
0.8800850705974543
 20
3.20196325426671
 10
0.8346026380084392
 20
3.20196325426671
 10
0.8800850705974543
 20
3.20196325426671
 10
0.8346026380084392
 20
3.20196325426671
 10
0.8800850705974543
 20
3.20196325426671
  0
LWPOLYLINE
  5
42
100
AcDbEntity
  8
USP-GEO
100
AcDbPolyline
 90
        4
 70
   128
 43
0.0
 10
0.8808431111406047
 20
3.20196325426671
 10
0.8800850705974543
 20
3.20196325426671
 10
0.8800850705974543
 20
3.126159199951683
 10
0.8808431111406047
 20
3.126159199951683
  0
LWPOLYLINE
  5
43
100
AcDbEntity
  8
USP-GEO
100
AcDbPolyline
 90
       15
 70
   128
 43
0.0
 10
1.410713450802639
 20
3.126159199951683
 10
1.425874261665644
 20
3.126159199951683
 10
1.410713450802639
 20
3.126159199951683
 10
1.425874261665644
 20
3.126159199951683
 10
1.410713450802639
 20
3.126159199951683
 10
1.425874261665644
 20
3.126159199951683
 10
1.410713450802639
 20
3.126159199951683
 10
1.425874261665644
 20
3.126159199951683
 10
1.410713450802639
 20
3.126159199951683
 10
1.425874261665644
 20
3.126159199951683
 10
1.410713450802639
 20
3.126159199951683
 10
1.425874261665644
 20
3.126159199951683
 10
1.410713450802639
 20
3.126159199951683
 10
1.425874261665644
 20
3.126159199951683
 10
1.410713450802639
 20
3.126159199951683
  0
LWPOLYLINE
  5
44
100
AcDbEntity
  8
USP-GEO
100
AcDbPolyline
 90
        5
 70
   128
 43
0.0
 10
1.425874261665644
 20
3.20196325426671
 10
1.410713450802639
 20
3.20196325426671
 10
1.425874261665644
 20
3.20196325426671
 10
1.410713450802639
 20
3.20196325426671
 10
1.425874261665644
 20
3.20196325426671
  0
LWPOLYLINE
  5
45
100
AcDbEntity
  8
USP-GEO
100
AcDbPolyline
 90
       24
 70
   129
 43
0.0
 10
1.410713450802639
 20
3.20196325426671
 10
1.425874261665644
 20
3.20196325426671
 10
1.456195883391654
 20
3.20196325426671
 10
1.425874261665644
 20
3.20196325426671
 10
1.456195883391654
 20
3.20196325426671
 10
1.425874261665644
 20
3.20196325426671
 10
1.456195883391654
 20
3.20196325426671
 10
1.425874261665644
 20
3.20196325426671
 10
1.456195883391654
 20
3.20196325426671
 10
1.425874261665644
 20
3.20196325426671
 10
1.456195883391654
 20
3.20196325426671
 10
1.425874261665644
 20
3.20196325426671
 10
1.456195883391654
 20
3.20196325426671
 10
1.425874261665644
 20
3.20196325426671
 10
1.456195883391654
 20
3.20196325426671
 10
1.425874261665644
 20
3.20196325426671
 10
1.410713450802639
 20
3.20196325426671
 10
1.425874261665644
 20
3.20196325426671
 10
1.410713450802639
 20
3.20196325426671
 10
1.425874261665644
 20
3.20196325426671
 10
1.410713450802639
 20
3.20196325426671
 10
1.425874261665644
 20
3.20196325426671
 10
1.410713450802639
 20
3.20196325426671
 10
1.425874261665644
 20
3.20196325426671
  0
LWPOLYLINE
  5
46
100
AcDbEntity
  8
USP-GEO
100
AcDbPolyline
 90
       14
 70
   129
 43
0.0
 10
1.593401221701851
 20
3.20196325426671
 10
1.578240410838846
 20
3.20196325426671
 10
1.547918789112836
 20
3.20196325426671
 10
1.501678315980671
 20
3.20196325426671
 10
1.456195883391654
 20
3.20196325426671
 10
1.425874261665644
 20
3.20196325426671
 10
1.410713450802639
 20
3.20196325426671
 10
1.410713450802639
 20
3.126159199951683
 10
1.425874261665644
 20
3.126159199951683
 10
1.456195883391654
 20
3.126159199951683
 10
1.501678315980671
 20
3.126159199951683
 10
1.547918789112836
 20
3.126159199951683
 10
1.578240410838846
 20
3.126159199951683
 10
1.593401221701851
 20
3.126159199951683
  0
LWPOLYLINE
  5
47
100
AcDbEntity
  8
USP-GEO
100
AcDbPolyline
 90
       15
 70
   128
 43
0.0
 10
1.593401221701851
 20
3.126159199951683
 10
1.578240410838846
 20
3.126159199951683
 10
1.593401221701851
 20
3.126159199951683
 10
1.578240410838846
 20
3.126159199951683
 10
1.593401221701851
 20
3.126159199951683
 10
1.578240410838846
 20
3.126159199951683
 10
1.593401221701851
 20
3.126159199951683
 10
1.578240410838846
 20
3.126159199951683
 10
1.593401221701851
 20
3.126159199951683
 10
1.578240410838846
 20
3.126159199951683
 10
1.593401221701851
 20
3.126159199951683
 10
1.578240410838846
 20
3.126159199951683
 10
1.593401221701851
 20
3.126159199951683
 10
1.578240410838846
 20
3.126159199951683
 10
1.593401221701851
 20
3.126159199951683
  0
LWPOLYLINE
  5
48
100
AcDbEntity
  8
USP-GEO
100
AcDbPolyline
 90
        6
 70
   129
 43
0.0
 10
1.593401221701851
 20
3.20196325426671
 10
1.578240410838846
 20
3.20196325426671
 10
1.593401221701851
 20
3.20196325426671
 10
1.578240410838846
 20
3.20196325426671
 10
1.593401221701851
 20
3.20196325426671
 10
1.578240410838846
 20
3.20196325426671
  0
LWPOLYLINE
  5
49
100
AcDbEntity
  8
USP-GEO
100
AcDbPolyline
 90
        9
 70
   128
 43
0.0
 10
1.593401221701851
 20
3.20196325426671
 10
1.578240410838846
 20
3.20196325426671
 10
1.593401221701851
 20
3.20196325426671
 10
1.578240410838846
 20
3.20196325426671
 10
1.593401221701851
 20
3.20196325426671
 10
1.578240410838846
 20
3.20196325426671
 10
1.593401221701851
 20
3.20196325426671
 10
1.578240410838846
 20
3.20196325426671
 10
1.593401221701851
 20
3.20196325426671
  0
LWPOLYLINE
  5
4A
100
AcDbEntity
  8
USP-GEO
100
AcDbPolyline
 90
        6
 70
   129
 43
0.0
 10
1.456195883391654
 20
3.126159199951683
 10
1.425874261665644
 20
3.126159199951683
 10
1.456195883391654
 20
3.126159199951683
 10
1.425874261665644
 20
3.126159199951683
 10
1.456195883391654
 20
3.126159199951683
 10
1.425874261665644
 20
3.126159199951683
  0
LWPOLYLINE
  5
4B
100
AcDbEntity
  8
USP-GEO
100
AcDbPolyline
 90
       16
 70
   129
 43
0.0
 10
1.456195883391654
 20
3.126159199951683
 10
1.501678315980671
 20
3.126159199951683
 10
1.456195883391654
 20
3.126159199951683
 10
1.501678315980671
 20
3.126159199951683
 10
1.456195883391654
 20
3.126159199951683
 10
1.501678315980671
 20
3.126159199951683
 10
1.456195883391654
 20
3.126159199951683
 10
1.501678315980671
 20
3.126159199951683
 10
1.456195883391654
 20
3.126159199951683
 10
1.425874261665644
 20
3.126159199951683
 10
1.456195883391654
 20
3.126159199951683
 10
1.425874261665644
 20
3.126159199951683
 10
1.456195883391654
 20
3.126159199951683
 10
1.425874261665644
 20
3.126159199951683
 10
1.456195883391654
 20
3.126159199951683
 10
1.425874261665644
 20
3.126159199951683
  0
LWPOLYLINE
  5
4C
100
AcDbEntity
  8
USP-GEO
100
AcDbPolyline
 90
       17
 70
   128
 43
0.0
 10
1.501678315980671
 20
3.126159199951683
 10
1.547918789112836
 20
3.126159199951683
 10
1.501678315980671
 20
3.126159199951683
 10
1.547918789112836
 20
3.126159199951683
 10
1.501678315980671
 20
3.126159199951683
 10
1.547918789112836
 20
3.126159199951683
 10
1.501678315980671
 20
3.126159199951683
 10
1.547918789112836
 20
3.126159199951683
 10
1.501678315980671
 20
3.126159199951683
 10
1.547918789112836
 20
3.126159199951683
 10
1.501678315980671
 20
3.126159199951683
 10
1.456195883391654
 20
3.126159199951683
 10
1.501678315980671
 20
3.126159199951683
 10
1.456195883391654
 20
3.126159199951683
 10
1.501678315980671
 20
3.126159199951683
 10
1.456195883391654
 20
3.126159199951683
 10
1.501678315980671
 20
3.126159199951683
  0
LWPOLYLINE
  5
4D
100
AcDbEntity
  8
USP-GEO
100
AcDbPolyline
 90
        2
 70
   129
 43
0.0
 10
1.547918789112836
 20
3.126159199951683
 10
1.501678315980671
 20
3.126159199951683
  0
LWPOLYLINE
  5
4E
100
AcDbEntity
  8
USP-GEO
100
AcDbPolyline
 90
       16
 70
   129
 43
0.0
 10
1.547918789112836
 20
3.126159199951683
 10
1.578240410838846
 20
3.126159199951683
 10
1.547918789112836
 20
3.126159199951683
 10
1.578240410838846
 20
3.126159199951683
 10
1.547918789112836
 20
3.126159199951683
 10
1.578240410838846
 20
3.126159199951683
 10
1.547918789112836
 20
3.126159199951683
 10
1.578240410838846
 20
3.126159199951683
 10
1.547918789112836
 20
3.126159199951683
 10
1.578240410838846
 20
3.126159199951683
 10
1.547918789112836
 20
3.126159199951683
 10
1.578240410838846
 20
3.126159199951683
 10
1.547918789112836
 20
3.126159199951683
 10
1.578240410838846
 20
3.126159199951683
 10
1.547918789112836
 20
3.126159199951683
 10
1.501678315980671
 20
3.126159199951683
  0
LWPOLYLINE
  5
4F
100
AcDbEntity
  8
USP-GEO
100
AcDbPolyline
 90
       14
 70
   129
 43
0.0
 10
1.501678315980671
 20
3.20196325426671
 10
1.456195883391654
 20
3.20196325426671
 10
1.501678315980671
 20
3.20196325426671
 10
1.456195883391654
 20
3.20196325426671
 10
1.501678315980671
 20
3.20196325426671
 10
1.456195883391654
 20
3.20196325426671
 10
1.501678315980671
 20
3.20196325426671
 10
1.456195883391654
 20
3.20196325426671
 10
1.501678315980671
 20
3.20196325426671
 10
1.456195883391654
 20
3.20196325426671
 10
1.501678315980671
 20
3.20196325426671
 10
1.456195883391654
 20
3.20196325426671
 10
1.501678315980671
 20
3.20196325426671
 10
1.456195883391654
 20
3.20196325426671
  0
LWPOLYLINE
  5
50
100
AcDbEntity
  8
USP-GEO
100
AcDbPolyline
 90
       12
 70
   129
 43
0.0
 10
1.501678315980671
 20
3.20196325426671
 10
1.547918789112836
 20
3.20196325426671
 10
1.501678315980671
 20
3.20196325426671
 10
1.547918789112836
 20
3.20196325426671
 10
1.501678315980671
 20
3.20196325426671
 10
1.547918789112836
 20
3.20196325426671
 10
1.501678315980671
 20
3.20196325426671
 10
1.547918789112836
 20
3.20196325426671
 10
1.501678315980671
 20
3.20196325426671
 10
1.547918789112836
 20
3.20196325426671
 10
1.501678315980671
 20
3.20196325426671
 10
1.547918789112836
 20
3.20196325426671
  0
LWPOLYLINE
  5
51
100
AcDbEntity
  8
USP-GEO
100
AcDbPolyline
 90
        3
 70
   128
 43
0.0
 10
1.547918789112836
 20
3.20196325426671
 10
1.501678315980671
 20
3.20196325426671
 10
1.547918789112836
 20
3.20196325426671
  0
LWPOLYLINE
  5
52
100
AcDbEntity
  8
USP-GEO
100
AcDbPolyline
 90
       15
 70
   128
 43
0.0
 10
1.578240410838846
 20
3.20196325426671
 10
1.547918789112836
 20
3.20196325426671
 10
1.578240410838846
 20
3.20196325426671
 10
1.547918789112836
 20
3.20196325426671
 10
1.578240410838846
 20
3.20196325426671
 10
1.547918789112836
 20
3.20196325426671
 10
1.578240410838846
 20
3.20196325426671
 10
1.547918789112836
 20
3.20196325426671
 10
1.578240410838846
 20
3.20196325426671
 10
1.547918789112836
 20
3.20196325426671
 10
1.578240410838846
 20
3.20196325426671
 10
1.547918789112836
 20
3.20196325426671
 10
1.578240410838846
 20
3.20196325426671
 10
1.547918789112836
 20
3.20196325426671
 10
1.578240410838846
 20
3.20196325426671
  0
LWPOLYLINE
  5
53
100
AcDbEntity
  8
USP-GEO
100
AcDbPolyline
 90
        2
 70
   129
 43
0.0
 10
4.384506501581117
 20
0.0909648651780319
 10
4.445149745033141
 20
0.0909648651780319
  0
LWPOLYLINE
  5
54
100
AcDbEntity
  8
USP-GEO
100
AcDbPolyline
 90
        2
 70
   129
 43
0.0
 10
4.445149745033141
 20
2.913907847869609
 10
4.384506501581117
 20
2.913907847869609
  0
LWPOLYLINE
  5
55
100
AcDbEntity
  8
USP-GEO
100
AcDbPolyline
 90
       40
 70
   128
 43
0.0
 10
3.0344362942305
 20
3.004872713047641
 10
2.078547169318019
 20
3.004872713047641
 10
2.078547169318019
 20
0.0
 10
3.0344362942305
 20
0.0
 10
3.049597105093505
 20
0.0454824325890151
 10
3.079918726819517
 20
0.0758040543150251
 10
3.125401159408532
 20
0.0909648651780319
 10
3.201205213723559
 20
0.0909648651780319
 10
3.246687646312574
 20
0.0758040543150251
 10
3.277009268038584
 20
0.0454824325890151
 10
3.292170078901591
 20
0.0
 10
4.293541636403087
 20
0.0
 10
4.308702447266092
 20
0.0454824325890151
 10
4.339024068992102
 20
0.0758040543150251
 10
4.384506501581117
 20
0.0909648651780319
 10
4.445149745033141
 20
0.0909648651780319
 10
4.490632177622156
 20
0.0758040543150251
 10
4.536114610211171
 20
0.0454824325890151
 10
4.536114610211171
 20
0.0
 10
5.507164545986658
 20
0.0
 10
5.507164545986658
 20
3.004872713047641
 10
4.536114610211171
 20
3.004872713047641
 10
4.536114610211171
 20
2.959390280458626
 10
4.490632177622156
 20
2.929068658732614
 10
4.445149745033141
 20
2.913907847869609
 10
4.384506501581117
 20
2.913907847869609
 10
4.339024068992102
 20
2.929068658732614
 10
4.308702447266092
 20
2.959390280458626
 10
4.293541636403087
 20
3.004872713047641
 10
3.292170078901591
 20
3.004872713047641
 10
3.277009268038584
 20
2.959390280458626
 10
3.246687646312574
 20
2.929068658732614
 10
3.201205213723559
 20
2.913907847869609
 10
3.125401159408532
 20
2.913907847869609
 10
3.079918726819517
 20
2.929068658732614
 10
3.049597105093505
 20
2.959390280458626
 10
3.0344362942305
 20
3.004872713047641
 10
2.002743115002994
 20
3.004872713047641
 10
2.002743115002994
 20
0.0
 10
3.0344362942305
 20
0.0
  0
LWPOLYLINE
  5
56
100
AcDbEntity
  8
USP-GEO
100
AcDbPolyline
 90
        3
 70
   128
 43
0.0
 10
3.079918726819517
 20
0.0758040543150251
 10
3.125401159408532
 20
0.0909648651780319
 10
3.079918726819517
 20
0.0758040543150251
  0
LWPOLYLINE
  5
57
100
AcDbEntity
  8
USP-GEO
100
AcDbPolyline
 90
       13
 70
   128
 43
0.0
 10
2.002743115002994
 20
1.638883654290868
 10
2.002743115002994
 20
1.623722843427863
 10
2.002743115002994
 20
1.608562032564856
 10
2.002743115002994
 20
1.547918789112836
 10
2.002743115002994
 20
1.456953923934804
 10
2.002743115002994
 20
0.0303216217260101
 10
2.002743115002994
 20
0.015160810863005
 10
2.002743115002994
 20
0.0
 10
2.002743115002994
 20
3.004872713047641
 10
2.002743115002994
 20
3.020033523910646
 10
2.002743115002994
 20
3.035194334773651
 10
2.002743115002994
 20
3.126159199951683
 10
2.002743115002994
 20
2.124787642450186
  0
LWPOLYLINE
  5
58
100
AcDbEntity
  8
USP-GEO
100
AcDbPolyline
 90
        3
 70
   128
 43
0.0
 10
2.002743115002994
 20
1.638883654290868
 10
2.002743115002994
 20
1.654044465153873
 10
2.002743115002994
 20
2.094466020724174
  0
LWPOLYLINE
  5
59
100
AcDbEntity
  8
USP-GEO
100
AcDbPolyline
 90
        2
 70
   129
 43
0.0
 10
2.002743115002994
 20
1.654044465153873
 10
2.002743115002994
 20
2.094466020724174
  0
LWPOLYLINE
  5
5A
100
AcDbEntity
  8
USP-GEO
100
AcDbPolyline
 90
        6
 70
   128
 43
0.0
 10
2.078547169318019
 20
2.094466020724174
 10
2.078547169318019
 20
1.654044465153873
 10
2.002743115002994
 20
1.654044465153873
 10
2.002743115002994
 20
2.094466020724174
 10
2.002743115002994
 20
2.109626831587181
 10
2.002743115002994
 20
2.124787642450186
  0
LWPOLYLINE
  5
5B
100
AcDbEntity
  8
USP-GEO
100
AcDbPolyline
 90
        2
 70
   129
 43
0.0
 10
2.078547169318019
 20
2.094466020724174
 10
2.078547169318019
 20
1.654044465153873
  0
LWPOLYLINE
  5
5C
100
AcDbEntity
  8
USP-GEO
100
AcDbPolyline
 90
        5
 70
   128
 43
0.0
 10
2.078547169318019
 20
1.638883654290868
 10
2.078547169318019
 20
1.654044465153873
 10
2.078547169318019
 20
2.094466020724174
 10
2.078547169318019
 20
2.109626831587181
 10
2.078547169318019
 20
2.124787642450186
  0
LWPOLYLINE
  5
5D
100
AcDbEntity
  8
USP-GEO
100
AcDbPolyline
 90
       18
 70
   128
 43
0.0
 10
2.078547169318019
 20
2.124787642450186
 10
2.078547169318019
 20
2.109626831587181
 10
2.078547169318019
 20
2.094466020724174
 10
2.078547169318019
 20
2.109626831587181
 10
2.078547169318019
 20
2.124787642450186
 10
2.078547169318019
 20
3.20196325426671
 10
2.078547169318019
 20
3.126159199951683
 10
2.078547169318019
 20
3.035194334773651
 10
2.078547169318019
 20
3.020033523910646
 10
2.078547169318019
 20
3.004872713047641
 10
2.078547169318019
 20
0.0
 10
2.078547169318019
 20
0.015160810863005
 10
2.078547169318019
 20
0.0303216217260101
 10
2.078547169318019
 20
1.456953923934804
 10
2.078547169318019
 20
1.547918789112836
 10
2.078547169318019
 20
1.608562032564856
 10
2.078547169318019
 20
1.623722843427863
 10
2.078547169318019
 20
1.638883654290868
  0
LWPOLYLINE
  5
5E
100
AcDbEntity
  8
USP-GEO
100
AcDbPolyline
 90
        4
 70
   128
 43
0.0
 10
2.078547169318019
 20
0.0
 10
3.0344362942305
 20
0.0
 10
2.002743115002994
 20
0.0
 10
2.078547169318019
 20
0.0
  0
LWPOLYLINE
  5
5F
100
AcDbEntity
  8
USP-GEO
100
AcDbPolyline
 90
       10
 70
   128
 43
0.0
 10
2.078547169318019
 20
0.0303216217260101
 10
2.002743115002994
 20
0.0303216217260101
 10
2.002743115002994
 20
0.015160810863005
 10
2.002743115002994
 20
0.0
 10
2.078547169318019
 20
0.0
 10
2.078547169318019
 20
0.015160810863005
 10
2.078547169318019
 20
0.0303216217260101
 10
2.078547169318019
 20
1.456953923934804
 10
2.002743115002994
 20
1.456953923934804
 10
2.002743115002994
 20
0.0303216217260101
  0
LWPOLYLINE
  5
60
100
AcDbEntity
  8
USP-GEO
100
AcDbPolyline
 90
        2
 70
   128
 43
0.0
 10
2.002743115002994
 20
0.0
 10
2.003501155546144
 20
0.0
  0
LWPOLYLINE
  5
61
100
AcDbEntity
  8
USP-GEO
100
AcDbPolyline
 90
        2
 70
   129
 43
0.0
 10
2.002743115002994
 20
1.638883654290868
 10
2.002743115002994
 20
1.654044465153873
  0
LWPOLYLINE
  5
62
100
AcDbEntity
  8
USP-GEO
100
AcDbPolyline
 90
        2
 70
   128
 43
0.0
 10
2.002743115002994
 20
1.638883654290868
 10
2.003501155546144
 20
1.638883654290868
  0
LWPOLYLINE
  5
63
100
AcDbEntity
  8
USP-GEO
100
AcDbPolyline
 90
        2
 70
   129
 43
0.0
 10
2.002743115002994
 20
1.638883654290868
 10
2.002743115002994
 20
1.623722843427863
  0
LWPOLYLINE
  5
64
100
AcDbEntity
  8
USP-GEO
100
AcDbPolyline
 90
        4
 70
   129
 43
0.0
 10
2.078547169318019
 20
1.654044465153873
 10
2.078547169318019
 20
1.638883654290868
 10
2.078547169318019
 20
1.623722843427863
 10
2.078547169318019
 20
1.638883654290868
  0
LWPOLYLINE
  5
65
100
AcDbEntity
  8
USP-GEO
100
AcDbPolyline
 90
        2
 70
   129
 43
0.0
 10
2.079305209861169
 20
1.638883654290868
 10
2.078547169318019
 20
1.638883654290868
  0
LWPOLYLINE
  5
66
100
AcDbEntity
  8
USP-GEO
100
AcDbPolyline
 90
        2
 70
   129
 43
0.0
 10
2.002743115002994
 20
1.623722843427863
 10
2.078547169318019
 20
1.623722843427863
  0
LWPOLYLINE
  5
67
100
AcDbEntity
  8
USP-GEO
100
AcDbPolyline
 90
        4
 70
   128
 43
0.0
 10
2.002743115002994
 20
1.623722843427863
 10
2.002743115002994
 20
1.608562032564856
 10
2.002743115002994
 20
1.547918789112836
 10
2.002743115002994
 20
1.456953923934804
  0
LWPOLYLINE
  5
68
100
AcDbEntity
  8
USP-GEO
100
AcDbPolyline
 90
        4
 70
   128
 43
0.0
 10
2.078547169318019
 20
1.623722843427863
 10
2.078547169318019
 20
1.608562032564856
 10
2.078547169318019
 20
1.547918789112836
 10
2.078547169318019
 20
1.456953923934804
  0
LWPOLYLINE
  5
69
100
AcDbEntity
  8
USP-GEO
100
AcDbPolyline
 90
        2
 70
   129
 43
0.0
 10
2.078547169318019
 20
1.623722843427863
 10
2.002743115002994
 20
1.623722843427863
  0
LWPOLYLINE
  5
6A
100
AcDbEntity
  8
USP-GEO
100
AcDbPolyline
 90
        5
 70
   128
 43
0.0
 10
2.002743115002994
 20
1.654044465153873
 10
2.002743115002994
 20
1.638883654290868
 10
2.002743115002994
 20
1.623722843427863
 10
2.078547169318019
 20
1.623722843427863
 10
2.078547169318019
 20
1.638883654290868
  0
LWPOLYLINE
  5
6B
100
AcDbEntity
  8
USP-GEO
100
AcDbPolyline
 90
        3
 70
   128
 43
0.0
 10
2.079305209861169
 20
1.638883654290868
 10
2.078547169318019
 20
1.638883654290868
 10
2.078547169318019
 20
1.654044465153873
  0
LWPOLYLINE
  5
6C
100
AcDbEntity
  8
USP-GEO
100
AcDbPolyline
 90
        4
 70
   128
 43
0.0
 10
3.0344362942305
 20
3.004872713047641
 10
2.078547169318019
 20
3.004872713047641
 10
2.002743115002994
 20
3.004872713047641
 10
3.0344362942305
 20
3.004872713047641
  0
LWPOLYLINE
  5
6D
100
AcDbEntity
  8
USP-GEO
100
AcDbPolyline
 90
        2
 70
   129
 43
0.0
 10
2.002743115002994
 20
2.883586226143599
 10
2.002743115002994
 20
2.807024131285421
  0
LWPOLYLINE
  5
6E
100
AcDbEntity
  8
USP-GEO
100
AcDbPolyline
 90
        6
 70
   129
 43
0.0
 10
2.078547169318019
 20
2.731220076970396
 10
2.078547169318019
 20
2.746380887833401
 10
2.078547169318019
 20
2.807024131285421
 10
2.078547169318019
 20
2.883586226143599
 10
2.078547169318019
 20
2.807024131285421
 10
2.078547169318019
 20
2.746380887833401
  0
LWPOLYLINE
  5
6F
100
AcDbEntity
  8
USP-GEO
100
AcDbPolyline
 90
       14
 70
   129
 43
0.0
 10
2.078547169318019
 20
3.020033523910646
 10
2.078547169318019
 20
3.035194334773651
 10
2.002743115002994
 20
3.035194334773651
 10
2.002743115002994
 20
3.020033523910646
 10
2.002743115002994
 20
2.959390280458626
 10
2.002743115002994
 20
2.883586226143599
 10
2.002743115002994
 20
2.807024131285421
 10
2.002743115002994
 20
2.746380887833401
 10
2.002743115002994
 20
2.731220076970396
 10
2.078547169318019
 20
2.731220076970396
 10
2.078547169318019
 20
2.746380887833401
 10
2.078547169318019
 20
2.807024131285421
 10
2.078547169318019
 20
2.883586226143599
 10
2.078547169318019
 20
2.959390280458626
  0
LWPOLYLINE
  5
70
100
AcDbEntity
  8
USP-GEO
100
AcDbPolyline
 90
        4
 70
   129
 43
0.0
 10
2.002743115002994
 20
2.746380887833401
 10
2.002743115002994
 20
2.807024131285421
 10
2.002743115002994
 20
2.746380887833401
 10
2.002743115002994
 20
2.731220076970396
  0
LWPOLYLINE
  5
71
100
AcDbEntity
  8
USP-GEO
100
AcDbPolyline
 90
        7
 70
   128
 43
0.0
 10
2.002743115002994
 20
2.443164670573295
 10
2.002743115002994
 20
2.39768223798428
 10
2.002743115002994
 20
2.36736061625827
 10
2.002743115002994
 20
2.352199805395265
 10
2.002743115002994
 20
2.36736061625827
 10
2.002743115002994
 20
2.39768223798428
 10
2.002743115002994
 20
2.443164670573295
  0
LWPOLYLINE
  5
72
100
AcDbEntity
  8
USP-GEO
100
AcDbPolyline
 90
        3
 70
   128
 43
0.0
 10
2.002743115002994
 20
2.488647103162312
 10
2.002743115002994
 20
2.443164670573295
 10
2.002743115002994
 20
2.488647103162312
  0
LWPOLYLINE
  5
73
100
AcDbEntity
  8
USP-GEO
100
AcDbPolyline
 90
        4
 70
   129
 43
0.0
 10
2.002743115002994
 20
1.942099871550972
 10
2.002743115002994
 20
1.987582304139987
 10
2.002743115002994
 20
2.017903925865999
 10
2.002743115002994
 20
1.987582304139987
  0
LWPOLYLINE
  5
74
100
AcDbEntity
  8
USP-GEO
100
AcDbPolyline
 90
       12
 70
   129
 43
0.0
 10
2.002743115002994
 20
1.85113500637294
 10
2.002743115002994
 20
1.866295817235947
 10
2.002743115002994
 20
1.896617438961957
 10
2.002743115002994
 20
1.942099871550972
 10
2.002743115002994
 20
1.987582304139987
 10
2.002743115002994
 20
2.017903925865999
 10
2.002743115002994
 20
2.033064736729004
 10
2.002743115002994
 20
2.017903925865999
 10
2.002743115002994
 20
1.987582304139987
 10
2.002743115002994
 20
1.942099871550972
 10
2.002743115002994
 20
1.896617438961957
 10
2.002743115002994
 20
1.866295817235947
  0
LWPOLYLINE
  5
75
100
AcDbEntity
  8
USP-GEO
100
AcDbPolyline
 90
        4
 70
   129
 43
0.0
 10
2.002743115002994
 20
2.094466020724174
 10
2.002743115002994
 20
2.109626831587181
 10
2.002743115002994
 20
2.124787642450186
 10
2.002743115002994
 20
2.109626831587181
  0
LWPOLYLINE
  5
76
100
AcDbEntity
  8
USP-GEO
100
AcDbPolyline
 90
        2
 70
   129
 43
0.0
 10
2.002743115002994
 20
2.443164670573295
 10
2.002743115002994
 20
2.39768223798428
  0
LWPOLYLINE
  5
77
100
AcDbEntity
  8
USP-GEO
100
AcDbPolyline
 90
       22
 70
   129
 43
0.0
 10
2.002743115002994
 20
2.488647103162312
 10
2.002743115002994
 20
2.518968724888322
 10
2.002743115002994
 20
2.534129535751327
 10
2.002743115002994
 20
2.518968724888322
 10
2.002743115002994
 20
2.534129535751327
 10
2.002743115002994
 20
2.518968724888322
 10
2.002743115002994
 20
2.488647103162312
 10
2.002743115002994
 20
2.518968724888322
 10
2.002743115002994
 20
2.534129535751327
 10
2.002743115002994
 20
2.518968724888322
 10
2.002743115002994
 20
2.488647103162312
 10
2.002743115002994
 20
2.443164670573295
 10
2.002743115002994
 20
2.39768223798428
 10
2.002743115002994
 20
2.36736061625827
 10
2.002743115002994
 20
2.352199805395265
 10
2.002743115002994
 20
2.36736061625827
 10
2.002743115002994
 20
2.352199805395265
 10
2.002743115002994
 20
2.36736061625827
 10
2.002743115002994
 20
2.39768223798428
 10
2.002743115002994
 20
2.443164670573295
 10
2.002743115002994
 20
2.488647103162312
 10
2.002743115002994
 20
2.443164670573295
  0
LWPOLYLINE
  5
78
100
AcDbEntity
  8
USP-GEO
100
AcDbPolyline
 90
        4
 70
   129
 43
0.0
 10
2.002743115002994
 20
1.896617438961957
 10
2.002743115002994
 20
1.866295817235947
 10
2.002743115002994
 20
1.85113500637294
 10
2.002743115002994
 20
1.866295817235947
  0
LWPOLYLINE
  5
79
100
AcDbEntity
  8
USP-GEO
100
AcDbPolyline
 90
       22
 70
   129
 43
0.0
 10
2.002743115002994
 20
1.896617438961957
 10
2.002743115002994
 20
1.942099871550972
 10
2.002743115002994
 20
1.987582304139987
 10
2.002743115002994
 20
1.942099871550972
 10
2.002743115002994
 20
1.896617438961957
 10
2.002743115002994
 20
1.866295817235947
 10
2.002743115002994
 20
1.85113500637294
 10
2.002743115002994
 20
1.866295817235947
 10
2.002743115002994
 20
1.896617438961957
 10
2.002743115002994
 20
1.942099871550972
 10
2.002743115002994
 20
1.896617438961957
 10
2.002743115002994
 20
1.866295817235947
 10
2.002743115002994
 20
1.85113500637294
 10
2.002743115002994
 20
1.866295817235947
 10
2.002743115002994
 20
1.896617438961957
 10
2.002743115002994
 20
1.942099871550972
 10
2.002743115002994
 20
1.987582304139987
 10
2.002743115002994
 20
2.017903925865999
 10
2.002743115002994
 20
2.033064736729004
 10
2.002743115002994
 20
2.017903925865999
 10
2.002743115002994
 20
1.987582304139987
 10
2.002743115002994
 20
1.942099871550972
  0
LWPOLYLINE
  5
7A
100
AcDbEntity
  8
USP-GEO
100
AcDbPolyline
 90
        4
 70
   129
 43
0.0
 10
2.002743115002994
 20
2.518968724888322
 10
2.002743115002994
 20
2.488647103162312
 10
2.002743115002994
 20
2.518968724888322
 10
2.002743115002994
 20
2.534129535751327
  0
LWPOLYLINE
  5
7B
100
AcDbEntity
  8
USP-GEO
100
AcDbPolyline
 90
       10
 70
   129
 43
0.0
 10
2.002743115002994
 20
2.443164670573295
 10
2.002743115002994
 20
2.39768223798428
 10
2.002743115002994
 20
2.36736061625827
 10
2.002743115002994
 20
2.352199805395265
 10
2.002743115002994
 20
2.36736061625827
 10
2.002743115002994
 20
2.39768223798428
 10
2.002743115002994
 20
2.36736061625827
 10
2.002743115002994
 20
2.39768223798428
 10
2.002743115002994
 20
2.443164670573295
 10
2.002743115002994
 20
2.488647103162312
  0
LWPOLYLINE
  5
7C
100
AcDbEntity
  8
USP-GEO
100
AcDbPolyline
 90
        2
 70
   129
 43
0.0
 10
2.003501155546144
 20
2.124787642450186
 10
2.002743115002994
 20
2.124787642450186
  0
LWPOLYLINE
  5
7D
100
AcDbEntity
  8
USP-GEO
100
AcDbPolyline
 90
        3
 70
   128
 43
0.0
 10
2.002743115002994
 20
2.033064736729004
 10
2.002743115002994
 20
2.017903925865999
 10
2.002743115002994
 20
2.033064736729004
  0
LWPOLYLINE
  5
7E
100
AcDbEntity
  8
USP-GEO
100
AcDbPolyline
 90
        4
 70
   129
 43
0.0
 10
2.002743115002994
 20
2.017903925865999
 10
2.002743115002994
 20
1.987582304139987
 10
2.002743115002994
 20
2.017903925865999
 10
2.002743115002994
 20
2.033064736729004
  0
LWPOLYLINE
  5
7F
100
AcDbEntity
  8
USP-GEO
100
AcDbPolyline
 90
        2
 70
   129
 43
0.0
 10
2.002743115002994
 20
2.488647103162312
 10
2.002743115002994
 20
2.518968724888322
  0
LWPOLYLINE
  5
80
100
AcDbEntity
  8
USP-GEO
100
AcDbPolyline
 90
        5
 70
   128
 43
0.0
 10
2.078547169318019
 20
1.896617438961957
 10
2.078547169318019
 20
1.942099871550972
 10
2.078547169318019
 20
1.987582304139987
 10
2.078547169318019
 20
2.017903925865999
 10
2.078547169318019
 20
2.033064736729004
  0
LWPOLYLINE
  5
81
100
AcDbEntity
  8
USP-GEO
100
AcDbPolyline
 90
        2
 70
   129
 43
0.0
 10
2.078547169318019
 20
1.866295817235947
 10
2.078547169318019
 20
1.896617438961957
  0
LWPOLYLINE
  5
82
100
AcDbEntity
  8
USP-GEO
100
AcDbPolyline
 90
       18
 70
   129
 43
0.0
 10
2.078547169318019
 20
2.443164670573295
 10
2.078547169318019
 20
2.39768223798428
 10
2.078547169318019
 20
2.36736061625827
 10
2.078547169318019
 20
2.352199805395265
 10
2.002743115002994
 20
2.352199805395265
 10
2.002743115002994
 20
2.36736061625827
 10
2.002743115002994
 20
2.39768223798428
 10
2.002743115002994
 20
2.443164670573295
 10
2.002743115002994
 20
2.488647103162312
 10
2.002743115002994
 20
2.518968724888322
 10
2.002743115002994
 20
2.534129535751327
 10
2.078547169318019
 20
2.534129535751327
 10
2.078547169318019
 20
2.518968724888322
 10
2.078547169318019
 20
2.534129535751327
 10
2.078547169318019
 20
2.518968724888322
 10
2.078547169318019
 20
2.534129535751327
 10
2.078547169318019
 20
2.518968724888322
 10
2.078547169318019
 20
2.488647103162312
  0
LWPOLYLINE
  5
83
100
AcDbEntity
  8
USP-GEO
100
AcDbPolyline
 90
        2
 70
   129
 43
0.0
 10
2.078547169318019
 20
2.017903925865999
 10
2.078547169318019
 20
2.033064736729004
  0
LWPOLYLINE
  5
84
100
AcDbEntity
  8
USP-GEO
100
AcDbPolyline
 90
        2
 70
   129
 43
0.0
 10
2.079305209861169
 20
2.124787642450186
 10
2.078547169318019
 20
2.124787642450186
  0
LWPOLYLINE
  5
85
100
AcDbEntity
  8
USP-GEO
100
AcDbPolyline
 90
       16
 70
   129
 43
0.0
 10
2.078547169318019
 20
2.443164670573295
 10
2.078547169318019
 20
2.39768223798428
 10
2.078547169318019
 20
2.36736061625827
 10
2.078547169318019
 20
2.39768223798428
 10
2.078547169318019
 20
2.443164670573295
 10
2.078547169318019
 20
2.488647103162312
 10
2.078547169318019
 20
2.518968724888322
 10
2.078547169318019
 20
2.534129535751327
 10
2.078547169318019
 20
2.518968724888322
 10
2.078547169318019
 20
2.488647103162312
 10
2.078547169318019
 20
2.443164670573295
 10
2.078547169318019
 20
2.39768223798428
 10
2.078547169318019
 20
2.36736061625827
 10
2.078547169318019
 20
2.352199805395265
 10
2.078547169318019
 20
2.36736061625827
 10
2.078547169318019
 20
2.39768223798428
  0
LWPOLYLINE
  5
86
100
AcDbEntity
  8
USP-GEO
100
AcDbPolyline
 90
        4
 70
   129
 43
0.0
 10
2.078547169318019
 20
1.896617438961957
 10
2.078547169318019
 20
1.942099871550972
 10
2.078547169318019
 20
1.987582304139987
 10
2.078547169318019
 20
1.942099871550972
  0
LWPOLYLINE
  5
87
100
AcDbEntity
  8
USP-GEO
100
AcDbPolyline
 90
        6
 70
   129
 43
0.0
 10
2.078547169318019
 20
2.39768223798428
 10
2.078547169318019
 20
2.36736061625827
 10
2.078547169318019
 20
2.352199805395265
 10
2.078547169318019
 20
2.36736061625827
 10
2.078547169318019
 20
2.39768223798428
 10
2.078547169318019
 20
2.443164670573295
  0
LWPOLYLINE
  5
88
100
AcDbEntity
  8
USP-GEO
100
AcDbPolyline
 90
        3
 70
   128
 43
0.0
 10
2.078547169318019
 20
1.896617438961957
 10
2.078547169318019
 20
1.942099871550972
 10
2.078547169318019
 20
1.896617438961957
  0
LWPOLYLINE
  5
89
100
AcDbEntity
  8
USP-GEO
100
AcDbPolyline
 90
        3
 70
   128
 43
0.0
 10
2.078547169318019
 20
1.866295817235947
 10
2.078547169318019
 20
1.85113500637294
 10
2.078547169318019
 20
1.866295817235947
  0
LWPOLYLINE
  5
8A
100
AcDbEntity
  8
USP-GEO
100
AcDbPolyline
 90
        4
 70
   129
 43
0.0
 10
2.078547169318019
 20
2.488647103162312
 10
2.078547169318019
 20
2.443164670573295
 10
2.078547169318019
 20
2.488647103162312
 10
2.078547169318019
 20
2.518968724888322
  0
LWPOLYLINE
  5
8B
100
AcDbEntity
  8
USP-GEO
100
AcDbPolyline
 90
        3
 70
   128
 43
0.0
 10
2.078547169318019
 20
2.488647103162312
 10
2.078547169318019
 20
2.518968724888322
 10
2.078547169318019
 20
2.488647103162312
  0
LWPOLYLINE
  5
8C
100
AcDbEntity
  8
USP-GEO
100
AcDbPolyline
 90
        4
 70
   128
 43
0.0
 10
2.078547169318019
 20
2.033064736729004
 10
2.078547169318019
 20
2.017903925865999
 10
2.078547169318019
 20
1.987582304139987
 10
2.078547169318019
 20
1.942099871550972
  0
LWPOLYLINE
  5
8D
100
AcDbEntity
  8
USP-GEO
100
AcDbPolyline
 90
        2
 70
   129
 43
0.0
 10
2.078547169318019
 20
1.942099871550972
 10
2.078547169318019
 20
1.987582304139987
  0
LWPOLYLINE
  5
8E
100
AcDbEntity
  8
USP-GEO
100
AcDbPolyline
 90
        6
 70
   128
 43
0.0
 10
2.078547169318019
 20
1.896617438961957
 10
2.078547169318019
 20
1.866295817235947
 10
2.078547169318019
 20
1.85113500637294
 10
2.078547169318019
 20
1.866295817235947
 10
2.078547169318019
 20
1.896617438961957
 10
2.078547169318019
 20
1.942099871550972
  0
LWPOLYLINE
  5
8F
100
AcDbEntity
  8
USP-GEO
100
AcDbPolyline
 90
        3
 70
   128
 43
0.0
 10
2.078547169318019
 20
1.896617438961957
 10
2.078547169318019
 20
1.942099871550972
 10
2.078547169318019
 20
1.987582304139987
  0
LWPOLYLINE
  5
90
100
AcDbEntity
  8
USP-GEO
100
AcDbPolyline
 90
        3
 70
   128
 43
0.0
 10
2.078547169318019
 20
2.352199805395265
 10
2.078547169318019
 20
2.36736061625827
 10
2.078547169318019
 20
2.352199805395265
  0
LWPOLYLINE
  5
91
100
AcDbEntity
  8
USP-GEO
100
AcDbPolyline
 90
       13
 70
   128
 43
0.0
 10
2.078547169318019
 20
1.896617438961957
 10
2.078547169318019
 20
1.866295817235947
 10
2.078547169318019
 20
1.85113500637294
 10
2.078547169318019
 20
1.866295817235947
 10
2.078547169318019
 20
1.896617438961957
 10
2.078547169318019
 20
1.942099871550972
 10
2.078547169318019
 20
1.987582304139987
 10
2.078547169318019
 20
2.017903925865999
 10
2.078547169318019
 20
2.033064736729004
 10
2.078547169318019
 20
2.017903925865999
 10
2.078547169318019
 20
1.987582304139987
 10
2.078547169318019
 20
2.017903925865999
 10
2.078547169318019
 20
1.987582304139987
  0
LWPOLYLINE
  5
92
100
AcDbEntity
  8
USP-GEO
100
AcDbPolyline
 90
        2
 70
   129
 43
0.0
 10
2.078547169318019
 20
2.033064736729004
 10
2.078547169318019
 20
2.017903925865999
  0
LWPOLYLINE
  5
93
100
AcDbEntity
  8
USP-GEO
100
AcDbPolyline
 90
        2
 70
   129
 43
0.0
 10
2.078547169318019
 20
2.488647103162312
 10
2.078547169318019
 20
2.443164670573295
  0
LWPOLYLINE
  5
94
100
AcDbEntity
  8
USP-GEO
100
AcDbPolyline
 90
        2
 70
   129
 43
0.0
 10
2.078547169318019
 20
1.987582304139987
 10
2.078547169318019
 20
2.017903925865999
  0
LWPOLYLINE
  5
95
100
AcDbEntity
  8
USP-GEO
100
AcDbPolyline
 90
        4
 70
   129
 43
0.0
 10
2.078547169318019
 20
1.896617438961957
 10
2.078547169318019
 20
1.866295817235947
 10
2.078547169318019
 20
1.85113500637294
 10
2.078547169318019
 20
1.866295817235947
  0
LWPOLYLINE
  5
96
100
AcDbEntity
  8
USP-GEO
100
AcDbPolyline
 90
        2
 70
   129
 43
0.0
 10
2.078547169318019
 20
2.124787642450186
 10
2.002743115002994
 20
2.124787642450186
  0
LWPOLYLINE
  5
97
100
AcDbEntity
  8
USP-GEO
100
AcDbPolyline
 90
        3
 70
   128
 43
0.0
 10
2.078547169318019
 20
2.124787642450186
 10
2.002743115002994
 20
2.124787642450186
 10
2.003501155546144
 20
2.124787642450186
  0
LWPOLYLINE
  5
98
100
AcDbEntity
  8
USP-GEO
100
AcDbPolyline
 90
        6
 70
   129
 43
0.0
 10
2.002743115002994
 20
2.124787642450186
 10
2.002743115002994
 20
2.109626831587181
 10
2.002743115002994
 20
2.094466020724174
 10
2.078547169318019
 20
2.094466020724174
 10
2.078547169318019
 20
2.109626831587181
 10
2.078547169318019
 20
2.124787642450186
  0
LWPOLYLINE
  5
99
100
AcDbEntity
  8
USP-GEO
100
AcDbPolyline
 90
       14
 70
   129
 43
0.0
 10
2.078547169318019
 20
1.85113500637294
 10
2.078547169318019
 20
1.866295817235947
 10
2.078547169318019
 20
1.896617438961957
 10
2.078547169318019
 20
1.942099871550972
 10
2.078547169318019
 20
1.987582304139987
 10
2.078547169318019
 20
2.017903925865999
 10
2.078547169318019
 20
2.033064736729004
 10
2.002743115002994
 20
2.033064736729004
 10
2.002743115002994
 20
2.017903925865999
 10
2.002743115002994
 20
1.987582304139987
 10
2.002743115002994
 20
1.942099871550972
 10
2.002743115002994
 20
1.896617438961957
 10
2.002743115002994
 20
1.866295817235947
 10
2.002743115002994
 20
1.85113500637294
  0
LWPOLYLINE
  5
9A
100
AcDbEntity
  8
USP-GEO
100
AcDbPolyline
 90
       12
 70
   129
 43
0.0
 10
2.078547169318019
 20
2.443164670573295
 10
2.078547169318019
 20
2.39768223798428
 10
2.078547169318019
 20
2.36736061625827
 10
2.078547169318019
 20
2.352199805395265
 10
2.078547169318019
 20
2.36736061625827
 10
2.078547169318019
 20
2.39768223798428
 10
2.078547169318019
 20
2.443164670573295
 10
2.078547169318019
 20
2.488647103162312
 10
2.078547169318019
 20
2.518968724888322
 10
2.078547169318019
 20
2.534129535751327
 10
2.078547169318019
 20
2.518968724888322
 10
2.078547169318019
 20
2.488647103162312
  0
LWPOLYLINE
  5
9B
100
AcDbEntity
  8
USP-GEO
100
AcDbPolyline
 90
        6
 70
   129
 43
0.0
 10
2.002743115002994
 20
2.883586226143599
 10
2.002743115002994
 20
2.959390280458626
 10
2.002743115002994
 20
3.020033523910646
 10
2.002743115002994
 20
3.035194334773651
 10
2.002743115002994
 20
3.020033523910646
 10
2.002743115002994
 20
2.959390280458626
  0
LWPOLYLINE
  5
9C
100
AcDbEntity
  8
USP-GEO
100
AcDbPolyline
 90
        6
 70
   129
 43
0.0
 10
2.078547169318019
 20
2.883586226143599
 10
2.078547169318019
 20
2.959390280458626
 10
2.078547169318019
 20
3.020033523910646
 10
2.078547169318019
 20
3.035194334773651
 10
2.078547169318019
 20
3.020033523910646
 10
2.078547169318019
 20
2.959390280458626
  0
LWPOLYLINE
  5
9D
100
AcDbEntity
  8
USP-GEO
100
AcDbPolyline
 90
        2
 70
   129
 43
0.0
 10
2.079305209861169
 20
3.004872713047641
 10
2.078547169318019
 20
3.004872713047641
  0
LWPOLYLINE
  5
9E
100
AcDbEntity
  8
USP-GEO
100
AcDbPolyline
 90
        8
 70
   128
 43
0.0
 10
2.002743115002994
 20
3.004872713047641
 10
2.078547169318019
 20
3.004872713047641
 10
2.078547169318019
 20
3.020033523910646
 10
2.078547169318019
 20
3.035194334773651
 10
2.002743115002994
 20
3.035194334773651
 10
2.002743115002994
 20
3.020033523910646
 10
2.002743115002994
 20
3.004872713047641
 10
2.003501155546144
 20
3.004872713047641
  0
LWPOLYLINE
  5
9F
100
AcDbEntity
  8
USP-GEO
100
AcDbPolyline
 90
        4
 70
   128
 43
0.0
 10
2.078547169318019
 20
3.035194334773651
 10
2.078547169318019
 20
3.126159199951683
 10
2.002743115002994
 20
3.126159199951683
 10
2.002743115002994
 20
3.035194334773651
  0
LWPOLYLINE
  5
A0
100
AcDbEntity
  8
USP-GEO
100
AcDbPolyline
 90
        3
 70
   128
 43
0.0
 10
3.049597105093505
 20
2.959390280458626
 10
3.0344362942305
 20
3.004872713047641
 10
3.049597105093505
 20
2.959390280458626
  0
LWPOLYLINE
  5
A1
100
AcDbEntity
  8
USP-GEO
100
AcDbPolyline
 90
        2
 70
   129
 43
0.0
 10
3.292170078901591
 20
0.0
 10
4.293541636403087
 20
0.0
  0
LWPOLYLINE
  5
A2
100
AcDbEntity
  8
USP-GEO
100
AcDbPolyline
 90
        2
 70
   129
 43
0.0
 10
3.125401159408532
 20
0.0909648651780319
 10
3.201205213723559
 20
0.0909648651780319
  0
LWPOLYLINE
  5
A3
100
AcDbEntity
  8
USP-GEO
100
AcDbPolyline
 90
        3
 70
   128
 43
0.0
 10
4.339024068992102
 20
0.0758040543150251
 10
4.308702447266092
 20
0.0454824325890151
 10
4.339024068992102
 20
0.0758040543150251
  0
LWPOLYLINE
  5
A4
100
AcDbEntity
  8
USP-GEO
100
AcDbPolyline
 90
        3
 70
   128
 43
0.0
 10
4.339024068992102
 20
0.0758040543150251
 10
4.384506501581117
 20
0.0909648651780319
 10
4.339024068992102
 20
0.0758040543150251
  0
LWPOLYLINE
  5
A5
100
AcDbEntity
  8
USP-GEO
100
AcDbPolyline
 90
        2
 70
   129
 43
0.0
 10
4.293541636403087
 20
3.004872713047641
 10
3.292170078901591
 20
3.004872713047641
  0
LWPOLYLINE
  5
A6
100
AcDbEntity
  8
USP-GEO
100
AcDbPolyline
 90
        2
 70
   129
 43
0.0
 10
3.201205213723559
 20
2.913907847869609
 10
3.125401159408532
 20
2.913907847869609
  0
LWPOLYLINE
  5
A7
100
AcDbEntity
  8
USP-GEO
100
AcDbPolyline
 90
        6
 70
   128
 43
0.0
 10
5.582968600301683
 20
3.126159199951683
 10
6.917877996789297
 20
3.126159199951683
 10
7.008842861967327
 20
3.126159199951683
 10
7.06948610541935
 20
3.126159199951683
 10
7.084646916282355
 20
3.126159199951683
 10
7.084646916282355
 20
3.20196325426671
  0
LWPOLYLINE
  5
A8
100
AcDbEntity
  8
USP-GEO
100
AcDbPolyline
 90
        3
 70
   128
 43
0.0
 10
6.917877996789297
 20
3.126159199951683
 10
6.917877996789297
 20
3.20196325426671
 10
5.582968600301683
 20
3.20196325426671
  0
LWPOLYLINE
  5
A9
100
AcDbEntity
  8
USP-GEO
100
AcDbPolyline
 90
       16
 70
   129
 43
0.0
 10
5.582968600301683
 20
3.020033523910646
 10
5.582968600301683
 20
3.004872713047641
 10
5.582968600301683
 20
0.0
 10
5.582968600301683
 20
0.015160810863005
 10
5.582968600301683
 20
0.0303216217260101
 10
5.582968600301683
 20
1.456953923934804
 10
5.582968600301683
 20
1.547918789112836
 10
5.582968600301683
 20
1.608562032564856
 10
5.582968600301683
 20
1.623722843427863
 10
5.582968600301683
 20
1.638883654290868
 10
5.582968600301683
 20
1.654044465153873
 10
5.582968600301683
 20
2.094466020724174
 10
5.582968600301683
 20
2.109626831587181
 10
5.582968600301683
 20
2.124787642450186
 10
5.582968600301683
 20
3.126159199951683
 10
5.582968600301683
 20
3.035194334773651
  0
LWPOLYLINE
  5
AA
100
AcDbEntity
  8
USP-GEO
100
AcDbPolyline
 90
        5
 70
   128
 43
0.0
 10
5.582968600301683
 20
2.094466020724174
 10
5.582968600301683
 20
1.654044465153873
 10
5.582968600301683
 20
1.638883654290868
 10
5.582968600301683
 20
1.623722843427863
 10
5.582968600301683
 20
1.638883654290868
  0
LWPOLYLINE
  5
AB
100
AcDbEntity
  8
USP-GEO
100
AcDbPolyline
 90
        2
 70
   129
 43
0.0
 10
5.507164545986658
 20
2.094466020724174
 10
5.507164545986658
 20
1.654044465153873
  0
LWPOLYLINE
  5
AC
100
AcDbEntity
  8
USP-GEO
100
AcDbPolyline
 90
       17
 70
   129
 43
0.0
 10
5.507164545986658
 20
2.124787642450186
 10
5.507164545986658
 20
2.109626831587181
 10
5.507164545986658
 20
2.094466020724174
 10
5.507164545986658
 20
1.654044465153873
 10
5.507164545986658
 20
1.638883654290868
 10
5.507164545986658
 20
1.623722843427863
 10
5.507164545986658
 20
1.608562032564856
 10
5.507164545986658
 20
1.547918789112836
 10
5.507164545986658
 20
1.456953923934804
 10
5.507164545986658
 20
0.0303216217260101
 10
5.507164545986658
 20
0.015160810863005
 10
5.507164545986658
 20
0.0
 10
5.507164545986658
 20
3.004872713047641
 10
5.507164545986658
 20
3.020033523910646
 10
5.507164545986658
 20
3.035194334773651
 10
5.507164545986658
 20
3.126159199951683
 10
5.507164545986658
 20
3.20196325426671
  0
LWPOLYLINE
  5
AD
100
AcDbEntity
  8
USP-GEO
100
AcDbPolyline
 90
        4
 70
   128
 43
0.0
 10
4.536114610211171
 20
0.0
 10
5.582968600301683
 20
0.0
 10
5.582968600301683
 20
3.004872713047641
 10
4.536114610211171
 20
3.004872713047641
  0
LWPOLYLINE
  5
AE
100
AcDbEntity
  8
USP-GEO
100
AcDbPolyline
 90
        9
 70
   128
 43
0.0
 10
5.582968600301683
 20
2.124787642450186
 10
5.507164545986658
 20
2.124787642450186
 10
5.507164545986658
 20
2.109626831587181
 10
5.507164545986658
 20
2.094466020724174
 10
5.507164545986658
 20
1.654044465153873
 10
5.582968600301683
 20
1.654044465153873
 10
5.582968600301683
 20
2.094466020724174
 10
5.582968600301683
 20
1.654044465153873
 10
5.582968600301683
 20
1.638883654290868
  0
LWPOLYLINE
  5
AF
100
AcDbEntity
  8
USP-GEO
100
AcDbPolyline
 90
        4
 70
   128
 43
0.0
 10
5.507164545986658
 20
0.0
 10
5.582968600301683
 20
0.0
 10
4.536114610211171
 20
0.0
 10
5.507164545986658
 20
0.0
  0
LWPOLYLINE
  5
B0
100
AcDbEntity
  8
USP-GEO
100
AcDbPolyline
 90
        2
 70
   128
 43
0.0
 10
5.582968600301683
 20
0.0303216217260101
 10
5.582968600301683
 20
1.456953923934804
  0
LWPOLYLINE
  5
B1
100
AcDbEntity
  8
USP-GEO
100
AcDbPolyline
 90
       10
 70
   128
 43
0.0
 10
5.507164545986658
 20
1.456953923934804
 10
5.582968600301683
 20
1.456953923934804
 10
5.582968600301683
 20
1.547918789112836
 10
5.582968600301683
 20
1.608562032564856
 10
5.582968600301683
 20
1.623722843427863
 10
5.507164545986658
 20
1.623722843427863
 10
5.507164545986658
 20
1.608562032564856
 10
5.507164545986658
 20
1.547918789112836
 10
5.507164545986658
 20
1.456953923934804
 10
5.507164545986658
 20
0.0303216217260101
  0
LWPOLYLINE
  5
B2
100
AcDbEntity
  8
USP-GEO
100
AcDbPolyline
 90
        4
 70
   128
 43
0.0
 10
5.507922586529808
 20
0.0
 10
5.507164545986658
 20
0.0
 10
5.582968600301683
 20
0.0
 10
5.583726640844833
 20
0.0
  0
LWPOLYLINE
  5
B3
100
AcDbEntity
  8
USP-GEO
100
AcDbPolyline
 90
        6
 70
   128
 43
0.0
 10
5.507164545986658
 20
0.0
 10
5.507164545986658
 20
0.015160810863005
 10
5.507164545986658
 20
0.0303216217260101
 10
5.582968600301683
 20
0.0303216217260101
 10
5.582968600301683
 20
0.015160810863005
 10
5.582968600301683
 20
0.0
  0
LWPOLYLINE
  5
B4
100
AcDbEntity
  8
USP-GEO
100
AcDbPolyline
 90
        4
 70
   129
 43
0.0
 10
5.507164545986658
 20
1.638883654290868
 10
5.507164545986658
 20
1.654044465153873
 10
5.507164545986658
 20
1.638883654290868
 10
5.507164545986658
 20
1.623722843427863
  0
LWPOLYLINE
  5
B5
100
AcDbEntity
  8
USP-GEO
100
AcDbPolyline
 90
        2
 70
   129
 43
0.0
 10
5.507164545986658
 20
1.623722843427863
 10
5.582968600301683
 20
1.623722843427863
  0
LWPOLYLINE
  5
B6
100
AcDbEntity
  8
USP-GEO
100
AcDbPolyline
 90
        2
 70
   128
 43
0.0
 10
5.507164545986658
 20
1.623722843427863
 10
5.582968600301683
 20
1.623722843427863
  0
LWPOLYLINE
  5
B7
100
AcDbEntity
  8
USP-GEO
100
AcDbPolyline
 90
        4
 70
   128
 43
0.0
 10
5.507164545986658
 20
1.638883654290868
 10
5.507164545986658
 20
1.623722843427863
 10
5.582968600301683
 20
1.623722843427863
 10
5.582968600301683
 20
1.638883654290868
  0
LWPOLYLINE
  5
B8
100
AcDbEntity
  8
USP-GEO
100
AcDbPolyline
 90
        2
 70
   128
 43
0.0
 10
5.582968600301683
 20
1.638883654290868
 10
5.582968600301683
 20
1.654044465153873
  0
LWPOLYLINE
  5
B9
100
AcDbEntity
  8
USP-GEO
100
AcDbPolyline
 90
        3
 70
   128
 43
0.0
 10
5.507164545986658
 20
1.654044465153873
 10
5.507164545986658
 20
1.638883654290868
 10
5.507922586529808
 20
1.638883654290868
  0
LWPOLYLINE
  5
BA
100
AcDbEntity
  8
USP-GEO
100
AcDbPolyline
 90
        2
 70
   129
 43
0.0
 10
5.583726640844833
 20
1.638883654290868
 10
5.582968600301683
 20
1.638883654290868
  0
LWPOLYLINE
  5
BB
100
AcDbEntity
  8
USP-GEO
100
AcDbPolyline
 90
        4
 70
   128
 43
0.0
 10
5.507164545986658
 20
3.004872713047641
 10
5.582968600301683
 20
3.004872713047641
 10
4.536114610211171
 20
3.004872713047641
 10
5.507164545986658
 20
3.004872713047641
  0
LWPOLYLINE
  5
BC
100
AcDbEntity
  8
USP-GEO
100
AcDbPolyline
 90
        3
 70
   128
 43
0.0
 10
4.490632177622156
 20
2.929068658732614
 10
4.445149745033141
 20
2.913907847869609
 10
4.490632177622156
 20
2.929068658732614
  0
LWPOLYLINE
  5
BD
100
AcDbEntity
  8
USP-GEO
100
AcDbPolyline
 90
       10
 70
   129
 43
0.0
 10
5.582968600301683
 20
2.746380887833401
 10
5.582968600301683
 20
2.807024131285421
 10
5.582968600301683
 20
2.883586226143599
 10
5.582968600301683
 20
2.959390280458626
 10
5.582968600301683
 20
3.020033523910646
 10
5.582968600301683
 20
3.035194334773651
 10
5.582968600301683
 20
3.020033523910646
 10
5.582968600301683
 20
2.959390280458626
 10
5.582968600301683
 20
2.883586226143599
 10
5.582968600301683
 20
2.807024131285421
  0
LWPOLYLINE
  5
BE
100
AcDbEntity
  8
USP-GEO
100
AcDbPolyline
 90
        4
 70
   129
 43
0.0
 10
5.507164545986658
 20
2.746380887833401
 10
5.507164545986658
 20
2.807024131285421
 10
5.507164545986658
 20
2.883586226143599
 10
5.507164545986658
 20
2.807024131285421
  0
LWPOLYLINE
  5
BF
100
AcDbEntity
  8
USP-GEO
100
AcDbPolyline
 90
       14
 70
   129
 43
0.0
 10
5.507164545986658
 20
3.035194334773651
 10
5.507164545986658
 20
3.020033523910646
 10
5.507164545986658
 20
2.959390280458626
 10
5.507164545986658
 20
2.883586226143599
 10
5.507164545986658
 20
2.807024131285421
 10
5.507164545986658
 20
2.746380887833401
 10
5.507164545986658
 20
2.716059266107391
 10
5.582968600301683
 20
2.716059266107391
 10
5.582968600301683
 20
2.746380887833401
 10
5.582968600301683
 20
2.807024131285421
 10
5.582968600301683
 20
2.883586226143599
 10
5.582968600301683
 20
2.959390280458626
 10
5.582968600301683
 20
3.020033523910646
 10
5.582968600301683
 20
3.035194334773651
  0
LWPOLYLINE
  5
C0
100
AcDbEntity
  8
USP-GEO
100
AcDbPolyline
 90
        5
 70
   128
 43
0.0
 10
5.582968600301683
 20
1.896617438961957
 10
5.582968600301683
 20
1.866295817235947
 10
5.582968600301683
 20
1.85113500637294
 10
5.582968600301683
 20
1.866295817235947
 10
5.582968600301683
 20
1.896617438961957
  0
LWPOLYLINE
  5
C1
100
AcDbEntity
  8
USP-GEO
100
AcDbPolyline
 90
        2
 70
   129
 43
0.0
 10
5.582968600301683
 20
2.518968724888322
 10
5.582968600301683
 20
2.534129535751327
  0
LWPOLYLINE
  5
C2
100
AcDbEntity
  8
USP-GEO
100
AcDbPolyline
 90
       17
 70
   128
 43
0.0
 10
5.582968600301683
 20
2.443164670573295
 10
5.582968600301683
 20
2.488647103162312
 10
5.582968600301683
 20
2.518968724888322
 10
5.582968600301683
 20
2.534129535751327
 10
5.582968600301683
 20
2.518968724888322
 10
5.582968600301683
 20
2.534129535751327
 10
5.582968600301683
 20
2.518968724888322
 10
5.582968600301683
 20
2.488647103162312
 10
5.582968600301683
 20
2.518968724888322
 10
5.582968600301683
 20
2.488647103162312
 10
5.582968600301683
 20
2.518968724888322
 10
5.582968600301683
 20
2.534129535751327
 10
5.582968600301683
 20
2.518968724888322
 10
5.582968600301683
 20
2.488647103162312
 10
5.582968600301683
 20
2.443164670573295
 10
5.582968600301683
 20
2.39768223798428
 10
5.582968600301683
 20
2.36736061625827
  0
LWPOLYLINE
  5
C3
100
AcDbEntity
  8
USP-GEO
100
AcDbPolyline
 90
        2
 70
   129
 43
0.0
 10
5.582968600301683
 20
2.716059266107391
 10
5.582968600301683
 20
2.746380887833401
  0
LWPOLYLINE
  5
C4
100
AcDbEntity
  8
USP-GEO
100
AcDbPolyline
 90
        6
 70
   129
 43
0.0
 10
5.582968600301683
 20
1.896617438961957
 10
5.582968600301683
 20
1.942099871550972
 10
5.582968600301683
 20
1.987582304139987
 10
5.582968600301683
 20
2.017903925865999
 10
5.582968600301683
 20
1.987582304139987
 10
5.582968600301683
 20
1.942099871550972
  0
LWPOLYLINE
  5
C5
100
AcDbEntity
  8
USP-GEO
100
AcDbPolyline
 90
        2
 70
   129
 43
0.0
 10
5.582968600301683
 20
2.094466020724174
 10
5.582968600301683
 20
2.109626831587181
  0
LWPOLYLINE
  5
C6
100
AcDbEntity
  8
USP-GEO
100
AcDbPolyline
 90
        6
 70
   129
 43
0.0
 10
5.582968600301683
 20
2.443164670573295
 10
5.582968600301683
 20
2.39768223798428
 10
5.582968600301683
 20
2.36736061625827
 10
5.582968600301683
 20
2.352199805395265
 10
5.582968600301683
 20
2.36736061625827
 10
5.582968600301683
 20
2.39768223798428
  0
LWPOLYLINE
  5
C7
100
AcDbEntity
  8
USP-GEO
100
AcDbPolyline
 90
        4
 70
   129
 43
0.0
 10
5.582968600301683
 20
2.518968724888322
 10
5.582968600301683
 20
2.488647103162312
 10
5.582968600301683
 20
2.443164670573295
 10
5.582968600301683
 20
2.488647103162312
  0
LWPOLYLINE
  5
C8
100
AcDbEntity
  8
USP-GEO
100
AcDbPolyline
 90
       11
 70
   128
 43
0.0
 10
5.582968600301683
 20
2.017903925865999
 10
5.582968600301683
 20
2.033064736729004
 10
5.582968600301683
 20
2.017903925865999
 10
5.582968600301683
 20
1.987582304139987
 10
5.582968600301683
 20
1.942099871550972
 10
5.582968600301683
 20
1.896617438961957
 10
5.582968600301683
 20
1.866295817235947
 10
5.582968600301683
 20
1.85113500637294
 10
5.582968600301683
 20
1.866295817235947
 10
5.582968600301683
 20
1.896617438961957
 10
5.582968600301683
 20
1.942099871550972
  0
LWPOLYLINE
  5
C9
100
AcDbEntity
  8
USP-GEO
100
AcDbPolyline
 90
        3
 70
   128
 43
0.0
 10
5.582968600301683
 20
2.017903925865999
 10
5.582968600301683
 20
1.987582304139987
 10
5.582968600301683
 20
1.942099871550972
  0
LWPOLYLINE
  5
CA
100
AcDbEntity
  8
USP-GEO
100
AcDbPolyline
 90
        6
 70
   129
 43
0.0
 10
5.582968600301683
 20
2.033064736729004
 10
5.582968600301683
 20
2.017903925865999
 10
5.582968600301683
 20
1.987582304139987
 10
5.582968600301683
 20
1.942099871550972
 10
5.582968600301683
 20
1.987582304139987
 10
5.582968600301683
 20
2.017903925865999
  0
LWPOLYLINE
  5
CB
100
AcDbEntity
  8
USP-GEO
100
AcDbPolyline
 90
        6
 70
   129
 43
0.0
 10
5.582968600301683
 20
2.36736061625827
 10
5.582968600301683
 20
2.39768223798428
 10
5.582968600301683
 20
2.443164670573295
 10
5.582968600301683
 20
2.39768223798428
 10
5.582968600301683
 20
2.36736061625827
 10
5.582968600301683
 20
2.352199805395265
  0
LWPOLYLINE
  5
CC
100
AcDbEntity
  8
USP-GEO
100
AcDbPolyline
 90
        3
 70
   128
 43
0.0
 10
5.582968600301683
 20
2.36736061625827
 10
5.582968600301683
 20
2.39768223798428
 10
5.582968600301683
 20
2.443164670573295
  0
LWPOLYLINE
  5
CD
100
AcDbEntity
  8
USP-GEO
100
AcDbPolyline
 90
        2
 70
   129
 43
0.0
 10
5.582968600301683
 20
2.017903925865999
 10
5.582968600301683
 20
2.033064736729004
  0
LWPOLYLINE
  5
CE
100
AcDbEntity
  8
USP-GEO
100
AcDbPolyline
 90
        6
 70
   129
 43
0.0
 10
5.582968600301683
 20
2.352199805395265
 10
5.582968600301683
 20
2.36736061625827
 10
5.582968600301683
 20
2.39768223798428
 10
5.582968600301683
 20
2.443164670573295
 10
5.582968600301683
 20
2.39768223798428
 10
5.582968600301683
 20
2.36736061625827
  0
LWPOLYLINE
  5
CF
100
AcDbEntity
  8
USP-GEO
100
AcDbPolyline
 90
        4
 70
   129
 43
0.0
 10
5.582968600301683
 20
1.942099871550972
 10
5.582968600301683
 20
1.987582304139987
 10
5.582968600301683
 20
2.017903925865999
 10
5.582968600301683
 20
1.987582304139987
  0
LWPOLYLINE
  5
D0
100
AcDbEntity
  8
USP-GEO
100
AcDbPolyline
 90
        4
 70
   129
 43
0.0
 10
5.582968600301683
 20
1.85113500637294
 10
5.582968600301683
 20
1.866295817235947
 10
5.582968600301683
 20
1.896617438961957
 10
5.582968600301683
 20
1.866295817235947
  0
LWPOLYLINE
  5
D1
100
AcDbEntity
  8
USP-GEO
100
AcDbPolyline
 90
        2
 70
   128
 43
0.0
 10
5.582968600301683
 20
1.896617438961957
 10
5.582968600301683
 20
1.866295817235947
  0
LWPOLYLINE
  5
D2
100
AcDbEntity
  8
USP-GEO
100
AcDbPolyline
 90
        2
 70
   129
 43
0.0
 10
5.582968600301683
 20
2.36736061625827
 10
5.582968600301683
 20
2.352199805395265
  0
LWPOLYLINE
  5
D3
100
AcDbEntity
  8
USP-GEO
100
AcDbPolyline
 90
        2
 70
   129
 43
0.0
 10
5.582968600301683
 20
2.017903925865999
 10
5.582968600301683
 20
2.033064736729004
  0
LWPOLYLINE
  5
D4
100
AcDbEntity
  8
USP-GEO
100
AcDbPolyline
 90
        2
 70
   129
 43
0.0
 10
5.582968600301683
 20
2.124787642450186
 10
5.582968600301683
 20
2.109626831587181
  0
LWPOLYLINE
  5
D5
100
AcDbEntity
  8
USP-GEO
100
AcDbPolyline
 90
        2
 70
   129
 43
0.0
 10
5.582968600301683
 20
1.942099871550972
 10
5.582968600301683
 20
1.896617438961957
  0
LWPOLYLINE
  5
D6
100
AcDbEntity
  8
USP-GEO
100
AcDbPolyline
 90
        2
 70
   129
 43
0.0
 10
5.582968600301683
 20
1.85113500637294
 10
5.582968600301683
 20
1.866295817235947
  0
LWPOLYLINE
  5
D7
100
AcDbEntity
  8
USP-GEO
100
AcDbPolyline
 90
        3
 70
   128
 43
0.0
 10
5.582968600301683
 20
2.488647103162312
 10
5.582968600301683
 20
2.443164670573295
 10
5.582968600301683
 20
2.488647103162312
  0
LWPOLYLINE
  5
D8
100
AcDbEntity
  8
USP-GEO
100
AcDbPolyline
 90
        2
 70
   129
 43
0.0
 10
5.582968600301683
 20
1.896617438961957
 10
5.582968600301683
 20
1.942099871550972
  0
LWPOLYLINE
  5
D9
100
AcDbEntity
  8
USP-GEO
100
AcDbPolyline
 90
        2
 70
   128
 43
0.0
 10
5.582968600301683
 20
1.896617438961957
 10
5.582968600301683
 20
1.866295817235947
  0
LWPOLYLINE
  5
DA
100
AcDbEntity
  8
USP-GEO
100
AcDbPolyline
 90
        3
 70
   128
 43
0.0
 10
5.582968600301683
 20
2.443164670573295
 10
5.582968600301683
 20
2.488647103162312
 10
5.582968600301683
 20
2.443164670573295
  0
LWPOLYLINE
  5
DB
100
AcDbEntity
  8
USP-GEO
100
AcDbPolyline
 90
        2
 70
   128
 43
0.0
 10
5.507164545986658
 20
1.942099871550972
 10
5.507164545986658
 20
1.896617438961957
  0
LWPOLYLINE
  5
DC
100
AcDbEntity
  8
USP-GEO
100
AcDbPolyline
 90
        2
 70
   129
 43
0.0
 10
5.507164545986658
 20
2.518968724888322
 10
5.507164545986658
 20
2.534129535751327
  0
LWPOLYLINE
  5
DD
100
AcDbEntity
  8
USP-GEO
100
AcDbPolyline
 90
        2
 70
   129
 43
0.0
 10
5.507164545986658
 20
2.716059266107391
 10
5.507164545986658
 20
2.746380887833401
  0
LWPOLYLINE
  5
DE
100
AcDbEntity
  8
USP-GEO
100
AcDbPolyline
 90
        4
 70
   129
 43
0.0
 10
5.507164545986658
 20
2.518968724888322
 10
5.507164545986658
 20
2.488647103162312
 10
5.507164545986658
 20
2.443164670573295
 10
5.507164545986658
 20
2.488647103162312
  0
LWPOLYLINE
  5
DF
100
AcDbEntity
  8
USP-GEO
100
AcDbPolyline
 90
        4
 70
   129
 43
0.0
 10
5.507164545986658
 20
1.866295817235947
 10
5.507164545986658
 20
1.896617438961957
 10
5.507164545986658
 20
1.866295817235947
 10
5.507164545986658
 20
1.85113500637294
  0
LWPOLYLINE
  5
E0
100
AcDbEntity
  8
USP-GEO
100
AcDbPolyline
 90
        4
 70
   129
 43
0.0
 10
5.507164545986658
 20
1.942099871550972
 10
5.507164545986658
 20
1.987582304139987
 10
5.507164545986658
 20
2.017903925865999
 10
5.507164545986658
 20
1.987582304139987
  0
LWPOLYLINE
  5
E1
100
AcDbEntity
  8
USP-GEO
100
AcDbPolyline
 90
       12
 70
   128
 43
0.0
 10
5.507164545986658
 20
1.866295817235947
 10
5.507164545986658
 20
1.85113500637294
 10
5.507164545986658
 20
1.866295817235947
 10
5.507164545986658
 20
1.896617438961957
 10
5.507164545986658
 20
1.942099871550972
 10
5.507164545986658
 20
1.987582304139987
 10
5.507164545986658
 20
2.017903925865999
 10
5.507164545986658
 20
2.033064736729004
 10
5.507164545986658
 20
2.017903925865999
 10
5.507164545986658
 20
1.987582304139987
 10
5.507164545986658
 20
1.942099871550972
 10
5.507164545986658
 20
1.896617438961957
  0
LWPOLYLINE
  5
E2
100
AcDbEntity
  8
USP-GEO
100
AcDbPolyline
 90
        2
 70
   128
 43
0.0
 10
5.507164545986658
 20
1.942099871550972
 10
5.507164545986658
 20
1.896617438961957
  0
LWPOLYLINE
  5
E3
100
AcDbEntity
  8
USP-GEO
100
AcDbPolyline
 90
        8
 70
   129
 43
0.0
 10
5.507164545986658
 20
2.39768223798428
 10
5.507164545986658
 20
2.36736061625827
 10
5.507164545986658
 20
2.352199805395265
 10
5.507164545986658
 20
2.36736061625827
 10
5.507164545986658
 20
2.352199805395265
 10
5.507164545986658
 20
2.36736061625827
 10
5.507164545986658
 20
2.39768223798428
 10
5.507164545986658
 20
2.443164670573295
  0
LWPOLYLINE
  5
E4
100
AcDbEntity
  8
USP-GEO
100
AcDbPolyline
 90
        3
 70
   128
 43
0.0
 10
5.507164545986658
 20
2.017903925865999
 10
5.507164545986658
 20
1.987582304139987
 10
5.507164545986658
 20
1.942099871550972
  0
LWPOLYLINE
  5
E5
100
AcDbEntity
  8
USP-GEO
100
AcDbPolyline
 90
        8
 70
   129
 43
0.0
 10
5.507164545986658
 20
2.443164670573295
 10
5.507164545986658
 20
2.488647103162312
 10
5.507164545986658
 20
2.518968724888322
 10
5.507164545986658
 20
2.534129535751327
 10
5.507164545986658
 20
2.518968724888322
 10
5.507164545986658
 20
2.488647103162312
 10
5.507164545986658
 20
2.518968724888322
 10
5.507164545986658
 20
2.488647103162312
  0
LWPOLYLINE
  5
E6
100
AcDbEntity
  8
USP-GEO
100
AcDbPolyline
 90
       12
 70
   128
 43
0.0
 10
5.507164545986658
 20
2.443164670573295
 10
5.507164545986658
 20
2.39768223798428
 10
5.507164545986658
 20
2.36736061625827
 10
5.507164545986658
 20
2.39768223798428
 10
5.507164545986658
 20
2.443164670573295
 10
5.507164545986658
 20
2.488647103162312
 10
5.507164545986658
 20
2.518968724888322
 10
5.507164545986658
 20
2.534129535751327
 10
5.507164545986658
 20
2.518968724888322
 10
5.507164545986658
 20
2.488647103162312
 10
5.507164545986658
 20
2.443164670573295
 10
5.507164545986658
 20
2.39768223798428
  0
LWPOLYLINE
  5
E7
100
AcDbEntity
  8
USP-GEO
100
AcDbPolyline
 90
       10
 70
   129
 43
0.0
 10
5.507164545986658
 20
2.36736061625827
 10
5.507164545986658
 20
2.352199805395265
 10
5.507164545986658
 20
2.36736061625827
 10
5.507164545986658
 20
2.39768223798428
 10
5.507164545986658
 20
2.443164670573295
 10
5.507164545986658
 20
2.488647103162312
 10
5.507164545986658
 20
2.443164670573295
 10
5.507164545986658
 20
2.39768223798428
 10
5.507164545986658
 20
2.36736061625827
 10
5.507164545986658
 20
2.352199805395265
  0
LWPOLYLINE
  5
E8
100
AcDbEntity
  8
USP-GEO
100
AcDbPolyline
 90
        2
 70
   129
 43
0.0
 10
5.507164545986658
 20
2.033064736729004
 10
5.507164545986658
 20
2.017903925865999
  0
LWPOLYLINE
  5
E9
100
AcDbEntity
  8
USP-GEO
100
AcDbPolyline
 90
        4
 70
   128
 43
0.0
 10
5.507164545986658
 20
2.017903925865999
 10
5.507164545986658
 20
1.987582304139987
 10
5.507164545986658
 20
1.942099871550972
 10
5.507164545986658
 20
1.896617438961957
  0
LWPOLYLINE
  5
EA
100
AcDbEntity
  8
USP-GEO
100
AcDbPolyline
 90
        2
 70
   128
 43
0.0
 10
5.507164545986658
 20
1.866295817235947
 10
5.507164545986658
 20
1.896617438961957
  0
LWPOLYLINE
  5
EB
100
AcDbEntity
  8
USP-GEO
100
AcDbPolyline
 90
        2
 70
   129
 43
0.0
 10
5.507164545986658
 20
1.866295817235947
 10
5.507164545986658
 20
1.85113500637294
  0
LWPOLYLINE
  5
EC
100
AcDbEntity
  8
USP-GEO
100
AcDbPolyline
 90
        3
 70
   128
 43
0.0
 10
5.582968600301683
 20
2.124787642450186
 10
5.507164545986658
 20
2.124787642450186
 10
5.507922586529808
 20
2.124787642450186
  0
LWPOLYLINE
  5
ED
100
AcDbEntity
  8
USP-GEO
100
AcDbPolyline
 90
        8
 70
   129
 43
0.0
 10
5.507164545986658
 20
1.987582304139987
 10
5.507164545986658
 20
1.942099871550972
 10
5.507164545986658
 20
1.896617438961957
 10
5.507164545986658
 20
1.866295817235947
 10
5.507164545986658
 20
1.85113500637294
 10
5.507164545986658
 20
1.866295817235947
 10
5.507164545986658
 20
1.896617438961957
 10
5.507164545986658
 20
1.942099871550972
  0
LWPOLYLINE
  5
EE
100
AcDbEntity
  8
USP-GEO
100
AcDbPolyline
 90
        2
 70
   128
 43
0.0
 10
5.507164545986658
 20
2.39768223798428
 10
5.507164545986658
 20
2.443164670573295
  0
LWPOLYLINE
  5
EF
100
AcDbEntity
  8
USP-GEO
100
AcDbPolyline
 90
        4
 70
   129
 43
0.0
 10
5.507164545986658
 20
2.094466020724174
 10
5.507164545986658
 20
2.109626831587181
 10
5.507164545986658
 20
2.124787642450186
 10
5.507164545986658
 20
2.109626831587181
  0
LWPOLYLINE
  5
F0
100
AcDbEntity
  8
USP-GEO
100
AcDbPolyline
 90
        2
 70
   129
 43
0.0
 10
5.507164545986658
 20
2.39768223798428
 10
5.507164545986658
 20
2.36736061625827
  0
LWPOLYLINE
  5
F1
100
AcDbEntity
  8
USP-GEO
100
AcDbPolyline
 90
        4
 70
   129
 43
0.0
 10
5.507164545986658
 20
2.017903925865999
 10
5.507164545986658
 20
2.033064736729004
 10
5.507164545986658
 20
2.017903925865999
 10
5.507164545986658
 20
2.033064736729004
  0
LWPOLYLINE
  5
F2
100
AcDbEntity
  8
USP-GEO
100
AcDbPolyline
 90
        2
 70
   128
 43
0.0
 10
5.507164545986658
 20
1.896617438961957
 10
5.507164545986658
 20
1.942099871550972
  0
LWPOLYLINE
  5
F3
100
AcDbEntity
  8
USP-GEO
100
AcDbPolyline
 90
        3
 70
   128
 43
0.0
 10
5.507164545986658
 20
2.518968724888322
 10
5.507164545986658
 20
2.534129535751327
 10
5.507164545986658
 20
2.518968724888322
  0
LWPOLYLINE
  5
F4
100
AcDbEntity
  8
USP-GEO
100
AcDbPolyline
 90
        2
 70
   129
 43
0.0
 10
5.507164545986658
 20
1.896617438961957
 10
5.507164545986658
 20
1.866295817235947
  0
LWPOLYLINE
  5
F5
100
AcDbEntity
  8
USP-GEO
100
AcDbPolyline
 90
        2
 70
   129
 43
0.0
 10
5.507164545986658
 20
1.987582304139987
 10
5.507164545986658
 20
2.017903925865999
  0
LWPOLYLINE
  5
F6
100
AcDbEntity
  8
USP-GEO
100
AcDbPolyline
 90
        4
 70
   128
 43
0.0
 10
5.582968600301683
 20
2.124787642450186
 10
5.582968600301683
 20
2.109626831587181
 10
5.582968600301683
 20
2.094466020724174
 10
5.507164545986658
 20
2.094466020724174
  0
LWPOLYLINE
  5
F7
100
AcDbEntity
  8
USP-GEO
100
AcDbPolyline
 90
        2
 70
   129
 43
0.0
 10
5.583726640844833
 20
2.124787642450186
 10
5.582968600301683
 20
2.124787642450186
  0
LWPOLYLINE
  5
F8
100
AcDbEntity
  8
USP-GEO
100
AcDbPolyline
 90
        2
 70
   129
 43
0.0
 10
5.582968600301683
 20
2.124787642450186
 10
5.507164545986658
 20
2.124787642450186
  0
LWPOLYLINE
  5
F9
100
AcDbEntity
  8
USP-GEO
100
AcDbPolyline
 90
       14
 70
   129
 43
0.0
 10
5.582968600301683
 20
2.352199805395265
 10
5.582968600301683
 20
2.36736061625827
 10
5.582968600301683
 20
2.39768223798428
 10
5.582968600301683
 20
2.443164670573295
 10
5.582968600301683
 20
2.488647103162312
 10
5.582968600301683
 20
2.518968724888322
 10
5.582968600301683
 20
2.534129535751327
 10
5.507164545986658
 20
2.534129535751327
 10
5.507164545986658
 20
2.518968724888322
 10
5.507164545986658
 20
2.488647103162312
 10
5.507164545986658
 20
2.443164670573295
 10
5.507164545986658
 20
2.39768223798428
 10
5.507164545986658
 20
2.36736061625827
 10
5.507164545986658
 20
2.352199805395265
  0
LWPOLYLINE
  5
FA
100
AcDbEntity
  8
USP-GEO
100
AcDbPolyline
 90
       14
 70
   129
 43
0.0
 10
5.507164545986658
 20
1.866295817235947
 10
5.507164545986658
 20
1.85113500637294
 10
5.582968600301683
 20
1.85113500637294
 10
5.582968600301683
 20
1.866295817235947
 10
5.582968600301683
 20
1.896617438961957
 10
5.582968600301683
 20
1.942099871550972
 10
5.582968600301683
 20
1.987582304139987
 10
5.582968600301683
 20
2.017903925865999
 10
5.582968600301683
 20
2.033064736729004
 10
5.507164545986658
 20
2.033064736729004
 10
5.507164545986658
 20
2.017903925865999
 10
5.507164545986658
 20
1.987582304139987
 10
5.507164545986658
 20
1.942099871550972
 10
5.507164545986658
 20
1.896617438961957
  0
LWPOLYLINE
  5
FB
100
AcDbEntity
  8
USP-GEO
100
AcDbPolyline
 90
        7
 70
   128
 43
0.0
 10
5.507164545986658
 20
2.883586226143599
 10
5.507164545986658
 20
2.959390280458626
 10
5.507164545986658
 20
3.020033523910646
 10
5.507164545986658
 20
3.035194334773651
 10
5.507164545986658
 20
3.020033523910646
 10
5.507164545986658
 20
2.959390280458626
 10
5.507164545986658
 20
2.883586226143599
  0
LWPOLYLINE
  5
FC
100
AcDbEntity
  8
USP-GEO
100
AcDbPolyline
 90
        4
 70
   129
 43
0.0
 10
5.507164545986658
 20
3.20196325426671
 10
5.507164545986658
 20
3.126159199951683
 10
5.582968600301683
 20
3.126159199951683
 10
5.582968600301683
 20
3.20196325426671
  0
LWPOLYLINE
  5
FD
100
AcDbEntity
  8
USP-GEO
100
AcDbPolyline
 90
        4
 70
   128
 43
0.0
 10
5.582968600301683
 20
3.126159199951683
 10
5.582968600301683
 20
3.035194334773651
 10
5.507164545986658
 20
3.035194334773651
 10
5.507164545986658
 20
3.126159199951683
  0
LWPOLYLINE
  5
FE
100
AcDbEntity
  8
USP-GEO
100
AcDbPolyline
 90
        3
 70
   128
 43
0.0
 10
5.582968600301683
 20
3.004872713047641
 10
5.582968600301683
 20
3.020033523910646
 10
5.582968600301683
 20
3.035194334773651
  0
LWPOLYLINE
  5
FF
100
AcDbEntity
  8
USP-GEO
100
AcDbPolyline
 90
        2
 70
   129
 43
0.0
 10
5.507922586529808
 20
3.004872713047641
 10
5.507164545986658
 20
3.004872713047641
  0
LWPOLYLINE
  5
100
100
AcDbEntity
  8
USP-GEO
100
AcDbPolyline
 90
        5
 70
   128
 43
0.0
 10
5.507164545986658
 20
3.035194334773651
 10
5.507164545986658
 20
3.020033523910646
 10
5.507164545986658
 20
3.004872713047641
 10
5.582968600301683
 20
3.004872713047641
 10
5.583726640844833
 20
3.004872713047641
  0
LWPOLYLINE
  5
101
100
AcDbEntity
  8
USP-GEO
100
AcDbPolyline
 90
       29
 70
   128
 43
0.0
 10
6.083275358780856
 20
3.20196325426671
 10
6.128757791369874
 20
3.20196325426671
 10
6.083275358780856
 20
3.20196325426671
 10
6.128757791369874
 20
3.20196325426671
 10
6.083275358780856
 20
3.20196325426671
 10
6.128757791369874
 20
3.20196325426671
 10
6.083275358780856
 20
3.20196325426671
 10
6.128757791369874
 20
3.20196325426671
 10
6.083275358780856
 20
3.20196325426671
 10
6.128757791369874
 20
3.20196325426671
 10
6.083275358780856
 20
3.20196325426671
 10
6.128757791369874
 20
3.20196325426671
 10
6.083275358780856
 20
3.20196325426671
 10
6.128757791369874
 20
3.20196325426671
 10
6.083275358780856
 20
3.20196325426671
 10
6.037792926191841
 20
3.20196325426671
 10
6.083275358780856
 20
3.20196325426671
 10
6.037792926191841
 20
3.20196325426671
 10
6.083275358780856
 20
3.20196325426671
 10
6.037792926191841
 20
3.20196325426671
 10
6.083275358780856
 20
3.20196325426671
 10
6.037792926191841
 20
3.20196325426671
 10
6.083275358780856
 20
3.20196325426671
 10
6.037792926191841
 20
3.20196325426671
 10
6.083275358780856
 20
3.20196325426671
 10
6.037792926191841
 20
3.20196325426671
 10
6.083275358780856
 20
3.20196325426671
 10
6.037792926191841
 20
3.20196325426671
 10
6.083275358780856
 20
3.20196325426671
  0
LWPOLYLINE
  5
102
100
AcDbEntity
  8
USP-GEO
100
AcDbPolyline
 90
        2
 70
   129
 43
0.0
 10
6.128757791369874
 20
3.126159199951683
 10
6.083275358780856
 20
3.126159199951683
  0
LWPOLYLINE
  5
103
100
AcDbEntity
  8
USP-GEO
100
AcDbPolyline
 90
       27
 70
   128
 43
0.0
 10
6.128757791369874
 20
3.126159199951683
 10
6.159079413095884
 20
3.126159199951683
 10
6.128757791369874
 20
3.126159199951683
 10
6.159079413095884
 20
3.126159199951683
 10
6.128757791369874
 20
3.126159199951683
 10
6.159079413095884
 20
3.126159199951683
 10
6.128757791369874
 20
3.126159199951683
 10
6.159079413095884
 20
3.126159199951683
 10
6.128757791369874
 20
3.126159199951683
 10
6.159079413095884
 20
3.126159199951683
 10
6.128757791369874
 20
3.126159199951683
 10
6.159079413095884
 20
3.126159199951683
 10
6.128757791369874
 20
3.126159199951683
 10
6.159079413095884
 20
3.126159199951683
 10
6.128757791369874
 20
3.126159199951683
 10
6.083275358780856
 20
3.126159199951683
 10
6.128757791369874
 20
3.126159199951683
 10
6.083275358780856
 20
3.126159199951683
 10
6.128757791369874
 20
3.126159199951683
 10
6.083275358780856
 20
3.126159199951683
 10
6.128757791369874
 20
3.126159199951683
 10
6.083275358780856
 20
3.126159199951683
 10
6.128757791369874
 20
3.126159199951683
 10
6.083275358780856
 20
3.126159199951683
 10
6.128757791369874
 20
3.126159199951683
 10
6.083275358780856
 20
3.126159199951683
 10
6.128757791369874
 20
3.126159199951683
  0
LWPOLYLINE
  5
104
100
AcDbEntity
  8
USP-GEO
100
AcDbPolyline
 90
       14
 70
   129
 43
0.0
 10
6.174240223958889
 20
3.20196325426671
 10
6.159079413095884
 20
3.20196325426671
 10
6.128757791369874
 20
3.20196325426671
 10
6.083275358780856
 20
3.20196325426671
 10
6.037792926191841
 20
3.20196325426671
 10
6.00747130446583
 20
3.20196325426671
 10
5.992310493602825
 20
3.20196325426671
 10
5.992310493602825
 20
3.126159199951683
 10
6.00747130446583
 20
3.126159199951683
 10
6.037792926191841
 20
3.126159199951683
 10
6.083275358780856
 20
3.126159199951683
 10
6.128757791369874
 20
3.126159199951683
 10
6.159079413095884
 20
3.126159199951683
 10
6.174240223958889
 20
3.126159199951683
  0
LWPOLYLINE
  5
105
100
AcDbEntity
  8
USP-GEO
100
AcDbPolyline
 90
       15
 70
   128
 43
0.0
 10
5.992310493602825
 20
3.20196325426671
 10
6.00747130446583
 20
3.20196325426671
 10
5.992310493602825
 20
3.20196325426671
 10
6.00747130446583
 20
3.20196325426671
 10
5.992310493602825
 20
3.20196325426671
 10
6.00747130446583
 20
3.20196325426671
 10
5.992310493602825
 20
3.20196325426671
 10
6.00747130446583
 20
3.20196325426671
 10
5.992310493602825
 20
3.20196325426671
 10
6.00747130446583
 20
3.20196325426671
 10
5.992310493602825
 20
3.20196325426671
 10
6.00747130446583
 20
3.20196325426671
 10
5.992310493602825
 20
3.20196325426671
 10
6.00747130446583
 20
3.20196325426671
 10
5.992310493602825
 20
3.20196325426671
  0
LWPOLYLINE
  5
106
100
AcDbEntity
  8
USP-GEO
100
AcDbPolyline
 90
       14
 70
   129
 43
0.0
 10
6.037792926191841
 20
3.20196325426671
 10
6.00747130446583
 20
3.20196325426671
 10
6.037792926191841
 20
3.20196325426671
 10
6.00747130446583
 20
3.20196325426671
 10
6.037792926191841
 20
3.20196325426671
 10
6.00747130446583
 20
3.20196325426671
 10
6.037792926191841
 20
3.20196325426671
 10
6.00747130446583
 20
3.20196325426671
 10
6.037792926191841
 20
3.20196325426671
 10
6.00747130446583
 20
3.20196325426671
 10
6.037792926191841
 20
3.20196325426671
 10
6.00747130446583
 20
3.20196325426671
 10
6.037792926191841
 20
3.20196325426671
 10
6.00747130446583
 20
3.20196325426671
  0
LWPOLYLINE
  5
107
100
AcDbEntity
  8
USP-GEO
100
AcDbPolyline
 90
       29
 70
   128
 43
0.0
 10
6.00747130446583
 20
3.126159199951683
 10
6.037792926191841
 20
3.126159199951683
 10
6.00747130446583
 20
3.126159199951683
 10
6.037792926191841
 20
3.126159199951683
 10
6.00747130446583
 20
3.126159199951683
 10
6.037792926191841
 20
3.126159199951683
 10
6.00747130446583
 20
3.126159199951683
 10
6.037792926191841
 20
3.126159199951683
 10
6.00747130446583
 20
3.126159199951683
 10
6.037792926191841
 20
3.126159199951683
 10
6.00747130446583
 20
3.126159199951683
 10
6.037792926191841
 20
3.126159199951683
 10
6.00747130446583
 20
3.126159199951683
 10
6.037792926191841
 20
3.126159199951683
 10
6.00747130446583
 20
3.126159199951683
 10
5.992310493602825
 20
3.126159199951683
 10
6.00747130446583
 20
3.126159199951683
 10
5.992310493602825
 20
3.126159199951683
 10
6.00747130446583
 20
3.126159199951683
 10
5.992310493602825
 20
3.126159199951683
 10
6.00747130446583
 20
3.126159199951683
 10
5.992310493602825
 20
3.126159199951683
 10
6.00747130446583
 20
3.126159199951683
 10
5.992310493602825
 20
3.126159199951683
 10
6.00747130446583
 20
3.126159199951683
 10
5.992310493602825
 20
3.126159199951683
 10
6.00747130446583
 20
3.126159199951683
 10
5.992310493602825
 20
3.126159199951683
 10
6.00747130446583
 20
3.126159199951683
  0
LWPOLYLINE
  5
108
100
AcDbEntity
  8
USP-GEO
100
AcDbPolyline
 90
       10
 70
   129
 43
0.0
 10
6.083275358780856
 20
3.126159199951683
 10
6.037792926191841
 20
3.126159199951683
 10
6.083275358780856
 20
3.126159199951683
 10
6.037792926191841
 20
3.126159199951683
 10
6.083275358780856
 20
3.126159199951683
 10
6.037792926191841
 20
3.126159199951683
 10
6.083275358780856
 20
3.126159199951683
 10
6.037792926191841
 20
3.126159199951683
 10
6.083275358780856
 20
3.126159199951683
 10
6.037792926191841
 20
3.126159199951683
  0
LWPOLYLINE
  5
109
100
AcDbEntity
  8
USP-GEO
100
AcDbPolyline
 90
        3
 70
   128
 43
0.0
 10
6.037792926191841
 20
3.126159199951683
 10
6.083275358780856
 20
3.126159199951683
 10
6.037792926191841
 20
3.126159199951683
  0
LWPOLYLINE
  5
10A
100
AcDbEntity
  8
USP-GEO
100
AcDbPolyline
 90
        2
 70
   129
 43
0.0
 10
6.037792926191841
 20
3.126159199951683
 10
6.083275358780856
 20
3.126159199951683
  0
LWPOLYLINE
  5
10B
100
AcDbEntity
  8
USP-GEO
100
AcDbPolyline
 90
       14
 70
   129
 43
0.0
 10
6.159079413095884
 20
3.20196325426671
 10
6.128757791369874
 20
3.20196325426671
 10
6.159079413095884
 20
3.20196325426671
 10
6.128757791369874
 20
3.20196325426671
 10
6.159079413095884
 20
3.20196325426671
 10
6.128757791369874
 20
3.20196325426671
 10
6.159079413095884
 20
3.20196325426671
 10
6.128757791369874
 20
3.20196325426671
 10
6.159079413095884
 20
3.20196325426671
 10
6.128757791369874
 20
3.20196325426671
 10
6.159079413095884
 20
3.20196325426671
 10
6.128757791369874
 20
3.20196325426671
 10
6.159079413095884
 20
3.20196325426671
 10
6.128757791369874
 20
3.20196325426671
  0
LWPOLYLINE
  5
10C
100
AcDbEntity
  8
USP-GEO
100
AcDbPolyline
 90
       15
 70
   128
 43
0.0
 10
6.174240223958889
 20
3.20196325426671
 10
6.159079413095884
 20
3.20196325426671
 10
6.174240223958889
 20
3.20196325426671
 10
6.159079413095884
 20
3.20196325426671
 10
6.174240223958889
 20
3.20196325426671
 10
6.159079413095884
 20
3.20196325426671
 10
6.174240223958889
 20
3.20196325426671
 10
6.159079413095884
 20
3.20196325426671
 10
6.174240223958889
 20
3.20196325426671
 10
6.159079413095884
 20
3.20196325426671
 10
6.174240223958889
 20
3.20196325426671
 10
6.159079413095884
 20
3.20196325426671
 10
6.174240223958889
 20
3.20196325426671
 10
6.159079413095884
 20
3.20196325426671
 10
6.174240223958889
 20
3.20196325426671
  0
LWPOLYLINE
  5
10D
100
AcDbEntity
  8
USP-GEO
100
AcDbPolyline
 90
       15
 70
   128
 43
0.0
 10
6.174240223958889
 20
3.126159199951683
 10
6.159079413095884
 20
3.126159199951683
 10
6.174240223958889
 20
3.126159199951683
 10
6.159079413095884
 20
3.126159199951683
 10
6.174240223958889
 20
3.126159199951683
 10
6.159079413095884
 20
3.126159199951683
 10
6.174240223958889
 20
3.126159199951683
 10
6.159079413095884
 20
3.126159199951683
 10
6.174240223958889
 20
3.126159199951683
 10
6.159079413095884
 20
3.126159199951683
 10
6.174240223958889
 20
3.126159199951683
 10
6.159079413095884
 20
3.126159199951683
 10
6.174240223958889
 20
3.126159199951683
 10
6.159079413095884
 20
3.126159199951683
 10
6.174240223958889
 20
3.126159199951683
  0
LWPOLYLINE
  5
10E
100
AcDbEntity
  8
USP-GEO
100
AcDbPolyline
 90
       21
 70
   128
 43
0.0
 10
6.735948266433233
 20
3.20196325426671
 10
6.781430699022248
 20
3.20196325426671
 10
6.735948266433233
 20
3.20196325426671
 10
6.781430699022248
 20
3.20196325426671
 10
6.735948266433233
 20
3.20196325426671
 10
6.781430699022248
 20
3.20196325426671
 10
6.735948266433233
 20
3.20196325426671
 10
6.781430699022248
 20
3.20196325426671
 10
6.735948266433233
 20
3.20196325426671
 10
6.781430699022248
 20
3.20196325426671
 10
6.735948266433233
 20
3.20196325426671
 10
6.705626644707223
 20
3.20196325426671
 10
6.735948266433233
 20
3.20196325426671
 10
6.705626644707223
 20
3.20196325426671
 10
6.735948266433233
 20
3.20196325426671
 10
6.705626644707223
 20
3.20196325426671
 10
6.735948266433233
 20
3.20196325426671
 10
6.705626644707223
 20
3.20196325426671
 10
6.735948266433233
 20
3.20196325426671
 10
6.705626644707223
 20
3.20196325426671
 10
6.735948266433233
 20
3.20196325426671
  0
LWPOLYLINE
  5
10F
100
AcDbEntity
  8
USP-GEO
100
AcDbPolyline
 90
       20
 70
   129
 43
0.0
 10
6.735948266433233
 20
3.126159199951683
 10
6.705626644707223
 20
3.126159199951683
 10
6.735948266433233
 20
3.126159199951683
 10
6.705626644707223
 20
3.126159199951683
 10
6.735948266433233
 20
3.126159199951683
 10
6.705626644707223
 20
3.126159199951683
 10
6.735948266433233
 20
3.126159199951683
 10
6.705626644707223
 20
3.126159199951683
 10
6.735948266433233
 20
3.126159199951683
 10
6.705626644707223
 20
3.126159199951683
 10
6.735948266433233
 20
3.126159199951683
 10
6.781430699022248
 20
3.126159199951683
 10
6.735948266433233
 20
3.126159199951683
 10
6.781430699022248
 20
3.126159199951683
 10
6.735948266433233
 20
3.126159199951683
 10
6.781430699022248
 20
3.126159199951683
 10
6.735948266433233
 20
3.126159199951683
 10
6.781430699022248
 20
3.126159199951683
 10
6.735948266433233
 20
3.126159199951683
 10
6.781430699022248
 20
3.126159199951683
  0
LWPOLYLINE
  5
110
100
AcDbEntity
  8
USP-GEO
100
AcDbPolyline
 90
       14
 70
   129
 43
0.0
 10
6.857234753337277
 20
3.20196325426671
 10
6.826913131611267
 20
3.20196325426671
 10
6.781430699022248
 20
3.20196325426671
 10
6.735948266433233
 20
3.20196325426671
 10
6.705626644707223
 20
3.20196325426671
 10
6.690465833844218
 20
3.20196325426671
 10
6.690465833844218
 20
3.126159199951683
 10
6.705626644707223
 20
3.126159199951683
 10
6.735948266433233
 20
3.126159199951683
 10
6.781430699022248
 20
3.126159199951683
 10
6.826913131611267
 20
3.126159199951683
 10
6.857234753337277
 20
3.126159199951683
 10
6.872395564200282
 20
3.126159199951683
 10
6.872395564200282
 20
3.20196325426671
  0
LWPOLYLINE
  5
111
100
AcDbEntity
  8
USP-GEO
100
AcDbPolyline
 90
       11
 70
   128
 43
0.0
 10
6.705626644707223
 20
3.20196325426671
 10
6.690465833844218
 20
3.20196325426671
 10
6.705626644707223
 20
3.20196325426671
 10
6.690465833844218
 20
3.20196325426671
 10
6.705626644707223
 20
3.20196325426671
 10
6.690465833844218
 20
3.20196325426671
 10
6.705626644707223
 20
3.20196325426671
 10
6.690465833844218
 20
3.20196325426671
 10
6.705626644707223
 20
3.20196325426671
 10
6.690465833844218
 20
3.20196325426671
 10
6.705626644707223
 20
3.20196325426671
  0
LWPOLYLINE
  5
112
100
AcDbEntity
  8
USP-GEO
100
AcDbPolyline
 90
       11
 70
   128
 43
0.0
 10
6.690465833844218
 20
3.126159199951683
 10
6.705626644707223
 20
3.126159199951683
 10
6.690465833844218
 20
3.126159199951683
 10
6.705626644707223
 20
3.126159199951683
 10
6.690465833844218
 20
3.126159199951683
 10
6.705626644707223
 20
3.126159199951683
 10
6.690465833844218
 20
3.126159199951683
 10
6.705626644707223
 20
3.126159199951683
 10
6.690465833844218
 20
3.126159199951683
 10
6.705626644707223
 20
3.126159199951683
 10
6.690465833844218
 20
3.126159199951683
  0
LWPOLYLINE
  5
113
100
AcDbEntity
  8
USP-GEO
100
AcDbPolyline
 90
        4
 70
   128
 43
0.0
 10
7.084646916282355
 20
3.20196325426671
 10
7.06948610541935
 20
3.20196325426671
 10
7.008842861967327
 20
3.20196325426671
 10
6.917877996789297
 20
3.20196325426671
  0
LWPOLYLINE
  5
114
100
AcDbEntity
  8
USP-GEO
100
AcDbPolyline
 90
       10
 70
   129
 43
0.0
 10
6.826913131611267
 20
3.20196325426671
 10
6.781430699022248
 20
3.20196325426671
 10
6.826913131611267
 20
3.20196325426671
 10
6.781430699022248
 20
3.20196325426671
 10
6.826913131611267
 20
3.20196325426671
 10
6.781430699022248
 20
3.20196325426671
 10
6.826913131611267
 20
3.20196325426671
 10
6.781430699022248
 20
3.20196325426671
 10
6.826913131611267
 20
3.20196325426671
 10
6.781430699022248
 20
3.20196325426671
  0
LWPOLYLINE
  5
115
100
AcDbEntity
  8
USP-GEO
100
AcDbPolyline
 90
       21
 70
   128
 43
0.0
 10
6.857234753337277
 20
3.20196325426671
 10
6.872395564200282
 20
3.20196325426671
 10
6.857234753337277
 20
3.20196325426671
 10
6.872395564200282
 20
3.20196325426671
 10
6.857234753337277
 20
3.20196325426671
 10
6.872395564200282
 20
3.20196325426671
 10
6.857234753337277
 20
3.20196325426671
 10
6.872395564200282
 20
3.20196325426671
 10
6.857234753337277
 20
3.20196325426671
 10
6.872395564200282
 20
3.20196325426671
 10
6.857234753337277
 20
3.20196325426671
 10
6.826913131611267
 20
3.20196325426671
 10
6.857234753337277
 20
3.20196325426671
 10
6.826913131611267
 20
3.20196325426671
 10
6.857234753337277
 20
3.20196325426671
 10
6.826913131611267
 20
3.20196325426671
 10
6.857234753337277
 20
3.20196325426671
 10
6.826913131611267
 20
3.20196325426671
 10
6.857234753337277
 20
3.20196325426671
 10
6.826913131611267
 20
3.20196325426671
 10
6.857234753337277
 20
3.20196325426671
  0
LWPOLYLINE
  5
116
100
AcDbEntity
  8
USP-GEO
100
AcDbPolyline
 90
       21
 70
   128
 43
0.0
 10
6.826913131611267
 20
3.126159199951683
 10
6.857234753337277
 20
3.126159199951683
 10
6.826913131611267
 20
3.126159199951683
 10
6.857234753337277
 20
3.126159199951683
 10
6.826913131611267
 20
3.126159199951683
 10
6.857234753337277
 20
3.126159199951683
 10
6.826913131611267
 20
3.126159199951683
 10
6.857234753337277
 20
3.126159199951683
 10
6.826913131611267
 20
3.126159199951683
 10
6.857234753337277
 20
3.126159199951683
 10
6.826913131611267
 20
3.126159199951683
 10
6.781430699022248
 20
3.126159199951683
 10
6.826913131611267
 20
3.126159199951683
 10
6.781430699022248
 20
3.126159199951683
 10
6.826913131611267
 20
3.126159199951683
 10
6.781430699022248
 20
3.126159199951683
 10
6.826913131611267
 20
3.126159199951683
 10
6.781430699022248
 20
3.126159199951683
 10
6.826913131611267
 20
3.126159199951683
 10
6.781430699022248
 20
3.126159199951683
 10
6.826913131611267
 20
3.126159199951683
  0
LWPOLYLINE
  5
117
100
AcDbEntity
  8
USP-GEO
100
AcDbPolyline
 90
       11
 70
   128
 43
0.0
 10
6.872395564200282
 20
3.126159199951683
 10
6.857234753337277
 20
3.126159199951683
 10
6.872395564200282
 20
3.126159199951683
 10
6.857234753337277
 20
3.126159199951683
 10
6.872395564200282
 20
3.126159199951683
 10
6.857234753337277
 20
3.126159199951683
 10
6.872395564200282
 20
3.126159199951683
 10
6.857234753337277
 20
3.126159199951683
 10
6.872395564200282
 20
3.126159199951683
 10
6.857234753337277
 20
3.126159199951683
 10
6.872395564200282
 20
3.126159199951683
  0
LWPOLYLINE
  5
118
100
AcDbEntity
  8
USP-GEO
100
AcDbPolyline
 90
        2
 70
   129
 43
0.0
 10
7.084646916282355
 20
3.20196325426671
 10
7.084646916282355
 20
3.126159199951683
  0
LWPOLYLINE
  5
119
100
AcDbEntity
  8
USP-GEO
100
AcDbPolyline
 90
        2
 70
   129
 43
0.0
 10
7.084646916282355
 20
3.20196325426671
 10
7.084646916282355
 20
3.126159199951683
  0
LWPOLYLINE
  5
11A
100
AcDbEntity
  8
USP-GEO
100
AcDbPolyline
 90
        4
 70
   128
 43
0.0
 10
7.114968538008366
 20
3.126159199951683
 10
7.099807727145361
 20
3.126159199951683
 10
7.084646916282355
 20
3.126159199951683
 10
7.085404956825506
 20
3.126159199951683
  0
LWPOLYLINE
  5
11B
100
AcDbEntity
  8
USP-GEO
100
AcDbPolyline
 90
        7
 70
   128
 43
0.0
 10
7.281737457501421
 20
3.20196325426671
 10
7.327219890090439
 20
3.20196325426671
 10
7.281737457501421
 20
3.20196325426671
 10
7.236255024912406
 20
3.20196325426671
 10
7.281737457501421
 20
3.20196325426671
 10
7.236255024912406
 20
3.20196325426671
 10
7.281737457501421
 20
3.20196325426671
  0
LWPOLYLINE
  5
11C
100
AcDbEntity
  8
USP-GEO
100
AcDbPolyline
 90
        2
 70
   129
 43
0.0
 10
7.281737457501421
 20
3.20196325426671
 10
7.327219890090439
 20
3.20196325426671
  0
LWPOLYLINE
  5
11D
100
AcDbEntity
  8
USP-GEO
100
AcDbPolyline
 90
        4
 70
   129
 43
0.0
 10
7.327219890090439
 20
3.126159199951683
 10
7.281737457501421
 20
3.126159199951683
 10
7.327219890090439
 20
3.126159199951683
 10
7.281737457501421
 20
3.126159199951683
  0
LWPOLYLINE
  5
11E
100
AcDbEntity
  8
USP-GEO
100
AcDbPolyline
 90
       14
 70
   129
 43
0.0
 10
7.357541511816449
 20
3.20196325426671
 10
7.327219890090439
 20
3.20196325426671
 10
7.281737457501421
 20
3.20196325426671
 10
7.236255024912406
 20
3.20196325426671
 10
7.205933403186396
 20
3.20196325426671
 10
7.190772592323391
 20
3.20196325426671
 10
7.190772592323391
 20
3.126159199951683
 10
7.205933403186396
 20
3.126159199951683
 10
7.236255024912406
 20
3.126159199951683
 10
7.281737457501421
 20
3.126159199951683
 10
7.327219890090439
 20
3.126159199951683
 10
7.357541511816449
 20
3.126159199951683
 10
7.372702322679455
 20
3.126159199951683
 10
7.372702322679455
 20
3.20196325426671
  0
LWPOLYLINE
  5
11F
100
AcDbEntity
  8
USP-GEO
100
AcDbPolyline
 90
        9
 70
   128
 43
0.0
 10
7.205933403186396
 20
3.20196325426671
 10
7.236255024912406
 20
3.20196325426671
 10
7.205933403186396
 20
3.20196325426671
 10
7.236255024912406
 20
3.20196325426671
 10
7.205933403186396
 20
3.20196325426671
 10
7.190772592323391
 20
3.20196325426671
 10
7.205933403186396
 20
3.20196325426671
 10
7.190772592323391
 20
3.20196325426671
 10
7.205933403186396
 20
3.20196325426671
  0
LWPOLYLINE
  5
120
100
AcDbEntity
  8
USP-GEO
100
AcDbPolyline
 90
        5
 70
   128
 43
0.0
 10
7.190772592323391
 20
3.126159199951683
 10
7.205933403186396
 20
3.126159199951683
 10
7.190772592323391
 20
3.126159199951683
 10
7.205933403186396
 20
3.126159199951683
 10
7.190772592323391
 20
3.126159199951683
  0
LWPOLYLINE
  5
121
100
AcDbEntity
  8
USP-GEO
100
AcDbPolyline
 90
        5
 70
   128
 43
0.0
 10
7.236255024912406
 20
3.126159199951683
 10
7.205933403186396
 20
3.126159199951683
 10
7.236255024912406
 20
3.126159199951683
 10
7.205933403186396
 20
3.126159199951683
 10
7.236255024912406
 20
3.126159199951683
  0
LWPOLYLINE
  5
122
100
AcDbEntity
  8
USP-GEO
100
AcDbPolyline
 90
        5
 70
   128
 43
0.0
 10
7.281737457501421
 20
3.126159199951683
 10
7.236255024912406
 20
3.126159199951683
 10
7.281737457501421
 20
3.126159199951683
 10
7.236255024912406
 20
3.126159199951683
 10
7.281737457501421
 20
3.126159199951683
  0
LWPOLYLINE
  5
123
100
AcDbEntity
  8
USP-GEO
100
AcDbPolyline
 90
        9
 70
   128
 43
0.0
 10
7.357541511816449
 20
3.20196325426671
 10
7.372702322679455
 20
3.20196325426671
 10
7.357541511816449
 20
3.20196325426671
 10
7.372702322679455
 20
3.20196325426671
 10
7.357541511816449
 20
3.20196325426671
 10
7.327219890090439
 20
3.20196325426671
 10
7.357541511816449
 20
3.20196325426671
 10
7.327219890090439
 20
3.20196325426671
 10
7.357541511816449
 20
3.20196325426671
  0
LWPOLYLINE
  5
124
100
AcDbEntity
  8
USP-GEO
100
AcDbPolyline
 90
        9
 70
   128
 43
0.0
 10
7.357541511816449
 20
3.126159199951683
 10
7.372702322679455
 20
3.126159199951683
 10
7.357541511816449
 20
3.126159199951683
 10
7.372702322679455
 20
3.126159199951683
 10
7.357541511816449
 20
3.126159199951683
 10
7.327219890090439
 20
3.126159199951683
 10
7.357541511816449
 20
3.126159199951683
 10
7.327219890090439
 20
3.126159199951683
 10
7.357541511816449
 20
3.126159199951683
  0
LWPOLYLINE
  5
125
100
AcDbEntity
  8
USP-GEO
100
AcDbPolyline
 90
        2
 70
   129
 43
0.0
 10
7.569792863898523
 20
3.20196325426671
 10
7.584953674761528
 20
3.20196325426671
  0
LWPOLYLINE
  5
126
100
AcDbEntity
  8
USP-GEO
100
AcDbPolyline
 90
        2
 70
   129
 43
0.0
 10
7.585711715304679
 20
3.20196325426671
 10
7.584953674761528
 20
3.20196325426671
  0
LWPOLYLINE
  5
127
100
AcDbEntity
  8
USP-GEO
100
AcDbPolyline
 90
        2
 70
   129
 43
0.0
 10
7.585711715304679
 20
3.20196325426671
 10
7.584953674761528
 20
3.20196325426671
  0
LWPOLYLINE
  5
128
100
AcDbEntity
  8
USP-GEO
100
AcDbPolyline
 90
        2
 70
   129
 43
0.0
 10
7.584953674761528
 20
3.126159199951683
 10
7.584953674761528
 20
3.20196325426671
  0
LWPOLYLINE
  5
129
100
AcDbEntity
  8
USP-GEO
100
AcDbPolyline
 90
        3
 70
   128
 43
0.0
 10
7.554632053035518
 20
3.126159199951683
 10
7.569792863898523
 20
3.126159199951683
 10
7.554632053035518
 20
3.126159199951683
  0
LWPOLYLINE
  5
12A
100
AcDbEntity
  8
USP-GEO
100
AcDbPolyline
 90
        2
 70
   129
 43
0.0
 10
7.569792863898523
 20
3.126159199951683
 10
7.584953674761528
 20
3.126159199951683
  0
LWPOLYLINE
  5
12B
100
AcDbEntity
  8
USP-GEO
100
AcDbPolyline
 90
        2
 70
   129
 43
0.0
 10
7.585711715304679
 20
3.126159199951683
 10
7.584953674761528
 20
3.126159199951683
  0
LWPOLYLINE
  5
12C
100
AcDbEntity
  8
USP-GEO
100
AcDbPolyline
 90
        2
 70
   129
 43
0.0
 10
7.585711715304679
 20
3.126159199951683
 10
7.584953674761528
 20
3.126159199951683
  0
LWPOLYLINE
  5
12D
100
AcDbEntity
  8
USP-GEO
100
AcDbPolyline
 90
        2
 70
   128
 43
0.0
 10
7.584953674761528
 20
3.20196325426671
 10
7.584953674761528
 20
3.126159199951683
  0
LWPOLYLINE
  5
12E
100
AcDbEntity
  8
USP-GEO
100
AcDbPolyline
 90
        2
 70
   128
 43
0.0
 10
7.584953674761528
 20
3.126159199951683
 10
7.584953674761528
 20
3.20196325426671
  0
LWPOLYLINE
  5
12F
100
AcDbEntity
  8
USP-GEO
100
AcDbPolyline
 90
        4
 70
   128
 43
0.0
 10
7.584953674761528
 20
3.126159199951683
 10
7.569792863898523
 20
3.126159199951683
 10
7.554632053035518
 20
3.126159199951683
 10
7.554632053035518
 20
3.20196325426671
  0
ENDBLK
  5
132
100
AcDbEntity
  8
0
100
AcDbBlockEnd
  0
BLOCK
  5
297
100
AcDbEntity
  8
0
100
AcDbBlockBegin
  2
THD28-2_F
 70
     0
 10
0.0
 20
0.0
 30
0.0
  3
THD28-2_F
  1

  0
LWPOLYLINE
  5
135
100
AcDbEntity
  8
USP-GEO
100
AcDbPolyline
 90
        3
 70
   128
 43
0.0
 10
7.584953674761528
 20
7.238529146541857
 10
5.507164545986658
 20
7.238529146541857
 10
5.507164545986658
 20
0.4100999338442915
  0
LWPOLYLINE
  5
136
100
AcDbEntity
  8
USP-GEO
100
AcDbPolyline
 90
        2
 70
   129
 43
0.0
 10
7.114968538008366
 20
4.628595556475502
 10
7.554632053035518
 20
5.114499544634821
  0
LWPOLYLINE
  5
137
100
AcDbEntity
  8
USP-GEO
100
AcDbPolyline
 90
        7
 70
   128
 43
0.0
 10
7.584953674761528
 20
7.238529146541857
 10
5.582968600301683
 20
7.238529146541857
 10
5.582968600301683
 20
0.4100999338442915
 10
6.917877996789297
 20
1.988340344683138
 10
7.008842861967327
 20
2.13994845331319
 10
7.06948610541935
 20
2.306717372806248
 10
7.084646916282355
 20
2.473486292299305
  0
LWPOLYLINE
  5
138
100
AcDbEntity
  8
USP-GEO
100
AcDbPolyline
 90
       12
 70
   128
 43
0.0
 10
7.084646916282355
 20
6.146192723862329
 10
7.099807727145361
 20
6.115871102136317
 10
7.114968538008366
 20
6.085549480410307
 10
7.554632053035518
 20
5.599645492250989
 10
7.569792863898523
 20
5.569323870524979
 10
7.584953674761528
 20
5.539002248798968
 10
7.584953674761528
 20
5.508680627072957
 10
7.584953674761528
 20
5.205464409812853
 10
7.584953674761528
 20
5.175142788086843
 10
7.569792863898523
 20
5.144821166360831
 10
7.554632053035518
 20
5.114499544634821
 10
7.114968538008366
 20
4.628595556475502
  0
LWPOLYLINE
  5
139
100
AcDbEntity
  8
USP-GEO
100
AcDbPolyline
 90
       10
 70
   128
 43
0.0
 10
7.084646916282355
 20
6.176514345588339
 10
7.084646916282355
 20
6.419087319396423
 10
7.084646916282355
 20
6.449408941122434
 10
7.099807727145361
 20
6.479730562848444
 10
7.114968538008366
 20
6.510052184574455
 10
7.554632053035518
 20
6.995956172733773
 10
7.569792863898523
 20
7.026277794459783
 10
7.584953674761528
 20
7.041438605322788
 10
7.584953674761528
 20
7.071760227048799
 10
7.584953674761528
 20
7.238529146541857
  0
LWPOLYLINE
  5
13A
100
AcDbEntity
  8
USP-GEO
100
AcDbPolyline
 90
        2
 70
   129
 43
0.0
 10
7.114968538008366
 20
6.510052184574455
 10
7.554632053035518
 20
6.995956172733773
  0
LWPOLYLINE
  5
13B
100
AcDbEntity
  8
USP-GEO
100
AcDbPolyline
 90
        2
 70
   129
 43
0.0
 10
7.554632053035518
 20
5.599645492250989
 10
7.114968538008366
 20
6.085549480410307
  0
LWPOLYLINE
  5
13C
100
AcDbEntity
  8
USP-GEO
100
AcDbPolyline
 90
        4
 70
   128
 43
0.0
 10
7.584953674761528
 20
7.238529146541857
 10
5.582968600301683
 20
7.238529146541857
 10
5.507164545986658
 20
7.238529146541857
 10
7.584953674761528
 20
7.238529146541857
  0
TEXT
  5
13D
100
AcDbEntity
  8
USP-TXT
100
AcDbText
 10
0.82410585765234
 20
-0.8937005333017538
 30
-1.050183983838884
 40
0.296875
  1
THD28-2 - FRONT VIEW
 72
     1
 11
3.792855857652339
 21
-0.8937005333017538
 31
-1.050183983838884
100
AcDbText
  0
LWPOLYLINE
  5
13E
100
AcDbEntity
  8
USP-GEO
100
AcDbPolyline
 90
        3
 70
   128
 43
0.0
 10
2.002743115002994
 20
0.4100999338442915
 10
2.002743115002994
 20
7.238529146541857
 10
0.0
 20
7.238529146541857
  0
LWPOLYLINE
  5
13F
100
AcDbEntity
  8
USP-GEO
100
AcDbPolyline
 90
        2
 70
   129
 43
0.0
 10
0.6678337185153822
 20
1.988340344683138
 10
2.002743115002994
 20
0.4100999338442915
  0
LWPOLYLINE
  5
140
100
AcDbEntity
  8
USP-GEO
100
AcDbPolyline
 90
       15
 70
   128
 43
0.0
 10
2.078547169318019
 20
7.238529146541857
 10
0.0
 20
7.238529146541857
 10
0.0
 20
7.071760227048799
 10
0.0
 20
7.041438605322788
 10
0.015160810863005
 20
7.026277794459783
 10
0.0303216217260101
 20
6.995956172733773
 10
0.4707431772963134
 20
6.510052184574455
 10
0.4859039881593184
 20
6.479730562848444
 10
0.4859039881593184
 20
6.449408941122434
 10
0.5010647990223234
 20
6.419087319396423
 10
0.5010647990223234
 20
6.176514345588339
 10
0.4859039881593184
 20
6.146192723862329
 10
0.4859039881593184
 20
6.115871102136317
 10
0.4707431772963134
 20
6.085549480410307
 10
0.0303216217260101
 20
5.599645492250989
  0
LWPOLYLINE
  5
141
100
AcDbEntity
  8
USP-GEO
100
AcDbPolyline
 90
        8
 70
   128
 43
0.0
 10
0.4859039881593184
 20
4.598273934749492
 10
0.4859039881593184
 20
4.567952313023482
 10
0.5010647990223234
 20
4.53763069129747
 10
0.5010647990223234
 20
2.473486292299305
 10
0.5162256098853284
 20
2.306717372806248
 10
0.5768688533373503
 20
2.13994845331319
 10
0.6678337185153822
 20
1.988340344683138
 10
2.002743115002994
 20
0.4100999338442915
  0
LWPOLYLINE
  5
142
100
AcDbEntity
  8
USP-GEO
100
AcDbPolyline
 90
        4
 70
   128
 43
0.0
 10
2.002743115002994
 20
7.238529146541857
 10
2.078547169318019
 20
7.238529146541857
 10
0.0
 20
7.238529146541857
 10
2.002743115002994
 20
7.238529146541857
  0
LWPOLYLINE
  5
143
100
AcDbEntity
  8
USP-GEO
100
AcDbPolyline
 90
        2
 70
   129
 43
0.0
 10
0.0303216217260101
 20
5.114499544634821
 10
0.4707431772963134
 20
4.628595556475502
  0
LWPOLYLINE
  5
144
100
AcDbEntity
  8
USP-GEO
100
AcDbPolyline
 90
        2
 70
   128
 43
0.0
 10
0.0303216217260101
 20
5.114499544634821
 10
0.4707431772963134
 20
4.628595556475502
  0
LWPOLYLINE
  5
145
100
AcDbEntity
  8
USP-GEO
100
AcDbPolyline
 90
        2
 70
   129
 43
0.0
 10
0.4707431772963134
 20
6.085549480410307
 10
0.0303216217260101
 20
5.599645492250989
  0
LWPOLYLINE
  5
146
100
AcDbEntity
  8
USP-GEO
100
AcDbPolyline
 90
        2
 70
   129
 43
0.0
 10
0.0303216217260101
 20
6.995956172733773
 10
0.4707431772963134
 20
6.510052184574455
  0
LWPOLYLINE
  5
147
100
AcDbEntity
  8
USP-GEO
100
AcDbPolyline
 90
        4
 70
   128
 43
0.0
 10
0.015160810863005
 20
5.144821166360831
 10
0.0303216217260101
 20
5.114499544634821
 10
0.015160810863005
 20
5.144821166360831
 10
0.0303216217260101
 20
5.114499544634821
  0
LWPOLYLINE
  5
148
100
AcDbEntity
  8
USP-GEO
100
AcDbPolyline
 90
        2
 70
   129
 43
0.0
 10
0.0
 20
5.205464409812853
 10
0.0
 20
5.508680627072957
  0
LWPOLYLINE
  5
149
100
AcDbEntity
  8
USP-GEO
100
AcDbPolyline
 90
        7
 70
   128
 43
0.0
 10
0.0303216217260101
 20
5.599645492250989
 10
0.015160810863005
 20
5.569323870524979
 10
0.0
 20
5.539002248798968
 10
0.0
 20
5.508680627072957
 10
0.0
 20
5.205464409812853
 10
0.0
 20
5.175142788086843
 10
0.015160810863005
 20
5.144821166360831
  0
LWPOLYLINE
  5
14A
100
AcDbEntity
  8
USP-GEO
100
AcDbPolyline
 90
        3
 70
   128
 43
0.0
 10
0.015160810863005
 20
5.569323870524979
 10
0.0
 20
5.539002248798968
 10
0.015160810863005
 20
5.569323870524979
  0
LWPOLYLINE
  5
14B
100
AcDbEntity
  8
USP-GEO
100
AcDbPolyline
 90
        3
 70
   128
 43
0.0
 10
0.015160810863005
 20
5.569323870524979
 10
0.0303216217260101
 20
5.599645492250989
 10
0.015160810863005
 20
5.569323870524979
  0
LWPOLYLINE
  5
14C
100
AcDbEntity
  8
USP-GEO
100
AcDbPolyline
 90
        3
 70
   128
 43
0.0
 10
0.257733784671089
 20
5.159981977223836
 10
0.2122513520820739
 20
5.190303598949848
 10
0.257733784671089
 20
5.159981977223836
  0
LWPOLYLINE
  5
14D
100
AcDbEntity
  8
USP-GEO
100
AcDbPolyline
 90
       12
 70
   129
 43
0.0
 10
0.3797783121182814
 20
5.190303598949848
 10
0.3494566903922713
 20
5.159981977223836
 10
0.3039742578032545
 20
5.144821166360831
 10
0.257733784671089
 20
5.159981977223836
 10
0.2122513520820739
 20
5.190303598949848
 10
0.2122513520820739
 20
5.235786031538863
 10
0.2122513520820739
 20
5.281268464127879
 10
0.257733784671089
 20
5.31159008585389
 10
0.3039742578032545
 20
5.326750896716895
 10
0.3494566903922713
 20
5.31159008585389
 10
0.3797783121182814
 20
5.281268464127879
 10
0.3797783121182814
 20
5.235786031538863
  0
LWPOLYLINE
  5
14E
100
AcDbEntity
  8
USP-GEO
100
AcDbPolyline
 90
        3
 70
   128
 43
0.0
 10
0.0
 20
7.041438605322788
 10
0.0
 20
7.071760227048799
 10
0.0
 20
7.041438605322788
  0
LWPOLYLINE
  5
14F
100
AcDbEntity
  8
USP-GEO
100
AcDbPolyline
 90
        2
 70
   129
 43
0.0
 10
0.0
 20
7.238529146541857
 10
0.0
 20
7.071760227048799
  0
LWPOLYLINE
  5
150
100
AcDbEntity
  8
USP-GEO
100
AcDbPolyline
 90
       12
 70
   128
 43
0.0
 10
0.2122513520820739
 20
7.026277794459783
 10
0.257733784671089
 20
7.056599416185794
 10
0.3039742578032545
 20
7.071760227048799
 10
0.3494566903922713
 20
7.056599416185794
 10
0.3797783121182814
 20
7.026277794459783
 10
0.3797783121182814
 20
6.980795361870767
 10
0.3797783121182814
 20
6.935312929281752
 10
0.3494566903922713
 20
6.904991307555741
 10
0.3039742578032545
 20
6.889830496692736
 10
0.257733784671089
 20
6.904991307555741
 10
0.2122513520820739
 20
6.935312929281752
 10
0.2122513520820739
 20
6.980795361870767
  0
LWPOLYLINE
  5
151
100
AcDbEntity
  8
USP-GEO
100
AcDbPolyline
 90
        2
 70
   128
 43
0.0
 10
0.2122513520820739
 20
6.980795361870767
 10
0.2122513520820739
 20
7.026277794459783
  0
LWPOLYLINE
  5
152
100
AcDbEntity
  8
USP-GEO
100
AcDbPolyline
 90
       12
 70
   129
 43
0.0
 10
0.8800850705974543
 20
4.840846908557576
 10
0.8800850705974543
 20
4.795364475968561
 10
0.8346026380084392
 20
4.765042854242549
 10
0.8042810162824292
 20
4.749882043379544
 10
0.7587985836934124
 20
4.765042854242549
 10
0.7133161511043973
 20
4.795364475968561
 10
0.7133161511043973
 20
4.840846908557576
 10
0.7133161511043973
 20
4.886329341146591
 10
0.7587985836934124
 20
4.916650962872603
 10
0.8042810162824292
 20
4.931811773735608
 10
0.8346026380084392
 20
4.916650962872603
 10
0.8800850705974543
 20
4.886329341146591
  0
LWPOLYLINE
  5
153
100
AcDbEntity
  8
USP-GEO
100
AcDbPolyline
 90
        2
 70
   129
 43
0.0
 10
0.5010647990223234
 20
4.53763069129747
 10
0.5010647990223234
 20
2.473486292299305
  0
LWPOLYLINE
  5
154
100
AcDbEntity
  8
USP-GEO
100
AcDbPolyline
 90
        3
 70
   128
 43
0.0
 10
0.5162256098853284
 20
2.306717372806248
 10
0.5010647990223234
 20
2.473486292299305
 10
0.5162256098853284
 20
2.306717372806248
  0
LWPOLYLINE
  5
155
100
AcDbEntity
  8
USP-GEO
100
AcDbPolyline
 90
       12
 70
   129
 43
0.0
 10
0.8800850705974543
 20
3.141320010814688
 10
0.8800850705974543
 20
3.095837578225671
 10
0.8800850705974543
 20
3.050355145636656
 10
0.8346026380084392
 20
3.020033523910646
 10
0.8042810162824292
 20
3.004872713047641
 10
0.7587985836934124
 20
3.020033523910646
 10
0.7133161511043973
 20
3.050355145636656
 10
0.7133161511043973
 20
3.095837578225671
 10
0.7133161511043973
 20
3.141320010814688
 10
0.7587985836934124
 20
3.171641632540698
 10
0.8042810162824292
 20
3.186802443403703
 10
0.8346026380084392
 20
3.171641632540698
  0
LWPOLYLINE
  5
156
100
AcDbEntity
  8
USP-GEO
100
AcDbPolyline
 90
       12
 70
   129
 43
0.0
 10
0.8800850705974543
 20
3.93044021623411
 10
0.8346026380084392
 20
3.9001185945081
 10
0.8042810162824292
 20
3.884957783645095
 10
0.7587985836934124
 20
3.9001185945081
 10
0.7133161511043973
 20
3.93044021623411
 10
0.7133161511043973
 20
3.975922648823127
 10
0.7133161511043973
 20
4.021405081412142
 10
0.7587985836934124
 20
4.051726703138152
 10
0.8042810162824292
 20
4.066887514001157
 10
0.8346026380084392
 20
4.051726703138152
 10
0.8800850705974543
 20
4.021405081412142
 10
0.8800850705974543
 20
3.975922648823127
  0
LWPOLYLINE
  5
157
100
AcDbEntity
  8
USP-GEO
100
AcDbPolyline
 90
        2
 70
   128
 43
0.0
 10
0.4707431772963134
 20
4.628595556475502
 10
0.4859039881593184
 20
4.598273934749492
  0
LWPOLYLINE
  5
158
100
AcDbEntity
  8
USP-GEO
100
AcDbPolyline
 90
        3
 70
   128
 43
0.0
 10
0.4859039881593184
 20
4.598273934749492
 10
0.4707431772963134
 20
4.628595556475502
 10
0.4859039881593184
 20
4.598273934749492
  0
LWPOLYLINE
  5
159
100
AcDbEntity
  8
USP-GEO
100
AcDbPolyline
 90
       11
 70
   128
 43
0.0
 10
1.578240410838846
 20
1.547918789112834
 10
1.547918789112836
 20
1.517597167386824
 10
1.501678315980671
 20
1.502436356523819
 10
1.456195883391654
 20
1.517597167386824
 10
1.425874261665644
 20
1.547918789112834
 10
1.410713450802639
 20
1.593401221701851
 10
1.425874261665644
 20
1.638883654290866
 10
1.456195883391654
 20
1.669205276016876
 10
1.501678315980671
 20
1.684366086879883
 10
1.547918789112836
 20
1.669205276016876
 10
1.578240410838846
 20
1.638883654290866
  0
LWPOLYLINE
  5
15A
100
AcDbEntity
  8
USP-GEO
100
AcDbPolyline
 90
       11
 70
   128
 43
0.0
 10
1.578240410838846
 20
2.42800385971029
 10
1.547918789112836
 20
2.39768223798428
 10
1.501678315980671
 20
2.382521427121274
 10
1.456195883391654
 20
2.39768223798428
 10
1.425874261665644
 20
2.42800385971029
 10
1.410713450802639
 20
2.473486292299305
 10
1.425874261665644
 20
2.518968724888322
 10
1.456195883391654
 20
2.549290346614332
 10
1.501678315980671
 20
2.564451157477337
 10
1.547918789112836
 20
2.549290346614332
 10
1.578240410838846
 20
2.518968724888322
  0
LWPOLYLINE
  5
15B
100
AcDbEntity
  8
USP-GEO
100
AcDbPolyline
 90
        3
 70
   128
 43
0.0
 10
1.578240410838846
 20
1.638883654290866
 10
1.593401221701851
 20
1.593401221701851
 10
1.578240410838846
 20
1.547918789112834
  0
LWPOLYLINE
  5
15C
100
AcDbEntity
  8
USP-GEO
100
AcDbPolyline
 90
        3
 70
   128
 43
0.0
 10
1.501678315980671
 20
1.684366086879883
 10
1.547918789112836
 20
1.669205276016876
 10
1.501678315980671
 20
1.684366086879883
  0
LWPOLYLINE
  5
15D
100
AcDbEntity
  8
USP-GEO
100
AcDbPolyline
 90
        3
 70
   128
 43
0.0
 10
1.578240410838846
 20
2.518968724888322
 10
1.593401221701851
 20
2.473486292299305
 10
1.578240410838846
 20
2.42800385971029
  0
LWPOLYLINE
  5
15E
100
AcDbEntity
  8
USP-GEO
100
AcDbPolyline
 90
        3
 70
   128
 43
0.0
 10
1.410713450802639
 20
3.338410552033755
 10
1.425874261665644
 20
3.383892984622772
 10
1.410713450802639
 20
3.338410552033755
  0
LWPOLYLINE
  5
15F
100
AcDbEntity
  8
USP-GEO
100
AcDbPolyline
 90
       11
 70
   128
 43
0.0
 10
1.578240410838846
 20
3.29292811944474
 10
1.547918789112836
 20
3.26260649771873
 10
1.501678315980671
 20
3.247445686855725
 10
1.456195883391654
 20
3.26260649771873
 10
1.425874261665644
 20
3.29292811944474
 10
1.410713450802639
 20
3.338410552033755
 10
1.425874261665644
 20
3.383892984622772
 10
1.456195883391654
 20
3.429375417211787
 10
1.501678315980671
 20
3.429375417211787
 10
1.547918789112836
 20
3.429375417211787
 10
1.578240410838846
 20
3.383892984622772
  0
LWPOLYLINE
  5
160
100
AcDbEntity
  8
USP-GEO
100
AcDbPolyline
 90
       10
 70
   128
 43
0.0
 10
1.578240410838846
 20
4.173013190042194
 10
1.547918789112836
 20
4.142691568316184
 10
1.501678315980671
 20
4.127530757453179
 10
1.456195883391654
 20
4.142691568316184
 10
1.425874261665644
 20
4.173013190042194
 10
1.410713450802639
 20
4.218495622631211
 10
1.425874261665644
 20
4.263978055220226
 10
1.456195883391654
 20
4.295057717489386
 10
1.501678315980671
 20
4.310218528352391
 10
1.547918789112836
 20
4.295057717489386
  0
LWPOLYLINE
  5
161
100
AcDbEntity
  8
USP-GEO
100
AcDbPolyline
 90
        3
 70
   128
 43
0.0
 10
1.578240410838846
 20
3.383892984622772
 10
1.593401221701851
 20
3.338410552033755
 10
1.578240410838846
 20
3.29292811944474
  0
LWPOLYLINE
  5
162
100
AcDbEntity
  8
USP-GEO
100
AcDbPolyline
 90
        3
 70
   128
 43
0.0
 10
1.501678315980671
 20
3.429375417211787
 10
1.547918789112836
 20
3.429375417211787
 10
1.501678315980671
 20
3.429375417211787
  0
LWPOLYLINE
  5
163
100
AcDbEntity
  8
USP-GEO
100
AcDbPolyline
 90
        3
 70
   128
 43
0.0
 10
1.578240410838846
 20
4.263978055220226
 10
1.593401221701851
 20
4.218495622631211
 10
1.578240410838846
 20
4.173013190042194
  0
LWPOLYLINE
  5
164
100
AcDbEntity
  8
USP-GEO
100
AcDbPolyline
 90
        3
 70
   128
 43
0.0
 10
1.547918789112836
 20
4.142691568316184
 10
1.501678315980671
 20
4.127530757453179
 10
1.547918789112836
 20
4.142691568316184
  0
LWPOLYLINE
  5
165
100
AcDbEntity
  8
USP-GEO
100
AcDbPolyline
 90
        3
 70
   128
 43
0.0
 10
1.547918789112836
 20
4.295057717489386
 10
1.501678315980671
 20
4.310218528352391
 10
1.547918789112836
 20
4.295057717489386
  0
LWPOLYLINE
  5
166
100
AcDbEntity
  8
USP-GEO
100
AcDbPolyline
 90
        2
 70
   128
 43
0.0
 10
1.547918789112836
 20
4.295057717489386
 10
1.578240410838846
 20
4.263978055220226
  0
LWPOLYLINE
  5
167
100
AcDbEntity
  8
USP-GEO
100
AcDbPolyline
 90
       12
 70
   129
 43
0.0
 10
0.8800850705974543
 20
6.601017049752486
 10
0.8800850705974543
 20
6.55553461716347
 10
0.8346026380084392
 20
6.52521299543746
 10
0.8042810162824292
 20
6.510052184574455
 10
0.7587985836934124
 20
6.52521299543746
 10
0.7133161511043973
 20
6.55553461716347
 10
0.7133161511043973
 20
6.601017049752486
 10
0.7133161511043973
 20
6.646499482341502
 10
0.7587985836934124
 20
6.676821104067512
 10
0.8042810162824292
 20
6.691981914930518
 10
0.8346026380084392
 20
6.676821104067512
 10
0.8800850705974543
 20
6.646499482341502
  0
LWPOLYLINE
  5
168
100
AcDbEntity
  8
USP-GEO
100
AcDbPolyline
 90
       12
 70
   129
 43
0.0
 10
0.8800850705974543
 20
5.720931979155031
 10
0.8800850705974543
 20
5.675449546566015
 10
0.8346026380084392
 20
5.645127924840005
 10
0.8042810162824292
 20
5.629967113976999
 10
0.7587985836934124
 20
5.645127924840005
 10
0.7133161511043973
 20
5.675449546566015
 10
0.7133161511043973
 20
5.720931979155031
 10
0.7133161511043973
 20
5.766414411744047
 10
0.7587985836934124
 20
5.796736033470057
 10
0.8042810162824292
 20
5.811896844333062
 10
0.8346026380084392
 20
5.796736033470057
 10
0.8800850705974543
 20
5.766414411744047
  0
LWPOLYLINE
  5
169
100
AcDbEntity
  8
USP-GEO
100
AcDbPolyline
 90
        3
 70
   128
 43
0.0
 10
0.4859039881593184
 20
6.146192723862329
 10
0.5010647990223234
 20
6.176514345588339
 10
0.4859039881593184
 20
6.146192723862329
  0
LWPOLYLINE
  5
16A
100
AcDbEntity
  8
USP-GEO
100
AcDbPolyline
 90
        2
 70
   129
 43
0.0
 10
0.5010647990223234
 20
6.419087319396423
 10
0.5010647990223234
 20
6.176514345588339
  0
LWPOLYLINE
  5
16B
100
AcDbEntity
  8
USP-GEO
100
AcDbPolyline
 90
        3
 70
   128
 43
0.0
 10
0.4859039881593184
 20
6.479730562848444
 10
0.4707431772963134
 20
6.510052184574455
 10
0.4859039881593184
 20
6.479730562848444
  0
LWPOLYLINE
  5
16C
100
AcDbEntity
  8
USP-GEO
100
AcDbPolyline
 90
        3
 70
   128
 43
0.0
 10
0.8346026380084392
 20
4.916650962872603
 10
0.8800850705974543
 20
4.886329341146591
 10
0.8346026380084392
 20
4.916650962872603
  0
LWPOLYLINE
  5
16D
100
AcDbEntity
  8
USP-GEO
100
AcDbPolyline
 90
        3
 70
   128
 43
0.0
 10
0.8346026380084392
 20
5.645127924840005
 10
0.8042810162824292
 20
5.629967113976999
 10
0.8346026380084392
 20
5.645127924840005
  0
LWPOLYLINE
  5
16E
100
AcDbEntity
  8
USP-GEO
100
AcDbPolyline
 90
        9
 70
   128
 43
0.0
 10
1.547918789112836
 20
6.768544009788694
 10
1.501678315980671
 20
6.753383198925689
 10
1.456195883391654
 20
6.768544009788694
 10
1.425874261665644
 20
6.798865631514704
 10
1.410713450802639
 20
6.84434806410372
 10
1.425874261665644
 20
6.889830496692736
 10
1.456195883391654
 20
6.920152118418746
 10
1.501678315980671
 20
6.935312929281752
 10
1.547918789112836
 20
6.920152118418746
  0
LWPOLYLINE
  5
16F
100
AcDbEntity
  8
USP-GEO
100
AcDbPolyline
 90
        5
 70
   128
 43
0.0
 10
1.547918789112836
 20
6.920152118418746
 10
1.578240410838846
 20
6.889830496692736
 10
1.593401221701851
 20
6.84434806410372
 10
1.578240410838846
 20
6.798865631514704
 10
1.547918789112836
 20
6.768544009788694
  0
LWPOLYLINE
  5
170
100
AcDbEntity
  8
USP-GEO
100
AcDbPolyline
 90
       10
 70
   128
 43
0.0
 10
1.578240410838846
 20
5.05309826063965
 10
1.547918789112836
 20
5.022776638913638
 10
1.501678315980671
 20
5.007615828050633
 10
1.456195883391654
 20
5.022776638913638
 10
1.425874261665644
 20
5.05309826063965
 10
1.410713450802639
 20
5.099338733771816
 10
1.425874261665644
 20
5.144821166360831
 10
1.456195883391654
 20
5.175142788086843
 10
1.501678315980671
 20
5.190303598949848
 10
1.547918789112836
 20
5.175142788086843
  0
LWPOLYLINE
  5
171
100
AcDbEntity
  8
USP-GEO
100
AcDbPolyline
 90
        9
 70
   128
 43
0.0
 10
1.547918789112836
 20
5.887700898648089
 10
1.501678315980671
 20
5.887700898648089
 10
1.456195883391654
 20
5.887700898648089
 10
1.425874261665644
 20
5.933941371780255
 10
1.410713450802639
 20
5.97942380436927
 10
1.425874261665644
 20
6.024906236958287
 10
1.456195883391654
 20
6.055227858684297
 10
1.501678315980671
 20
6.055227858684297
 10
1.547918789112836
 20
6.055227858684297
  0
LWPOLYLINE
  5
172
100
AcDbEntity
  8
USP-GEO
100
AcDbPolyline
 90
        4
 70
   128
 43
0.0
 10
1.547918789112836
 20
5.175142788086843
 10
1.578240410838846
 20
5.144821166360831
 10
1.593401221701851
 20
5.099338733771816
 10
1.578240410838846
 20
5.05309826063965
  0
LWPOLYLINE
  5
173
100
AcDbEntity
  8
USP-GEO
100
AcDbPolyline
 90
        3
 70
   128
 43
0.0
 10
1.456195883391654
 20
5.022776638913638
 10
1.425874261665644
 20
5.05309826063965
 10
1.456195883391654
 20
5.022776638913638
  0
LWPOLYLINE
  5
174
100
AcDbEntity
  8
USP-GEO
100
AcDbPolyline
 90
        5
 70
   128
 43
0.0
 10
1.547918789112836
 20
6.055227858684297
 10
1.578240410838846
 20
6.024906236958287
 10
1.593401221701851
 20
5.97942380436927
 10
1.578240410838846
 20
5.933941371780255
 10
1.547918789112836
 20
5.887700898648089
  0
LWPOLYLINE
  5
175
100
AcDbEntity
  8
USP-GEO
100
AcDbPolyline
 90
        3
 70
   128
 43
0.0
 10
1.547918789112836
 20
6.768544009788694
 10
1.501678315980671
 20
6.753383198925689
 10
1.547918789112836
 20
6.768544009788694
  0
LWPOLYLINE
  5
176
100
AcDbEntity
  8
USP-GEO
100
AcDbPolyline
 90
        4
 70
   129
 43
0.0
 10
4.445149745033141
 20
0.0758040543150251
 10
4.445149745033141
 20
0.0
 10
4.384506501581117
 20
0.0
 10
4.384506501581117
 20
0.0758040543150251
  0
LWPOLYLINE
  5
177
100
AcDbEntity
  8
USP-GEO
100
AcDbPolyline
 90
        4
 70
   129
 43
0.0
 10
4.490632177622156
 20
0.0758040543150251
 10
4.445149745033141
 20
0.0758040543150251
 10
4.384506501581117
 20
0.0758040543150251
 10
4.445149745033141
 20
0.0758040543150251
  0
LWPOLYLINE
  5
178
100
AcDbEntity
  8
USP-GEO
100
AcDbPolyline
 90
        3
 70
   128
 43
0.0
 10
4.445149745033141
 20
0.0
 10
4.384506501581117
 20
0.0
 10
4.445149745033141
 20
0.0
  0
LWPOLYLINE
  5
179
100
AcDbEntity
  8
USP-GEO
100
AcDbPolyline
 90
        7
 70
   128
 43
0.0
 10
2.002743115002994
 20
0.2122513520820721
 10
2.002743115002994
 20
0.242572973808084
 10
2.002743115002994
 20
0.2736526360772444
 10
2.002743115002994
 20
0.3039742578032545
 10
2.002743115002994
 20
0.4100999338442915
 10
2.002743115002994
 20
7.238529146541857
 10
2.002743115002994
 20
7.071760227048799
  0
LWPOLYLINE
  5
17A
100
AcDbEntity
  8
USP-GEO
100
AcDbPolyline
 90
       29
 70
   128
 43
0.0
 10
2.002743115002994
 20
6.995956172733773
 10
2.002743115002994
 20
6.510052184574455
 10
2.002743115002994
 20
6.479730562848444
 10
2.002743115002994
 20
6.449408941122434
 10
2.002743115002994
 20
6.419087319396423
 10
2.002743115002994
 20
6.176514345588339
 10
2.002743115002994
 20
6.146192723862329
 10
2.002743115002994
 20
6.115871102136317
 10
2.002743115002994
 20
6.085549480410307
 10
2.002743115002994
 20
5.599645492250989
 10
2.002743115002994
 20
5.569323870524979
 10
2.002743115002994
 20
5.539002248798968
 10
2.002743115002994
 20
5.508680627072957
 10
2.002743115002994
 20
5.205464409812853
 10
2.002743115002994
 20
5.175142788086843
 10
2.002743115002994
 20
5.144821166360831
 10
2.002743115002994
 20
5.114499544634821
 10
2.002743115002994
 20
4.628595556475502
 10
2.002743115002994
 20
4.598273934749492
 10
2.002743115002994
 20
4.567952313023482
 10
2.002743115002994
 20
4.53763069129747
 10
2.002743115002994
 20
2.473486292299305
 10
2.002743115002994
 20
2.306717372806248
 10
2.002743115002994
 20
2.13994845331319
 10
2.002743115002994
 20
1.988340344683138
 10
2.002743115002994
 20
0.3039742578032545
 10
2.002743115002994
 20
0.2736526360772444
 10
2.002743115002994
 20
0.242572973808084
 10
2.002743115002994
 20
0.2122513520820721
  0
LWPOLYLINE
  5
17B
100
AcDbEntity
  8
USP-GEO
100
AcDbPolyline
 90
       44
 70
   129
 43
0.0
 10
2.078547169318019
 20
0.2122513520820721
 10
2.078547169318019
 20
0.242572973808084
 10
2.078547169318019
 20
0.2736526360772444
 10
2.078547169318019
 20
0.3039742578032545
 10
2.078547169318019
 20
1.988340344683138
 10
2.078547169318019
 20
2.13994845331319
 10
2.078547169318019
 20
2.306717372806248
 10
2.078547169318019
 20
2.473486292299305
 10
2.078547169318019
 20
4.53763069129747
 10
2.078547169318019
 20
4.567952313023482
 10
2.078547169318019
 20
4.598273934749492
 10
2.078547169318019
 20
4.628595556475502
 10
2.078547169318019
 20
5.114499544634821
 10
2.078547169318019
 20
5.144821166360831
 10
2.078547169318019
 20
5.175142788086843
 10
2.078547169318019
 20
5.205464409812853
 10
2.078547169318019
 20
5.508680627072957
 10
2.078547169318019
 20
5.539002248798968
 10
2.078547169318019
 20
5.569323870524979
 10
2.078547169318019
 20
5.599645492250989
 10
2.078547169318019
 20
6.085549480410307
 10
2.078547169318019
 20
6.115871102136317
 10
2.078547169318019
 20
6.146192723862329
 10
2.078547169318019
 20
6.176514345588339
 10
2.078547169318019
 20
6.419087319396423
 10
2.078547169318019
 20
6.449408941122434
 10
2.078547169318019
 20
6.479730562848444
 10
2.078547169318019
 20
6.510052184574455
 10
2.078547169318019
 20
6.995956172733773
 10
2.078547169318019
 20
6.920152118418746
 10
2.078547169318019
 20
6.84434806410372
 10
2.078547169318019
 20
6.783704820651699
 10
2.078547169318019
 20
6.768544009788694
 10
2.078547169318019
 20
6.783704820651699
 10
2.078547169318019
 20
6.84434806410372
 10
2.078547169318019
 20
6.920152118418746
 10
2.078547169318019
 20
6.995956172733773
 10
2.078547169318019
 20
7.056599416185794
 10
2.078547169318019
 20
7.071760227048799
 10
2.078547169318019
 20
7.238529146541857
 10
2.078547169318019
 20
0.4100999338442915
 10
2.078547169318019
 20
0.3039742578032545
 10
2.078547169318019
 20
0.2736526360772444
 10
2.078547169318019
 20
0.242572973808084
  0
LWPOLYLINE
  5
17C
100
AcDbEntity
  8
USP-GEO
100
AcDbPolyline
 90
       10
 70
   129
 43
0.0
 10
2.002743115002994
 20
0.3039742578032545
 10
2.002743115002994
 20
0.2736526360772444
 10
2.002743115002994
 20
0.242572973808084
 10
2.002743115002994
 20
0.2122513520820721
 10
2.078547169318019
 20
0.2122513520820721
 10
2.078547169318019
 20
0.242572973808084
 10
2.078547169318019
 20
0.2736526360772444
 10
2.078547169318019
 20
0.3039742578032545
 10
2.078547169318019
 20
1.988340344683138
 10
2.002743115002994
 20
1.988340344683138
  0
LWPOLYLINE
  5
17D
100
AcDbEntity
  8
USP-GEO
100
AcDbPolyline
 90
        6
 70
   128
 43
0.0
 10
2.078547169318019
 20
0.4100999338442915
 10
2.002743115002994
 20
0.4100999338442915
 10
2.002743115002994
 20
0.3039742578032545
 10
2.078547169318019
 20
0.3039742578032545
 10
2.078547169318019
 20
0.4100999338442915
 10
2.078547169318019
 20
7.238529146541857
  0
LWPOLYLINE
  5
17E
100
AcDbEntity
  8
USP-GEO
100
AcDbPolyline
 90
        4
 70
   128
 43
0.0
 10
3.0344362942305
 20
0.0
 10
3.049597105093505
 20
0.0
 10
3.079918726819517
 20
0.0
 10
3.125401159408532
 20
0.0
  0
LWPOLYLINE
  5
17F
100
AcDbEntity
  8
USP-GEO
100
AcDbPolyline
 90
       12
 70
   128
 43
0.0
 10
3.0344362942305
 20
0.0758040543150251
 10
3.049597105093505
 20
0.0758040543150251
 10
3.079918726819517
 20
0.0758040543150251
 10
3.125401159408532
 20
0.0758040543150251
 10
3.201205213723559
 20
0.0758040543150251
 10
3.246687646312574
 20
0.0758040543150251
 10
3.277009268038584
 20
0.0758040543150251
 10
3.292170078901591
 20
0.0758040543150251
 10
4.293541636403087
 20
0.0758040543150251
 10
4.293541636403087
 20
0.0
 10
3.292170078901591
 20
0.0
 10
3.292170078901591
 20
0.0758040543150251
  0
LWPOLYLINE
  5
180
100
AcDbEntity
  8
USP-GEO
100
AcDbPolyline
 90
        5
 70
   128
 43
0.0
 10
3.125401159408532
 20
0.0758040543150251
 10
3.201205213723559
 20
0.0758040543150251
 10
3.125401159408532
 20
0.0758040543150251
 10
3.079918726819517
 20
0.0758040543150251
 10
3.125401159408532
 20
0.0758040543150251
  0
LWPOLYLINE
  5
181
100
AcDbEntity
  8
USP-GEO
100
AcDbPolyline
 90
        4
 70
   129
 43
0.0
 10
3.079918726819517
 20
0.0
 10
3.125401159408532
 20
0.0
 10
3.079918726819517
 20
0.0
 10
3.049597105093505
 20
0.0
  0
LWPOLYLINE
  5
182
100
AcDbEntity
  8
USP-GEO
100
AcDbPolyline
 90
        2
 70
   129
 43
0.0
 10
3.0344362942305
 20
0.0758040543150251
 10
2.078547169318019
 20
0.0758040543150251
  0
LWPOLYLINE
  5
183
100
AcDbEntity
  8
USP-GEO
100
AcDbPolyline
 90
        6
 70
   128
 43
0.0
 10
2.002743115002994
 20
0.2122513520820721
 10
2.002743115002994
 20
0.0
 10
3.0344362942305
 20
0.0
 10
3.0344362942305
 20
0.0758040543150251
 10
2.078547169318019
 20
0.0758040543150251
 10
2.078547169318019
 20
0.2122513520820721
  0
LWPOLYLINE
  5
184
100
AcDbEntity
  8
USP-GEO
100
AcDbPolyline
 90
        3
 70
   128
 43
0.0
 10
3.0344362942305
 20
0.0
 10
2.002743115002994
 20
0.0
 10
3.0344362942305
 20
0.0
  0
LWPOLYLINE
  5
185
100
AcDbEntity
  8
USP-GEO
100
AcDbPolyline
 90
        2
 70
   129
 43
0.0
 10
2.002743115002994
 20
0.0
 10
2.002743115002994
 20
0.2122513520820721
  0
LWPOLYLINE
  5
186
100
AcDbEntity
  8
USP-GEO
100
AcDbPolyline
 90
        2
 70
   129
 43
0.0
 10
2.078547169318019
 20
0.2122513520820721
 10
2.078547169318019
 20
0.0758040543150251
  0
LWPOLYLINE
  5
187
100
AcDbEntity
  8
USP-GEO
100
AcDbPolyline
 90
        2
 70
   129
 43
0.0
 10
2.002743115002994
 20
0.4100999338442915
 10
2.078547169318019
 20
0.4100999338442915
  0
LWPOLYLINE
  5
188
100
AcDbEntity
  8
USP-GEO
100
AcDbPolyline
 90
        2
 70
   129
 43
0.0
 10
3.049597105093505
 20
0.0758040543150251
 10
3.0344362942305
 20
0.0758040543150251
  0
LWPOLYLINE
  5
189
100
AcDbEntity
  8
USP-GEO
100
AcDbPolyline
 90
        3
 70
   128
 43
0.0
 10
3.049597105093505
 20
0.0758040543150251
 10
3.079918726819517
 20
0.0758040543150251
 10
3.049597105093505
 20
0.0758040543150251
  0
LWPOLYLINE
  5
18A
100
AcDbEntity
  8
USP-GEO
100
AcDbPolyline
 90
        3
 70
   128
 43
0.0
 10
3.049597105093505
 20
0.0
 10
3.0344362942305
 20
0.0
 10
3.049597105093505
 20
0.0
  0
LWPOLYLINE
  5
18B
100
AcDbEntity
  8
USP-GEO
100
AcDbPolyline
 90
        2
 70
   129
 43
0.0
 10
4.293541636403087
 20
0.0758040543150251
 10
3.292170078901591
 20
0.0758040543150251
  0
LWPOLYLINE
  5
18C
100
AcDbEntity
  8
USP-GEO
100
AcDbPolyline
 90
        2
 70
   129
 43
0.0
 10
4.293541636403087
 20
0.0
 10
3.292170078901591
 20
0.0
  0
LWPOLYLINE
  5
18D
100
AcDbEntity
  8
USP-GEO
100
AcDbPolyline
 90
        5
 70
   128
 43
0.0
 10
3.292170078901591
 20
0.0
 10
3.277009268038584
 20
0.0
 10
3.246687646312574
 20
0.0
 10
3.201205213723559
 20
0.0
 10
3.201205213723559
 20
0.0758040543150251
  0
LWPOLYLINE
  5
18E
100
AcDbEntity
  8
USP-GEO
100
AcDbPolyline
 90
        4
 70
   129
 43
0.0
 10
3.292170078901591
 20
0.0758040543150251
 10
3.277009268038584
 20
0.0758040543150251
 10
3.246687646312574
 20
0.0758040543150251
 10
3.277009268038584
 20
0.0758040543150251
  0
LWPOLYLINE
  5
18F
100
AcDbEntity
  8
USP-GEO
100
AcDbPolyline
 90
        4
 70
   129
 43
0.0
 10
3.292170078901591
 20
0.0
 10
3.277009268038584
 20
0.0
 10
3.246687646312574
 20
0.0
 10
3.277009268038584
 20
0.0
  0
LWPOLYLINE
  5
190
100
AcDbEntity
  8
USP-GEO
100
AcDbPolyline
 90
        3
 70
   128
 43
0.0
 10
3.201205213723559
 20
0.0
 10
3.125401159408532
 20
0.0
 10
3.125401159408532
 20
0.0758040543150251
  0
LWPOLYLINE
  5
191
100
AcDbEntity
  8
USP-GEO
100
AcDbPolyline
 90
        3
 70
   128
 43
0.0
 10
3.246687646312574
 20
0.0758040543150251
 10
3.201205213723559
 20
0.0758040543150251
 10
3.246687646312574
 20
0.0758040543150251
  0
LWPOLYLINE
  5
192
100
AcDbEntity
  8
USP-GEO
100
AcDbPolyline
 90
        3
 70
   128
 43
0.0
 10
3.125401159408532
 20
0.0
 10
3.201205213723559
 20
0.0
 10
3.125401159408532
 20
0.0
  0
LWPOLYLINE
  5
193
100
AcDbEntity
  8
USP-GEO
100
AcDbPolyline
 90
        3
 70
   128
 43
0.0
 10
3.246687646312574
 20
0.0
 10
3.201205213723559
 20
0.0
 10
3.246687646312574
 20
0.0
  0
LWPOLYLINE
  5
194
100
AcDbEntity
  8
USP-GEO
100
AcDbPolyline
 90
        8
 70
   128
 43
0.0
 10
4.293541636403087
 20
0.0
 10
4.308702447266092
 20
0.0
 10
4.339024068992102
 20
0.0
 10
4.384506501581117
 20
0.0
 10
4.384506501581117
 20
0.0758040543150251
 10
4.339024068992102
 20
0.0758040543150251
 10
4.308702447266092
 20
0.0758040543150251
 10
4.293541636403087
 20
0.0758040543150251
  0
LWPOLYLINE
  5
195
100
AcDbEntity
  8
USP-GEO
100
AcDbPolyline
 90
        3
 70
   128
 43
0.0
 10
4.293541636403087
 20
0.0758040543150251
 10
4.308702447266092
 20
0.0758040543150251
 10
4.293541636403087
 20
0.0758040543150251
  0
LWPOLYLINE
  5
196
100
AcDbEntity
  8
USP-GEO
100
AcDbPolyline
 90
        5
 70
   128
 43
0.0
 10
4.339024068992102
 20
0.0758040543150251
 10
4.384506501581117
 20
0.0758040543150251
 10
4.339024068992102
 20
0.0758040543150251
 10
4.308702447266092
 20
0.0758040543150251
 10
4.339024068992102
 20
0.0758040543150251
  0
LWPOLYLINE
  5
197
100
AcDbEntity
  8
USP-GEO
100
AcDbPolyline
 90
        3
 70
   128
 43
0.0
 10
4.293541636403087
 20
0.0
 10
4.308702447266092
 20
0.0
 10
4.293541636403087
 20
0.0
  0
LWPOLYLINE
  5
198
100
AcDbEntity
  8
USP-GEO
100
AcDbPolyline
 90
        5
 70
   128
 43
0.0
 10
4.339024068992102
 20
0.0
 10
4.384506501581117
 20
0.0
 10
4.339024068992102
 20
0.0
 10
4.308702447266092
 20
0.0
 10
4.339024068992102
 20
0.0
  0
LWPOLYLINE
  5
199
100
AcDbEntity
  8
USP-GEO
100
AcDbPolyline
 90
       12
 70
   129
 43
0.0
 10
2.002743115002994
 20
4.810525286831566
 10
2.002743115002994
 20
4.780203665105554
 10
2.002743115002994
 20
4.765042854242549
 10
2.002743115002994
 20
4.780203665105554
 10
2.002743115002994
 20
4.810525286831566
 10
2.002743115002994
 20
4.856007719420581
 10
2.002743115002994
 20
4.901490152009596
 10
2.002743115002994
 20
4.931811773735608
 10
2.002743115002994
 20
4.946972584598613
 10
2.002743115002994
 20
4.931811773735608
 10
2.002743115002994
 20
4.901490152009596
 10
2.002743115002994
 20
4.856007719420581
  0
LWPOLYLINE
  5
19A
100
AcDbEntity
  8
USP-GEO
100
AcDbPolyline
 90
        4
 70
   128
 43
0.0
 10
2.078547169318019
 20
4.901490152009596
 10
2.078547169318019
 20
4.856007719420581
 10
2.078547169318019
 20
4.810525286831566
 10
2.078547169318019
 20
4.780203665105554
  0
LWPOLYLINE
  5
19B
100
AcDbEntity
  8
USP-GEO
100
AcDbPolyline
 90
        4
 70
   128
 43
0.0
 10
2.078547169318019
 20
4.901490152009596
 10
2.078547169318019
 20
4.856007719420581
 10
2.078547169318019
 20
4.810525286831566
 10
2.078547169318019
 20
4.780203665105554
  0
LWPOLYLINE
  5
19C
100
AcDbEntity
  8
USP-GEO
100
AcDbPolyline
 90
        4
 70
   128
 43
0.0
 10
2.078547169318019
 20
4.628595556475502
 10
2.078547169318019
 20
5.114499544634821
 10
2.002743115002994
 20
5.114499544634821
 10
2.002743115002994
 20
4.628595556475502
  0
LWPOLYLINE
  5
19D
100
AcDbEntity
  8
USP-GEO
100
AcDbPolyline
 90
       14
 70
   129
 43
0.0
 10
2.078547169318019
 20
4.856007719420581
 10
2.078547169318019
 20
4.901490152009596
 10
2.078547169318019
 20
4.931811773735608
 10
2.078547169318019
 20
4.946972584598613
 10
2.002743115002994
 20
4.946972584598613
 10
2.002743115002994
 20
4.931811773735608
 10
2.002743115002994
 20
4.901490152009596
 10
2.002743115002994
 20
4.856007719420581
 10
2.002743115002994
 20
4.810525286831566
 10
2.002743115002994
 20
4.780203665105554
 10
2.002743115002994
 20
4.765042854242549
 10
2.078547169318019
 20
4.765042854242549
 10
2.078547169318019
 20
4.780203665105554
 10
2.078547169318019
 20
4.810525286831566
  0
LWPOLYLINE
  5
19E
100
AcDbEntity
  8
USP-GEO
100
AcDbPolyline
 90
        4
 70
   128
 43
0.0
 10
2.078547169318019
 20
2.473486292299305
 10
2.078547169318019
 20
4.53763069129747
 10
2.002743115002994
 20
4.53763069129747
 10
2.002743115002994
 20
2.473486292299305
  0
LWPOLYLINE
  5
19F
100
AcDbEntity
  8
USP-GEO
100
AcDbPolyline
 90
        2
 70
   129
 43
0.0
 10
2.002743115002994
 20
1.441793113071799
 10
2.002743115002994
 20
1.426632302208792
  0
LWPOLYLINE
  5
1A0
100
AcDbEntity
  8
USP-GEO
100
AcDbPolyline
 90
        2
 70
   129
 43
0.0
 10
2.002743115002994
 20
1.27502419357874
 10
2.002743115002994
 20
1.259863382715735
  0
LWPOLYLINE
  5
1A1
100
AcDbEntity
  8
USP-GEO
100
AcDbPolyline
 90
        8
 70
   129
 43
0.0
 10
2.002743115002994
 20
1.426632302208792
 10
2.002743115002994
 20
1.396310680482782
 10
2.002743115002994
 20
1.350828247893767
 10
2.002743115002994
 20
1.30534581530475
 10
2.002743115002994
 20
1.27502419357874
 10
2.002743115002994
 20
1.30534581530475
 10
2.002743115002994
 20
1.350828247893767
 10
2.002743115002994
 20
1.396310680482782
  0
LWPOLYLINE
  5
1A2
100
AcDbEntity
  8
USP-GEO
100
AcDbPolyline
 90
        6
 70
   129
 43
0.0
 10
2.002743115002994
 20
0.7739593945564174
 10
2.002743115002994
 20
0.7587985836934124
 10
2.002743115002994
 20
0.7739593945564174
 10
2.002743115002994
 20
0.8042810162824274
 10
2.002743115002994
 20
0.8497634488714442
 10
2.002743115002994
 20
0.8042810162824274
  0
LWPOLYLINE
  5
1A3
100
AcDbEntity
  8
USP-GEO
100
AcDbPolyline
 90
        6
 70
   129
 43
0.0
 10
2.002743115002994
 20
0.9255675031864694
 10
2.002743115002994
 20
0.8952458814604593
 10
2.002743115002994
 20
0.8497634488714442
 10
2.002743115002994
 20
0.8952458814604593
 10
2.002743115002994
 20
0.9255675031864694
 10
2.002743115002994
 20
0.9407283140494744
  0
LWPOLYLINE
  5
1A4
100
AcDbEntity
  8
USP-GEO
100
AcDbPolyline
 90
        4
 70
   129
 43
0.0
 10
2.078547169318019
 20
1.259863382715735
 10
2.078547169318019
 20
1.27502419357874
 10
2.078547169318019
 20
1.30534581530475
 10
2.078547169318019
 20
1.27502419357874
  0
LWPOLYLINE
  5
1A5
100
AcDbEntity
  8
USP-GEO
100
AcDbPolyline
 90
        2
 70
   128
 43
0.0
 10
2.078547169318019
 20
1.30534581530475
 10
2.078547169318019
 20
1.350828247893767
  0
LWPOLYLINE
  5
1A6
100
AcDbEntity
  8
USP-GEO
100
AcDbPolyline
 90
        6
 70
   129
 43
0.0
 10
2.078547169318019
 20
1.441793113071799
 10
2.078547169318019
 20
1.426632302208792
 10
2.078547169318019
 20
1.396310680482782
 10
2.078547169318019
 20
1.350828247893767
 10
2.078547169318019
 20
1.396310680482782
 10
2.078547169318019
 20
1.426632302208792
  0
LWPOLYLINE
  5
1A7
100
AcDbEntity
  8
USP-GEO
100
AcDbPolyline
 90
        2
 70
   129
 43
0.0
 10
2.078547169318019
 20
0.9407283140494744
 10
2.078547169318019
 20
0.9255675031864694
  0
LWPOLYLINE
  5
1A8
100
AcDbEntity
  8
USP-GEO
100
AcDbPolyline
 90
        3
 70
   128
 43
0.0
 10
2.078547169318019
 20
0.8497634488714442
 10
2.078547169318019
 20
0.8952458814604593
 10
2.078547169318019
 20
0.9255675031864694
  0
LWPOLYLINE
  5
1A9
100
AcDbEntity
  8
USP-GEO
100
AcDbPolyline
 90
        6
 70
   129
 43
0.0
 10
2.078547169318019
 20
0.8042810162824274
 10
2.078547169318019
 20
0.7739593945564174
 10
2.078547169318019
 20
0.7587985836934124
 10
2.078547169318019
 20
0.7739593945564174
 10
2.078547169318019
 20
0.8042810162824274
 10
2.078547169318019
 20
0.8497634488714442
  0
LWPOLYLINE
  5
1AA
100
AcDbEntity
  8
USP-GEO
100
AcDbPolyline
 90
        3
 70
   128
 43
0.0
 10
2.078547169318019
 20
0.9255675031864694
 10
2.078547169318019
 20
0.8952458814604593
 10
2.078547169318019
 20
0.8497634488714442
  0
LWPOLYLINE
  5
1AB
100
AcDbEntity
  8
USP-GEO
100
AcDbPolyline
 90
        2
 70
   128
 43
0.0
 10
2.078547169318019
 20
1.350828247893767
 10
2.078547169318019
 20
1.30534581530475
  0
LWPOLYLINE
  5
1AC
100
AcDbEntity
  8
USP-GEO
100
AcDbPolyline
 90
       14
 70
   129
 43
0.0
 10
2.078547169318019
 20
1.30534581530475
 10
2.078547169318019
 20
1.27502419357874
 10
2.078547169318019
 20
1.259863382715735
 10
2.002743115002994
 20
1.259863382715735
 10
2.002743115002994
 20
1.27502419357874
 10
2.002743115002994
 20
1.30534581530475
 10
2.002743115002994
 20
1.350828247893767
 10
2.002743115002994
 20
1.396310680482782
 10
2.002743115002994
 20
1.426632302208792
 10
2.002743115002994
 20
1.441793113071799
 10
2.078547169318019
 20
1.441793113071799
 10
2.078547169318019
 20
1.426632302208792
 10
2.078547169318019
 20
1.396310680482782
 10
2.078547169318019
 20
1.350828247893767
  0
LWPOLYLINE
  5
1AD
100
AcDbEntity
  8
USP-GEO
100
AcDbPolyline
 90
       14
 70
   129
 43
0.0
 10
2.002743115002994
 20
0.8952458814604593
 10
2.002743115002994
 20
0.8497634488714442
 10
2.002743115002994
 20
0.8042810162824274
 10
2.002743115002994
 20
0.7739593945564174
 10
2.002743115002994
 20
0.7587985836934124
 10
2.078547169318019
 20
0.7587985836934124
 10
2.078547169318019
 20
0.7739593945564174
 10
2.078547169318019
 20
0.8042810162824274
 10
2.078547169318019
 20
0.8497634488714442
 10
2.078547169318019
 20
0.8952458814604593
 10
2.078547169318019
 20
0.9255675031864694
 10
2.078547169318019
 20
0.9407283140494744
 10
2.002743115002994
 20
0.9407283140494744
 10
2.002743115002994
 20
0.9255675031864694
  0
LWPOLYLINE
  5
1AE
100
AcDbEntity
  8
USP-GEO
100
AcDbPolyline
 90
        2
 70
   129
 43
0.0
 10
2.003501155546144
 20
2.68649568492453
 10
2.002743115002994
 20
2.68649568492453
  0
LWPOLYLINE
  5
1AF
100
AcDbEntity
  8
USP-GEO
100
AcDbPolyline
 90
        3
 70
   128
 43
0.0
 10
2.002743115002994
 20
2.564451157477337
 10
2.002743115002994
 20
2.518968724888322
 10
2.002743115002994
 20
2.564451157477337
  0
LWPOLYLINE
  5
1B0
100
AcDbEntity
  8
USP-GEO
100
AcDbPolyline
 90
        4
 70
   129
 43
0.0
 10
2.002743115002994
 20
2.68649568492453
 10
2.002743115002994
 20
2.655416022655369
 10
2.002743115002994
 20
2.609933590066352
 10
2.002743115002994
 20
2.655416022655369
  0
LWPOLYLINE
  5
1B1
100
AcDbEntity
  8
USP-GEO
100
AcDbPolyline
 90
        2
 70
   129
 43
0.0
 10
2.002743115002994
 20
2.564451157477337
 10
2.002743115002994
 20
2.609933590066352
  0
LWPOLYLINE
  5
1B2
100
AcDbEntity
  8
USP-GEO
100
AcDbPolyline
 90
        2
 70
   129
 43
0.0
 10
2.079305209861169
 20
2.68649568492453
 10
2.078547169318019
 20
2.68649568492453
  0
LWPOLYLINE
  5
1B3
100
AcDbEntity
  8
USP-GEO
100
AcDbPolyline
 90
       13
 70
   128
 43
0.0
 10
2.079305209861169
 20
2.68649568492453
 10
2.078547169318019
 20
2.68649568492453
 10
2.078547169318019
 20
2.655416022655369
 10
2.078547169318019
 20
2.609933590066352
 10
2.078547169318019
 20
2.564451157477337
 10
2.078547169318019
 20
2.518968724888322
 10
2.078547169318019
 20
2.564451157477337
 10
2.078547169318019
 20
2.609933590066352
 10
2.078547169318019
 20
2.655416022655369
 10
2.078547169318019
 20
2.609933590066352
 10
2.078547169318019
 20
2.564451157477337
 10
2.078547169318019
 20
2.518968724888322
 10
2.079305209861169
 20
2.518968724888322
  0
LWPOLYLINE
  5
1B4
100
AcDbEntity
  8
USP-GEO
100
AcDbPolyline
 90
        3
 70
   128
 43
0.0
 10
2.078547169318019
 20
2.655416022655369
 10
2.078547169318019
 20
2.68649568492453
 10
2.078547169318019
 20
2.655416022655369
  0
LWPOLYLINE
  5
1B5
100
AcDbEntity
  8
USP-GEO
100
AcDbPolyline
 90
        8
 70
   128
 43
0.0
 10
2.078547169318019
 20
1.988340344683138
 10
2.078547169318019
 20
2.13994845331319
 10
2.078547169318019
 20
2.306717372806248
 10
2.078547169318019
 20
2.473486292299305
 10
2.002743115002994
 20
2.473486292299305
 10
2.002743115002994
 20
2.306717372806248
 10
2.002743115002994
 20
2.13994845331319
 10
2.002743115002994
 20
1.988340344683138
  0
LWPOLYLINE
  5
1B6
100
AcDbEntity
  8
USP-GEO
100
AcDbPolyline
 90
        4
 70
   128
 43
0.0
 10
2.079305209861169
 20
2.518968724888322
 10
2.078547169318019
 20
2.518968724888322
 10
2.002743115002994
 20
2.518968724888322
 10
2.003501155546144
 20
2.518968724888322
  0
LWPOLYLINE
  5
1B7
100
AcDbEntity
  8
USP-GEO
100
AcDbPolyline
 90
        2
 70
   128
 43
0.0
 10
2.002743115002994
 20
2.68649568492453
 10
2.003501155546144
 20
2.68649568492453
  0
LWPOLYLINE
  5
1B8
100
AcDbEntity
  8
USP-GEO
100
AcDbPolyline
 90
        6
 70
   128
 43
0.0
 10
2.078547169318019
 20
2.68649568492453
 10
2.002743115002994
 20
2.68649568492453
 10
2.002743115002994
 20
2.655416022655369
 10
2.002743115002994
 20
2.609933590066352
 10
2.002743115002994
 20
2.564451157477337
 10
2.002743115002994
 20
2.518968724888322
  0
LWPOLYLINE
  5
1B9
100
AcDbEntity
  8
USP-GEO
100
AcDbPolyline
 90
        6
 70
   129
 43
0.0
 10
2.003501155546144
 20
3.186802443403703
 10
2.002743115002994
 20
3.186802443403703
 10
2.002743115002994
 20
3.156480821677693
 10
2.002743115002994
 20
3.110998389088676
 10
2.002743115002994
 20
3.156480821677693
 10
2.002743115002994
 20
3.186802443403703
  0
LWPOLYLINE
  5
1BA
100
AcDbEntity
  8
USP-GEO
100
AcDbPolyline
 90
        2
 70
   129
 43
0.0
 10
2.078547169318019
 20
3.186802443403703
 10
2.078547169318019
 20
3.156480821677693
  0
LWPOLYLINE
  5
1BB
100
AcDbEntity
  8
USP-GEO
100
AcDbPolyline
 90
        2
 70
   129
 43
0.0
 10
2.079305209861169
 20
3.186802443403703
 10
2.078547169318019
 20
3.186802443403703
  0
LWPOLYLINE
  5
1BC
100
AcDbEntity
  8
USP-GEO
100
AcDbPolyline
 90
        2
 70
   129
 43
0.0
 10
2.078547169318019
 20
3.110998389088676
 10
2.078547169318019
 20
3.156480821677693
  0
LWPOLYLINE
  5
1BD
100
AcDbEntity
  8
USP-GEO
100
AcDbPolyline
 90
        4
 70
   129
 43
0.0
 10
2.079305209861169
 20
3.020033523910646
 10
2.078547169318019
 20
3.020033523910646
 10
2.078547169318019
 20
3.065515956499661
 10
2.078547169318019
 20
3.020033523910646
  0
LWPOLYLINE
  5
1BE
100
AcDbEntity
  8
USP-GEO
100
AcDbPolyline
 90
        2
 70
   129
 43
0.0
 10
2.078547169318019
 20
3.110998389088676
 10
2.078547169318019
 20
3.065515956499661
  0
LWPOLYLINE
  5
1BF
100
AcDbEntity
  8
USP-GEO
100
AcDbPolyline
 90
        7
 70
   128
 43
0.0
 10
2.003501155546144
 20
3.020033523910646
 10
2.002743115002994
 20
3.020033523910646
 10
2.078547169318019
 20
3.020033523910646
 10
2.078547169318019
 20
3.065515956499661
 10
2.078547169318019
 20
3.110998389088676
 10
2.078547169318019
 20
3.156480821677693
 10
2.078547169318019
 20
3.186802443403703
  0
LWPOLYLINE
  5
1C0
100
AcDbEntity
  8
USP-GEO
100
AcDbPolyline
 90
       12
 70
   128
 43
0.0
 10
2.003501155546144
 20
3.020033523910646
 10
2.002743115002994
 20
3.020033523910646
 10
2.002743115002994
 20
3.065515956499661
 10
2.002743115002994
 20
3.110998389088676
 10
2.002743115002994
 20
3.065515956499661
 10
2.002743115002994
 20
3.020033523910646
 10
2.002743115002994
 20
3.065515956499661
 10
2.002743115002994
 20
3.110998389088676
 10
2.002743115002994
 20
3.156480821677693
 10
2.002743115002994
 20
3.186802443403703
 10
2.078547169318019
 20
3.186802443403703
 10
2.079305209861169
 20
3.186802443403703
  0
LWPOLYLINE
  5
1C1
100
AcDbEntity
  8
USP-GEO
100
AcDbPolyline
 90
        2
 70
   128
 43
0.0
 10
2.002743115002994
 20
4.355700960941408
 10
2.002743115002994
 20
4.310218528352391
  0
LWPOLYLINE
  5
1C2
100
AcDbEntity
  8
USP-GEO
100
AcDbPolyline
 90
        2
 70
   129
 43
0.0
 10
2.002743115002994
 20
4.44666582611944
 10
2.002743115002994
 20
4.431505015256433
  0
LWPOLYLINE
  5
1C3
100
AcDbEntity
  8
USP-GEO
100
AcDbPolyline
 90
        4
 70
   129
 43
0.0
 10
2.002743115002994
 20
4.355700960941408
 10
2.002743115002994
 20
4.401183393530423
 10
2.002743115002994
 20
4.431505015256433
 10
2.002743115002994
 20
4.401183393530423
  0
LWPOLYLINE
  5
1C4
100
AcDbEntity
  8
USP-GEO
100
AcDbPolyline
 90
        4
 70
   129
 43
0.0
 10
2.002743115002994
 20
4.310218528352391
 10
2.002743115002994
 20
4.279138866083231
 10
2.002743115002994
 20
4.263978055220226
 10
2.002743115002994
 20
4.279138866083231
  0
LWPOLYLINE
  5
1C5
100
AcDbEntity
  8
USP-GEO
100
AcDbPolyline
 90
        2
 70
   128
 43
0.0
 10
2.002743115002994
 20
4.310218528352391
 10
2.002743115002994
 20
4.355700960941408
  0
LWPOLYLINE
  5
1C6
100
AcDbEntity
  8
USP-GEO
100
AcDbPolyline
 90
        2
 70
   129
 43
0.0
 10
2.078547169318019
 20
4.780203665105554
 10
2.078547169318019
 20
4.765042854242549
  0
LWPOLYLINE
  5
1C7
100
AcDbEntity
  8
USP-GEO
100
AcDbPolyline
 90
        3
 70
   128
 43
0.0
 10
2.078547169318019
 20
4.431505015256433
 10
2.078547169318019
 20
4.44666582611944
 10
2.078547169318019
 20
4.431505015256433
  0
LWPOLYLINE
  5
1C8
100
AcDbEntity
  8
USP-GEO
100
AcDbPolyline
 90
        4
 70
   129
 43
0.0
 10
2.078547169318019
 20
4.279138866083231
 10
2.078547169318019
 20
4.263978055220226
 10
2.078547169318019
 20
4.279138866083231
 10
2.078547169318019
 20
4.310218528352391
  0
LWPOLYLINE
  5
1C9
100
AcDbEntity
  8
USP-GEO
100
AcDbPolyline
 90
        4
 70
   129
 43
0.0
 10
2.078547169318019
 20
4.401183393530423
 10
2.078547169318019
 20
4.355700960941408
 10
2.078547169318019
 20
4.310218528352391
 10
2.078547169318019
 20
4.355700960941408
  0
LWPOLYLINE
  5
1CA
100
AcDbEntity
  8
USP-GEO
100
AcDbPolyline
 90
        2
 70
   129
 43
0.0
 10
2.078547169318019
 20
4.401183393530423
 10
2.078547169318019
 20
4.431505015256433
  0
LWPOLYLINE
  5
1CB
100
AcDbEntity
  8
USP-GEO
100
AcDbPolyline
 90
        8
 70
   128
 43
0.0
 10
2.002743115002994
 20
4.53763069129747
 10
2.002743115002994
 20
4.567952313023482
 10
2.002743115002994
 20
4.598273934749492
 10
2.002743115002994
 20
4.628595556475502
 10
2.078547169318019
 20
4.628595556475502
 10
2.078547169318019
 20
4.598273934749492
 10
2.078547169318019
 20
4.567952313023482
 10
2.078547169318019
 20
4.53763069129747
  0
LWPOLYLINE
  5
1CC
100
AcDbEntity
  8
USP-GEO
100
AcDbPolyline
 90
       14
 70
   129
 43
0.0
 10
2.078547169318019
 20
4.279138866083231
 10
2.078547169318019
 20
4.310218528352391
 10
2.078547169318019
 20
4.355700960941408
 10
2.078547169318019
 20
4.401183393530423
 10
2.078547169318019
 20
4.431505015256433
 10
2.078547169318019
 20
4.44666582611944
 10
2.002743115002994
 20
4.44666582611944
 10
2.002743115002994
 20
4.431505015256433
 10
2.002743115002994
 20
4.401183393530423
 10
2.002743115002994
 20
4.355700960941408
 10
2.002743115002994
 20
4.310218528352391
 10
2.002743115002994
 20
4.279138866083231
 10
2.002743115002994
 20
4.263978055220226
 10
2.078547169318019
 20
4.263978055220226
  0
LWPOLYLINE
  5
1CD
100
AcDbEntity
  8
USP-GEO
100
AcDbPolyline
 90
        8
 70
   129
 43
0.0
 10
2.002743115002994
 20
6.995956172733773
 10
2.002743115002994
 20
6.920152118418746
 10
2.002743115002994
 20
6.84434806410372
 10
2.002743115002994
 20
6.783704820651699
 10
2.002743115002994
 20
6.768544009788694
 10
2.002743115002994
 20
6.783704820651699
 10
2.002743115002994
 20
6.84434806410372
 10
2.002743115002994
 20
6.920152118418746
  0
LWPOLYLINE
  5
1CE
100
AcDbEntity
  8
USP-GEO
100
AcDbPolyline
 90
        4
 70
   129
 43
0.0
 10
2.002743115002994
 20
6.995956172733773
 10
2.002743115002994
 20
6.510052184574455
 10
2.078547169318019
 20
6.510052184574455
 10
2.078547169318019
 20
6.995956172733773
  0
LWPOLYLINE
  5
1CF
100
AcDbEntity
  8
USP-GEO
100
AcDbPolyline
 90
       14
 70
   129
 43
0.0
 10
2.078547169318019
 20
6.920152118418746
 10
2.078547169318019
 20
6.995956172733773
 10
2.078547169318019
 20
7.056599416185794
 10
2.078547169318019
 20
7.071760227048799
 10
2.002743115002994
 20
7.071760227048799
 10
2.002743115002994
 20
7.056599416185794
 10
2.002743115002994
 20
6.995956172733773
 10
2.002743115002994
 20
6.920152118418746
 10
2.002743115002994
 20
6.84434806410372
 10
2.002743115002994
 20
6.783704820651699
 10
2.002743115002994
 20
6.768544009788694
 10
2.078547169318019
 20
6.768544009788694
 10
2.078547169318019
 20
6.783704820651699
 10
2.078547169318019
 20
6.84434806410372
  0
LWPOLYLINE
  5
1D0
100
AcDbEntity
  8
USP-GEO
100
AcDbPolyline
 90
        4
 70
   128
 43
0.0
 10
2.078547169318019
 20
5.599645492250989
 10
2.078547169318019
 20
6.085549480410307
 10
2.002743115002994
 20
6.085549480410307
 10
2.002743115002994
 20
5.599645492250989
  0
LWPOLYLINE
  5
1D1
100
AcDbEntity
  8
USP-GEO
100
AcDbPolyline
 90
        4
 70
   129
 43
0.0
 10
2.078547169318019
 20
4.901490152009596
 10
2.078547169318019
 20
4.931811773735608
 10
2.078547169318019
 20
4.946972584598613
 10
2.078547169318019
 20
4.931811773735608
  0
LWPOLYLINE
  5
1D2
100
AcDbEntity
  8
USP-GEO
100
AcDbPolyline
 90
        2
 70
   128
 43
0.0
 10
2.002743115002994
 20
5.508680627072957
 10
2.002743115002994
 20
5.205464409812853
  0
LWPOLYLINE
  5
1D3
100
AcDbEntity
  8
USP-GEO
100
AcDbPolyline
 90
        2
 70
   128
 43
0.0
 10
2.078547169318019
 20
5.205464409812853
 10
2.078547169318019
 20
5.508680627072957
  0
LWPOLYLINE
  5
1D4
100
AcDbEntity
  8
USP-GEO
100
AcDbPolyline
 90
        8
 70
   128
 43
0.0
 10
2.002743115002994
 20
5.114499544634821
 10
2.002743115002994
 20
5.144821166360831
 10
2.002743115002994
 20
5.175142788086843
 10
2.002743115002994
 20
5.205464409812853
 10
2.078547169318019
 20
5.205464409812853
 10
2.078547169318019
 20
5.175142788086843
 10
2.078547169318019
 20
5.144821166360831
 10
2.078547169318019
 20
5.114499544634821
  0
LWPOLYLINE
  5
1D5
100
AcDbEntity
  8
USP-GEO
100
AcDbPolyline
 90
        8
 70
   129
 43
0.0
 10
2.002743115002994
 20
5.539002248798968
 10
2.002743115002994
 20
5.508680627072957
 10
2.078547169318019
 20
5.508680627072957
 10
2.078547169318019
 20
5.539002248798968
 10
2.078547169318019
 20
5.569323870524979
 10
2.078547169318019
 20
5.599645492250989
 10
2.002743115002994
 20
5.599645492250989
 10
2.002743115002994
 20
5.569323870524979
  0
LWPOLYLINE
  5
1D6
100
AcDbEntity
  8
USP-GEO
100
AcDbPolyline
 90
        2
 70
   128
 43
0.0
 10
2.002743115002994
 20
6.691981914930518
 10
2.003501155546144
 20
6.691981914930518
  0
LWPOLYLINE
  5
1D7
100
AcDbEntity
  8
USP-GEO
100
AcDbPolyline
 90
       10
 70
   129
 43
0.0
 10
2.002743115002994
 20
6.691981914930518
 10
2.002743115002994
 20
6.646499482341502
 10
2.002743115002994
 20
6.601017049752486
 10
2.002743115002994
 20
6.55553461716347
 10
2.002743115002994
 20
6.52521299543746
 10
2.002743115002994
 20
6.510052184574455
 10
2.002743115002994
 20
6.52521299543746
 10
2.002743115002994
 20
6.55553461716347
 10
2.002743115002994
 20
6.601017049752486
 10
2.002743115002994
 20
6.646499482341502
  0
LWPOLYLINE
  5
1D8
100
AcDbEntity
  8
USP-GEO
100
AcDbPolyline
 90
        2
 70
   129
 43
0.0
 10
2.003501155546144
 20
6.191675156451344
 10
2.002743115002994
 20
6.191675156451344
  0
LWPOLYLINE
  5
1D9
100
AcDbEntity
  8
USP-GEO
100
AcDbPolyline
 90
       10
 70
   129
 43
0.0
 10
2.002743115002994
 20
6.055227858684297
 10
2.002743115002994
 20
6.100710291273312
 10
2.002743115002994
 20
6.146192723862329
 10
2.002743115002994
 20
6.191675156451344
 10
2.002743115002994
 20
6.146192723862329
 10
2.002743115002994
 20
6.100710291273312
 10
2.002743115002994
 20
6.055227858684297
 10
2.002743115002994
 20
6.024906236958287
 10
2.002743115002994
 20
6.009745426095282
 10
2.002743115002994
 20
6.024906236958287
  0
LWPOLYLINE
  5
1DA
100
AcDbEntity
  8
USP-GEO
100
AcDbPolyline
 90
        2
 70
   128
 43
0.0
 10
2.002743115002994
 20
6.691981914930518
 10
2.003501155546144
 20
6.691981914930518
  0
LWPOLYLINE
  5
1DB
100
AcDbEntity
  8
USP-GEO
100
AcDbPolyline
 90
        8
 70
   128
 43
0.0
 10
2.078547169318019
 20
6.55553461716347
 10
2.078547169318019
 20
6.52521299543746
 10
2.078547169318019
 20
6.510052184574455
 10
2.078547169318019
 20
6.52521299543746
 10
2.078547169318019
 20
6.55553461716347
 10
2.078547169318019
 20
6.601017049752486
 10
2.078547169318019
 20
6.646499482341502
 10
2.078547169318019
 20
6.691981914930518
  0
LWPOLYLINE
  5
1DC
100
AcDbEntity
  8
USP-GEO
100
AcDbPolyline
 90
        4
 70
   129
 43
0.0
 10
2.078547169318019
 20
6.191675156451344
 10
2.078547169318019
 20
6.146192723862329
 10
2.078547169318019
 20
6.100710291273312
 10
2.078547169318019
 20
6.146192723862329
  0
LWPOLYLINE
  5
1DD
100
AcDbEntity
  8
USP-GEO
100
AcDbPolyline
 90
        2
 70
   128
 43
0.0
 10
2.078547169318019
 20
6.191675156451344
 10
2.079305209861169
 20
6.191675156451344
  0
LWPOLYLINE
  5
1DE
100
AcDbEntity
  8
USP-GEO
100
AcDbPolyline
 90
        6
 70
   129
 43
0.0
 10
2.078547169318019
 20
6.024906236958287
 10
2.078547169318019
 20
6.009745426095282
 10
2.078547169318019
 20
6.024906236958287
 10
2.078547169318019
 20
6.055227858684297
 10
2.078547169318019
 20
6.100710291273312
 10
2.078547169318019
 20
6.055227858684297
  0
LWPOLYLINE
  5
1DF
100
AcDbEntity
  8
USP-GEO
100
AcDbPolyline
 90
        4
 70
   128
 43
0.0
 10
2.078547169318019
 20
6.419087319396423
 10
2.078547169318019
 20
6.449408941122434
 10
2.078547169318019
 20
6.479730562848444
 10
2.078547169318019
 20
6.510052184574455
  0
LWPOLYLINE
  5
1E0
100
AcDbEntity
  8
USP-GEO
100
AcDbPolyline
 90
        4
 70
   128
 43
0.0
 10
2.002743115002994
 20
6.510052184574455
 10
2.002743115002994
 20
6.479730562848444
 10
2.002743115002994
 20
6.449408941122434
 10
2.002743115002994
 20
6.419087319396423
  0
LWPOLYLINE
  5
1E1
100
AcDbEntity
  8
USP-GEO
100
AcDbPolyline
 90
        4
 70
   128
 43
0.0
 10
2.078547169318019
 20
6.176514345588339
 10
2.078547169318019
 20
6.419087319396423
 10
2.002743115002994
 20
6.419087319396423
 10
2.002743115002994
 20
6.176514345588339
  0
LWPOLYLINE
  5
1E2
100
AcDbEntity
  8
USP-GEO
100
AcDbPolyline
 90
        8
 70
   128
 43
0.0
 10
2.002743115002994
 20
6.085549480410307
 10
2.002743115002994
 20
6.115871102136317
 10
2.002743115002994
 20
6.146192723862329
 10
2.002743115002994
 20
6.176514345588339
 10
2.078547169318019
 20
6.176514345588339
 10
2.078547169318019
 20
6.146192723862329
 10
2.078547169318019
 20
6.115871102136317
 10
2.078547169318019
 20
6.085549480410307
  0
LWPOLYLINE
  5
1E3
100
AcDbEntity
  8
USP-GEO
100
AcDbPolyline
 90
        2
 70
   128
 43
0.0
 10
2.002743115002994
 20
6.191675156451344
 10
2.003501155546144
 20
6.191675156451344
  0
LWPOLYLINE
  5
1E4
100
AcDbEntity
  8
USP-GEO
100
AcDbPolyline
 90
       12
 70
   129
 43
0.0
 10
2.078547169318019
 20
6.191675156451344
 10
2.002743115002994
 20
6.191675156451344
 10
2.002743115002994
 20
6.146192723862329
 10
2.002743115002994
 20
6.100710291273312
 10
2.002743115002994
 20
6.055227858684297
 10
2.002743115002994
 20
6.024906236958287
 10
2.002743115002994
 20
6.009745426095282
 10
2.078547169318019
 20
6.009745426095282
 10
2.078547169318019
 20
6.024906236958287
 10
2.078547169318019
 20
6.055227858684297
 10
2.078547169318019
 20
6.100710291273312
 10
2.078547169318019
 20
6.146192723862329
  0
LWPOLYLINE
  5
1E5
100
AcDbEntity
  8
USP-GEO
100
AcDbPolyline
 90
        2
 70
   128
 43
0.0
 10
2.078547169318019
 20
6.191675156451344
 10
2.079305209861169
 20
6.191675156451344
  0
LWPOLYLINE
  5
1E6
100
AcDbEntity
  8
USP-GEO
100
AcDbPolyline
 90
        3
 70
   128
 43
0.0
 10
2.078547169318019
 20
6.691981914930518
 10
2.002743115002994
 20
6.691981914930518
 10
2.003501155546144
 20
6.691981914930518
  0
LWPOLYLINE
  5
1E7
100
AcDbEntity
  8
USP-GEO
100
AcDbPolyline
 90
        8
 70
   128
 43
0.0
 10
2.002743115002994
 20
6.646499482341502
 10
2.002743115002994
 20
6.601017049752486
 10
2.002743115002994
 20
6.55553461716347
 10
2.002743115002994
 20
6.52521299543746
 10
2.002743115002994
 20
6.510052184574455
 10
2.078547169318019
 20
6.510052184574455
 10
2.078547169318019
 20
6.52521299543746
 10
2.078547169318019
 20
6.55553461716347
  0
LWPOLYLINE
  5
1E8
100
AcDbEntity
  8
USP-GEO
100
AcDbPolyline
 90
        2
 70
   128
 43
0.0
 10
2.078547169318019
 20
6.691981914930518
 10
2.079305209861169
 20
6.691981914930518
  0
LWPOLYLINE
  5
1E9
100
AcDbEntity
  8
USP-GEO
100
AcDbPolyline
 90
        2
 70
   128
 43
0.0
 10
2.002743115002994
 20
6.691981914930518
 10
2.002743115002994
 20
6.646499482341502
  0
LWPOLYLINE
  5
1EA
100
AcDbEntity
  8
USP-GEO
100
AcDbPolyline
 90
        8
 70
   129
 43
0.0
 10
2.079305209861169
 20
6.691981914930518
 10
2.078547169318019
 20
6.691981914930518
 10
2.078547169318019
 20
6.646499482341502
 10
2.078547169318019
 20
6.601017049752486
 10
2.078547169318019
 20
6.55553461716347
 10
2.078547169318019
 20
6.601017049752486
 10
2.078547169318019
 20
6.646499482341502
 10
2.078547169318019
 20
6.691981914930518
  0
LWPOLYLINE
  5
1EB
100
AcDbEntity
  8
USP-GEO
100
AcDbPolyline
 90
        4
 70
   128
 43
0.0
 10
2.002743115002994
 20
7.071760227048799
 10
2.002743115002994
 20
7.041438605322788
 10
2.002743115002994
 20
7.026277794459783
 10
2.002743115002994
 20
6.995956172733773
  0
LWPOLYLINE
  5
1EC
100
AcDbEntity
  8
USP-GEO
100
AcDbPolyline
 90
        2
 70
   129
 43
0.0
 10
2.002743115002994
 20
7.071760227048799
 10
2.002743115002994
 20
7.056599416185794
  0
LWPOLYLINE
  5
1ED
100
AcDbEntity
  8
USP-GEO
100
AcDbPolyline
 90
        3
 70
   128
 43
0.0
 10
2.002743115002994
 20
6.995956172733773
 10
2.002743115002994
 20
7.056599416185794
 10
2.002743115002994
 20
6.995956172733773
  0
LWPOLYLINE
  5
1EE
100
AcDbEntity
  8
USP-GEO
100
AcDbPolyline
 90
        5
 70
   129
 43
0.0
 10
2.078547169318019
 20
7.056599416185794
 10
2.078547169318019
 20
6.995956172733773
 10
2.078547169318019
 20
7.026277794459783
 10
2.078547169318019
 20
7.041438605322788
 10
2.078547169318019
 20
7.071760227048799
  0
LWPOLYLINE
  5
1EF
100
AcDbEntity
  8
USP-GEO
100
AcDbPolyline
 90
        7
 70
   128
 43
0.0
 10
2.078547169318019
 20
6.995956172733773
 10
2.078547169318019
 20
7.026277794459783
 10
2.078547169318019
 20
7.041438605322788
 10
2.078547169318019
 20
7.071760227048799
 10
2.078547169318019
 20
7.238529146541857
 10
2.002743115002994
 20
7.238529146541857
 10
2.002743115002994
 20
7.071760227048799
  0
LWPOLYLINE
  5
1F0
100
AcDbEntity
  8
USP-GEO
100
AcDbPolyline
 90
        5
 70
   128
 43
0.0
 10
2.002743115002994
 20
6.995956172733773
 10
2.002743115002994
 20
7.026277794459783
 10
2.002743115002994
 20
7.041438605322788
 10
2.002743115002994
 20
7.071760227048799
 10
2.078547169318019
 20
7.071760227048799
  0
LWPOLYLINE
  5
1F1
100
AcDbEntity
  8
USP-GEO
100
AcDbPolyline
 90
        2
 70
   128
 43
0.0
 10
5.582968600301683
 20
7.238529146541857
 10
5.582968600301683
 20
0.4100999338442915
  0
LWPOLYLINE
  5
1F2
100
AcDbEntity
  8
USP-GEO
100
AcDbPolyline
 90
       10
 70
   128
 43
0.0
 10
5.582968600301683
 20
2.306717372806248
 10
5.582968600301683
 20
2.13994845331319
 10
5.582968600301683
 20
1.988340344683138
 10
5.582968600301683
 20
0.3039742578032545
 10
5.582968600301683
 20
0.2736526360772444
 10
5.582968600301683
 20
0.242572973808084
 10
5.582968600301683
 20
0.2122513520820721
 10
5.582968600301683
 20
0.0
 10
4.536114610211171
 20
0.0
 10
4.536872650754322
 20
0.0
  0
LWPOLYLINE
  5
1F3
100
AcDbEntity
  8
USP-GEO
100
AcDbPolyline
 90
       34
 70
   128
 43
0.0
 10
5.507164545986658
 20
0.242572973808084
 10
5.507164545986658
 20
0.2122513520820721
 10
5.507164545986658
 20
0.0758040543150251
 10
5.507164545986658
 20
0.2122513520820721
 10
5.507164545986658
 20
0.242572973808084
 10
5.507164545986658
 20
0.2736526360772444
 10
5.507164545986658
 20
0.3039742578032545
 10
5.507164545986658
 20
1.988340344683138
 10
5.507164545986658
 20
2.13994845331319
 10
5.507164545986658
 20
2.306717372806248
 10
5.507164545986658
 20
2.473486292299305
 10
5.507164545986658
 20
4.53763069129747
 10
5.507164545986658
 20
4.567952313023482
 10
5.507164545986658
 20
4.598273934749492
 10
5.507164545986658
 20
4.628595556475502
 10
5.507164545986658
 20
5.114499544634821
 10
5.507164545986658
 20
5.144821166360831
 10
5.507164545986658
 20
5.175142788086843
 10
5.507164545986658
 20
5.205464409812853
 10
5.507164545986658
 20
5.508680627072957
 10
5.507164545986658
 20
5.539002248798968
 10
5.507164545986658
 20
5.569323870524979
 10
5.507164545986658
 20
5.599645492250989
 10
5.507164545986658
 20
6.085549480410307
 10
5.507164545986658
 20
6.115871102136317
 10
5.507164545986658
 20
6.146192723862329
 10
5.507164545986658
 20
6.176514345588339
 10
5.507164545986658
 20
6.419087319396423
 10
5.507164545986658
 20
6.449408941122434
 10
5.507164545986658
 20
6.479730562848444
 10
5.507164545986658
 20
6.510052184574455
 10
5.507164545986658
 20
6.995956172733773
 10
5.507164545986658
 20
7.056599416185794
 10
5.507164545986658
 20
7.071760227048799
  0
LWPOLYLINE
  5
1F4
100
AcDbEntity
  8
USP-GEO
100
AcDbPolyline
 90
        6
 70
   128
 43
0.0
 10
5.507164545986658
 20
0.242572973808084
 10
5.507164545986658
 20
0.2736526360772444
 10
5.507164545986658
 20
0.3039742578032545
 10
5.507164545986658
 20
0.4100999338442915
 10
5.507164545986658
 20
7.238529146541857
 10
5.507164545986658
 20
7.071760227048799
  0
LWPOLYLINE
  5
1F5
100
AcDbEntity
  8
USP-GEO
100
AcDbPolyline
 90
        2
 70
   129
 43
0.0
 10
6.917877996789297
 20
1.988340344683138
 10
5.582968600301683
 20
0.4100999338442915
  0
LWPOLYLINE
  5
1F6
100
AcDbEntity
  8
USP-GEO
100
AcDbPolyline
 90
        9
 70
   128
 43
0.0
 10
5.582968600301683
 20
1.988340344683138
 10
5.582968600301683
 20
0.3039742578032545
 10
5.582968600301683
 20
0.4100999338442915
 10
5.507164545986658
 20
0.4100999338442915
 10
5.507164545986658
 20
0.3039742578032545
 10
5.507164545986658
 20
1.988340344683138
 10
5.507164545986658
 20
2.13994845331319
 10
5.507164545986658
 20
2.306717372806248
 10
5.507164545986658
 20
2.473486292299305
  0
LWPOLYLINE
  5
1F7
100
AcDbEntity
  8
USP-GEO
100
AcDbPolyline
 90
        4
 70
   128
 43
0.0
 10
5.507164545986658
 20
0.2122513520820721
 10
5.507164545986658
 20
0.0758040543150251
 10
4.536114610211171
 20
0.0758040543150251
 10
4.536872650754322
 20
0.0758040543150251
  0
LWPOLYLINE
  5
1F8
100
AcDbEntity
  8
USP-GEO
100
AcDbPolyline
 90
        2
 70
   129
 43
0.0
 10
5.507164545986658
 20
0.0758040543150251
 10
4.536114610211171
 20
0.0758040543150251
  0
LWPOLYLINE
  5
1F9
100
AcDbEntity
  8
USP-GEO
100
AcDbPolyline
 90
        2
 70
   129
 43
0.0
 10
5.582968600301683
 20
0.0
 10
4.536114610211171
 20
0.0
  0
LWPOLYLINE
  5
1FA
100
AcDbEntity
  8
USP-GEO
100
AcDbPolyline
 90
        6
 70
   128
 43
0.0
 10
4.445149745033141
 20
0.0
 10
4.490632177622156
 20
0.0
 10
4.536114610211171
 20
0.0
 10
4.536114610211171
 20
0.0758040543150251
 10
4.490632177622156
 20
0.0758040543150251
 10
4.445149745033141
 20
0.0758040543150251
  0
LWPOLYLINE
  5
1FB
100
AcDbEntity
  8
USP-GEO
100
AcDbPolyline
 90
        3
 70
   128
 43
0.0
 10
4.490632177622156
 20
0.0758040543150251
 10
4.536114610211171
 20
0.0758040543150251
 10
4.490632177622156
 20
0.0758040543150251
  0
LWPOLYLINE
  5
1FC
100
AcDbEntity
  8
USP-GEO
100
AcDbPolyline
 90
        2
 70
   129
 43
0.0
 10
4.536872650754322
 20
0.0758040543150251
 10
4.536114610211171
 20
0.0758040543150251
  0
LWPOLYLINE
  5
1FD
100
AcDbEntity
  8
USP-GEO
100
AcDbPolyline
 90
        5
 70
   128
 43
0.0
 10
4.490632177622156
 20
0.0
 10
4.536114610211171
 20
0.0
 10
4.490632177622156
 20
0.0
 10
4.445149745033141
 20
0.0
 10
4.490632177622156
 20
0.0
  0
LWPOLYLINE
  5
1FE
100
AcDbEntity
  8
USP-GEO
100
AcDbPolyline
 90
        2
 70
   129
 43
0.0
 10
4.536872650754322
 20
0.0
 10
4.536114610211171
 20
0.0
  0
LWPOLYLINE
  5
1FF
100
AcDbEntity
  8
USP-GEO
100
AcDbPolyline
 90
        7
 70
   128
 43
0.0
 10
5.582968600301683
 20
0.4100999338442915
 10
5.582968600301683
 20
0.3039742578032545
 10
5.582968600301683
 20
0.2736526360772444
 10
5.582968600301683
 20
0.242572973808084
 10
5.582968600301683
 20
0.2122513520820721
 10
5.582968600301683
 20
0.0
 10
5.582968600301683
 20
0.2122513520820721
  0
LWPOLYLINE
  5
200
100
AcDbEntity
  8
USP-GEO
100
AcDbPolyline
 90
        2
 70
   129
 43
0.0
 10
5.507164545986658
 20
0.4100999338442915
 10
5.582968600301683
 20
0.4100999338442915
  0
LWPOLYLINE
  5
201
100
AcDbEntity
  8
USP-GEO
100
AcDbPolyline
 90
        8
 70
   129
 43
0.0
 10
5.582968600301683
 20
0.3039742578032545
 10
5.507164545986658
 20
0.3039742578032545
 10
5.507164545986658
 20
0.2736526360772444
 10
5.507164545986658
 20
0.242572973808084
 10
5.507164545986658
 20
0.2122513520820721
 10
5.582968600301683
 20
0.2122513520820721
 10
5.582968600301683
 20
0.242572973808084
 10
5.582968600301683
 20
0.2736526360772444
  0
LWPOLYLINE
  5
202
100
AcDbEntity
  8
USP-GEO
100
AcDbPolyline
 90
        2
 70
   128
 43
0.0
 10
5.582968600301683
 20
4.628595556475502
 10
5.582968600301683
 20
5.114499544634821
  0
LWPOLYLINE
  5
203
100
AcDbEntity
  8
USP-GEO
100
AcDbPolyline
 90
        7
 70
   128
 43
0.0
 10
5.507164545986658
 20
5.205464409812853
 10
5.507164545986658
 20
5.175142788086843
 10
5.507164545986658
 20
5.144821166360831
 10
5.507164545986658
 20
5.114499544634821
 10
5.507164545986658
 20
4.628595556475502
 10
5.582968600301683
 20
4.628595556475502
 10
5.582968600301683
 20
5.114499544634821
  0
LWPOLYLINE
  5
204
100
AcDbEntity
  8
USP-GEO
100
AcDbPolyline
 90
        6
 70
   129
 43
0.0
 10
5.582968600301683
 20
2.777460550102562
 10
5.582968600301683
 20
2.762299739239557
 10
5.582968600301683
 20
2.777460550102562
 10
5.582968600301683
 20
2.807782171828572
 10
5.582968600301683
 20
2.853264604417587
 10
5.582968600301683
 20
2.807782171828572
  0
LWPOLYLINE
  5
205
100
AcDbEntity
  8
USP-GEO
100
AcDbPolyline
 90
        5
 70
   128
 43
0.0
 10
5.582968600301683
 20
2.473486292299305
 10
5.582968600301683
 20
4.53763069129747
 10
5.582968600301683
 20
4.567952313023482
 10
5.582968600301683
 20
4.598273934749492
 10
5.582968600301683
 20
4.628595556475502
  0
LWPOLYLINE
  5
206
100
AcDbEntity
  8
USP-GEO
100
AcDbPolyline
 90
        8
 70
   129
 43
0.0
 10
5.507164545986658
 20
2.898747037006604
 10
5.507164545986658
 20
2.853264604417587
 10
5.507164545986658
 20
2.807782171828572
 10
5.507164545986658
 20
2.777460550102562
 10
5.507164545986658
 20
2.762299739239557
 10
5.507164545986658
 20
2.777460550102562
 10
5.507164545986658
 20
2.807782171828572
 10
5.507164545986658
 20
2.853264604417587
  0
LWPOLYLINE
  5
207
100
AcDbEntity
  8
USP-GEO
100
AcDbPolyline
 90
        7
 70
   128
 43
0.0
 10
5.507164545986658
 20
4.628595556475502
 10
5.507164545986658
 20
4.598273934749492
 10
5.507164545986658
 20
4.567952313023482
 10
5.507164545986658
 20
4.53763069129747
 10
5.507164545986658
 20
2.473486292299305
 10
5.582968600301683
 20
2.473486292299305
 10
5.582968600301683
 20
4.53763069129747
  0
LWPOLYLINE
  5
208
100
AcDbEntity
  8
USP-GEO
100
AcDbPolyline
 90
       14
 70
   129
 43
0.0
 10
5.507164545986658
 20
2.944229469595619
 10
5.507164545986658
 20
2.929068658732614
 10
5.507164545986658
 20
2.898747037006604
 10
5.507164545986658
 20
2.853264604417587
 10
5.507164545986658
 20
2.807782171828572
 10
5.507164545986658
 20
2.777460550102562
 10
5.507164545986658
 20
2.762299739239557
 10
5.582968600301683
 20
2.762299739239557
 10
5.582968600301683
 20
2.777460550102562
 10
5.582968600301683
 20
2.807782171828572
 10
5.582968600301683
 20
2.853264604417587
 10
5.582968600301683
 20
2.898747037006604
 10
5.582968600301683
 20
2.929068658732614
 10
5.582968600301683
 20
2.944229469595619
  0
LWPOLYLINE
  5
209
100
AcDbEntity
  8
USP-GEO
100
AcDbPolyline
 90
        3
 70
   128
 43
0.0
 10
5.582968600301683
 20
1.608562032564856
 10
5.582968600301683
 20
1.563079599975841
 10
5.582968600301683
 20
1.517597167386824
  0
LWPOLYLINE
  5
20A
100
AcDbEntity
  8
USP-GEO
100
AcDbPolyline
 90
        6
 70
   129
 43
0.0
 10
5.582968600301683
 20
1.608562032564856
 10
5.582968600301683
 20
1.654044465153871
 10
5.582968600301683
 20
1.684366086879883
 10
5.582968600301683
 20
1.699526897742888
 10
5.582968600301683
 20
1.684366086879883
 10
5.582968600301683
 20
1.654044465153871
  0
LWPOLYLINE
  5
20B
100
AcDbEntity
  8
USP-GEO
100
AcDbPolyline
 90
        2
 70
   129
 43
0.0
 10
5.583726640844833
 20
1.016532368364501
 10
5.582968600301683
 20
1.016532368364501
  0
LWPOLYLINE
  5
20C
100
AcDbEntity
  8
USP-GEO
100
AcDbPolyline
 90
        3
 70
   128
 43
0.0
 10
5.582968600301683
 20
1.062014800953516
 10
5.582968600301683
 20
1.016532368364501
 10
5.582968600301683
 20
1.062014800953516
  0
LWPOLYLINE
  5
20D
100
AcDbEntity
  8
USP-GEO
100
AcDbPolyline
 90
        2
 70
   129
 43
0.0
 10
5.582968600301683
 20
1.153737706674698
 10
5.582968600301683
 20
1.108255274085683
  0
LWPOLYLINE
  5
20E
100
AcDbEntity
  8
USP-GEO
100
AcDbPolyline
 90
        4
 70
   129
 43
0.0
 10
5.582968600301683
 20
1.184059328400708
 10
5.582968600301683
 20
1.153737706674698
 10
5.582968600301683
 20
1.184059328400708
 10
5.582968600301683
 20
1.199220139263715
  0
LWPOLYLINE
  5
20F
100
AcDbEntity
  8
USP-GEO
100
AcDbPolyline
 90
        4
 70
   128
 43
0.0
 10
5.582968600301683
 20
1.608562032564856
 10
5.582968600301683
 20
1.563079599975841
 10
5.582968600301683
 20
1.517597167386824
 10
5.583726640844833
 20
1.517597167386824
  0
LWPOLYLINE
  5
210
100
AcDbEntity
  8
USP-GEO
100
AcDbPolyline
 90
        2
 70
   129
 43
0.0
 10
5.582968600301683
 20
1.062014800953516
 10
5.582968600301683
 20
1.108255274085683
  0
LWPOLYLINE
  5
211
100
AcDbEntity
  8
USP-GEO
100
AcDbPolyline
 90
        8
 70
   129
 43
0.0
 10
5.507164545986658
 20
1.654044465153871
 10
5.507164545986658
 20
1.684366086879883
 10
5.507164545986658
 20
1.699526897742888
 10
5.507164545986658
 20
1.684366086879883
 10
5.507164545986658
 20
1.654044465153871
 10
5.507164545986658
 20
1.608562032564856
 10
5.507164545986658
 20
1.563079599975841
 10
5.507164545986658
 20
1.608562032564856
  0
LWPOLYLINE
  5
212
100
AcDbEntity
  8
USP-GEO
100
AcDbPolyline
 90
        2
 70
   129
 43
0.0
 10
5.507164545986658
 20
1.153737706674698
 10
5.507164545986658
 20
1.108255274085683
  0
LWPOLYLINE
  5
213
100
AcDbEntity
  8
USP-GEO
100
AcDbPolyline
 90
        3
 70
   128
 43
0.0
 10
5.507922586529808
 20
1.517597167386824
 10
5.507164545986658
 20
1.517597167386824
 10
5.507164545986658
 20
1.563079599975841
  0
LWPOLYLINE
  5
214
100
AcDbEntity
  8
USP-GEO
100
AcDbPolyline
 90
        2
 70
   128
 43
0.0
 10
5.507164545986658
 20
1.016532368364501
 10
5.507922586529808
 20
1.016532368364501
  0
LWPOLYLINE
  5
215
100
AcDbEntity
  8
USP-GEO
100
AcDbPolyline
 90
        3
 70
   128
 43
0.0
 10
5.507164545986658
 20
1.153737706674698
 10
5.507164545986658
 20
1.184059328400708
 10
5.507164545986658
 20
1.153737706674698
  0
LWPOLYLINE
  5
216
100
AcDbEntity
  8
USP-GEO
100
AcDbPolyline
 90
        2
 70
   129
 43
0.0
 10
5.507164545986658
 20
1.062014800953516
 10
5.507164545986658
 20
1.108255274085683
  0
LWPOLYLINE
  5
217
100
AcDbEntity
  8
USP-GEO
100
AcDbPolyline
 90
        2
 70
   129
 43
0.0
 10
5.507164545986658
 20
1.199220139263715
 10
5.507164545986658
 20
1.184059328400708
  0
LWPOLYLINE
  5
218
100
AcDbEntity
  8
USP-GEO
100
AcDbPolyline
 90
        3
 70
   128
 43
0.0
 10
5.507164545986658
 20
1.062014800953516
 10
5.507164545986658
 20
1.016532368364501
 10
5.507164545986658
 20
1.062014800953516
  0
LWPOLYLINE
  5
219
100
AcDbEntity
  8
USP-GEO
100
AcDbPolyline
 90
       12
 70
   129
 43
0.0
 10
5.507164545986658
 20
1.199220139263715
 10
5.507164545986658
 20
1.184059328400708
 10
5.507164545986658
 20
1.153737706674698
 10
5.507164545986658
 20
1.108255274085683
 10
5.507164545986658
 20
1.062014800953516
 10
5.507164545986658
 20
1.016532368364501
 10
5.582968600301683
 20
1.016532368364501
 10
5.582968600301683
 20
1.062014800953516
 10
5.582968600301683
 20
1.108255274085683
 10
5.582968600301683
 20
1.153737706674698
 10
5.582968600301683
 20
1.184059328400708
 10
5.582968600301683
 20
1.199220139263715
  0
LWPOLYLINE
  5
21A
100
AcDbEntity
  8
USP-GEO
100
AcDbPolyline
 90
        2
 70
   128
 43
0.0
 10
5.507164545986658
 20
1.016532368364501
 10
5.507922586529808
 20
1.016532368364501
  0
LWPOLYLINE
  5
21B
100
AcDbEntity
  8
USP-GEO
100
AcDbPolyline
 90
       15
 70
   128
 43
0.0
 10
5.507164545986658
 20
1.563079599975841
 10
5.507164545986658
 20
1.517597167386824
 10
5.507164545986658
 20
1.563079599975841
 10
5.507164545986658
 20
1.608562032564856
 10
5.507164545986658
 20
1.654044465153871
 10
5.507164545986658
 20
1.684366086879883
 10
5.507164545986658
 20
1.699526897742888
 10
5.582968600301683
 20
1.699526897742888
 10
5.582968600301683
 20
1.684366086879883
 10
5.582968600301683
 20
1.654044465153871
 10
5.582968600301683
 20
1.608562032564856
 10
5.582968600301683
 20
1.563079599975841
 10
5.582968600301683
 20
1.517597167386824
 10
5.507164545986658
 20
1.517597167386824
 10
5.507922586529808
 20
1.517597167386824
  0
LWPOLYLINE
  5
21C
100
AcDbEntity
  8
USP-GEO
100
AcDbPolyline
 90
        2
 70
   128
 43
0.0
 10
5.582968600301683
 20
2.306717372806248
 10
5.582968600301683
 20
2.473486292299305
  0
LWPOLYLINE
  5
21D
100
AcDbEntity
  8
USP-GEO
100
AcDbPolyline
 90
        5
 70
   128
 43
0.0
 10
5.507164545986658
 20
1.988340344683138
 10
5.582968600301683
 20
1.988340344683138
 10
5.582968600301683
 20
2.13994845331319
 10
5.582968600301683
 20
2.306717372806248
 10
5.582968600301683
 20
2.473486292299305
  0
LWPOLYLINE
  5
21E
100
AcDbEntity
  8
USP-GEO
100
AcDbPolyline
 90
        4
 70
   129
 43
0.0
 10
5.582968600301683
 20
2.929068658732614
 10
5.582968600301683
 20
2.898747037006604
 10
5.582968600301683
 20
2.929068658732614
 10
5.582968600301683
 20
2.944229469595619
  0
LWPOLYLINE
  5
21F
100
AcDbEntity
  8
USP-GEO
100
AcDbPolyline
 90
        4
 70
   128
 43
0.0
 10
5.582968600301683
 20
3.353571362896762
 10
5.582968600301683
 20
3.308088930307745
 10
5.582968600301683
 20
3.277767308581735
 10
5.582968600301683
 20
3.26260649771873
  0
LWPOLYLINE
  5
220
100
AcDbEntity
  8
USP-GEO
100
AcDbPolyline
 90
        2
 70
   128
 43
0.0
 10
5.582968600301683
 20
2.853264604417587
 10
5.582968600301683
 20
2.898747037006604
  0
LWPOLYLINE
  5
221
100
AcDbEntity
  8
USP-GEO
100
AcDbPolyline
 90
        6
 70
   128
 43
0.0
 10
5.582968600301683
 20
3.444536228074792
 10
5.582968600301683
 20
3.429375417211787
 10
5.582968600301683
 20
3.399053795485777
 10
5.582968600301683
 20
3.353571362896762
 10
5.582968600301683
 20
3.399053795485777
 10
5.582968600301683
 20
3.429375417211787
  0
LWPOLYLINE
  5
222
100
AcDbEntity
  8
USP-GEO
100
AcDbPolyline
 90
        4
 70
   128
 43
0.0
 10
5.582968600301683
 20
3.26260649771873
 10
5.582968600301683
 20
3.277767308581735
 10
5.582968600301683
 20
3.308088930307745
 10
5.582968600301683
 20
3.353571362896762
  0
LWPOLYLINE
  5
223
100
AcDbEntity
  8
USP-GEO
100
AcDbPolyline
 90
        2
 70
   128
 43
0.0
 10
5.582968600301683
 20
2.898747037006604
 10
5.582968600301683
 20
2.853264604417587
  0
LWPOLYLINE
  5
224
100
AcDbEntity
  8
USP-GEO
100
AcDbPolyline
 90
        2
 70
   128
 43
0.0
 10
5.582968600301683
 20
3.429375417211787
 10
5.582968600301683
 20
3.444536228074792
  0
LWPOLYLINE
  5
225
100
AcDbEntity
  8
USP-GEO
100
AcDbPolyline
 90
        4
 70
   129
 43
0.0
 10
5.507164545986658
 20
3.399053795485777
 10
5.507164545986658
 20
3.429375417211787
 10
5.507164545986658
 20
3.444536228074792
 10
5.507164545986658
 20
3.429375417211787
  0
LWPOLYLINE
  5
226
100
AcDbEntity
  8
USP-GEO
100
AcDbPolyline
 90
        8
 70
   129
 43
0.0
 10
5.507164545986658
 20
3.353571362896762
 10
5.507164545986658
 20
3.399053795485777
 10
5.507164545986658
 20
3.353571362896762
 10
5.507164545986658
 20
3.308088930307745
 10
5.507164545986658
 20
3.277767308581735
 10
5.507164545986658
 20
3.26260649771873
 10
5.507164545986658
 20
3.277767308581735
 10
5.507164545986658
 20
3.308088930307745
  0
LWPOLYLINE
  5
227
100
AcDbEntity
  8
USP-GEO
100
AcDbPolyline
 90
        3
 70
   128
 43
0.0
 10
5.507164545986658
 20
2.929068658732614
 10
5.507164545986658
 20
2.944229469595619
 10
5.507164545986658
 20
2.929068658732614
  0
LWPOLYLINE
  5
228
100
AcDbEntity
  8
USP-GEO
100
AcDbPolyline
 90
        3
 70
   128
 43
0.0
 10
5.507164545986658
 20
2.929068658732614
 10
5.507164545986658
 20
2.898747037006604
 10
5.507164545986658
 20
2.929068658732614
  0
LWPOLYLINE
  5
229
100
AcDbEntity
  8
USP-GEO
100
AcDbPolyline
 90
       14
 70
   129
 43
0.0
 10
5.507164545986658
 20
3.444536228074792
 10
5.507164545986658
 20
3.429375417211787
 10
5.507164545986658
 20
3.399053795485777
 10
5.507164545986658
 20
3.353571362896762
 10
5.507164545986658
 20
3.308088930307745
 10
5.507164545986658
 20
3.277767308581735
 10
5.507164545986658
 20
3.26260649771873
 10
5.582968600301683
 20
3.26260649771873
 10
5.582968600301683
 20
3.277767308581735
 10
5.582968600301683
 20
3.308088930307745
 10
5.582968600301683
 20
3.353571362896762
 10
5.582968600301683
 20
3.399053795485777
 10
5.582968600301683
 20
3.429375417211787
 10
5.582968600301683
 20
3.444536228074792
  0
LWPOLYLINE
  5
22A
100
AcDbEntity
  8
USP-GEO
100
AcDbPolyline
 90
        5
 70
   128
 43
0.0
 10
5.582968600301683
 20
4.643756367338507
 10
5.582968600301683
 20
4.598273934749492
 10
5.582968600301683
 20
4.567952313023482
 10
5.582968600301683
 20
4.522469880434465
 10
5.583726640844833
 20
4.522469880434465
  0
LWPOLYLINE
  5
22B
100
AcDbEntity
  8
USP-GEO
100
AcDbPolyline
 90
        5
 70
   128
 43
0.0
 10
5.583726640844833
 20
4.689238799927524
 10
5.582968600301683
 20
4.689238799927524
 10
5.582968600301683
 20
4.643756367338507
 10
5.582968600301683
 20
4.598273934749492
 10
5.582968600301683
 20
4.567952313023482
  0
LWPOLYLINE
  5
22C
100
AcDbEntity
  8
USP-GEO
100
AcDbPolyline
 90
        2
 70
   128
 43
0.0
 10
5.582968600301683
 20
4.567952313023482
 10
5.582968600301683
 20
4.522469880434465
  0
LWPOLYLINE
  5
22D
100
AcDbEntity
  8
USP-GEO
100
AcDbPolyline
 90
        2
 70
   128
 43
0.0
 10
5.582968600301683
 20
4.643756367338507
 10
5.582968600301683
 20
4.689238799927524
  0
LWPOLYLINE
  5
22E
100
AcDbEntity
  8
USP-GEO
100
AcDbPolyline
 90
        6
 70
   129
 43
0.0
 10
5.507164545986658
 20
4.567952313023482
 10
5.507164545986658
 20
4.598273934749492
 10
5.507164545986658
 20
4.643756367338507
 10
5.507164545986658
 20
4.689238799927524
 10
5.507164545986658
 20
4.643756367338507
 10
5.507164545986658
 20
4.598273934749492
  0
LWPOLYLINE
  5
22F
100
AcDbEntity
  8
USP-GEO
100
AcDbPolyline
 90
        3
 70
   128
 43
0.0
 10
5.507164545986658
 20
4.567952313023482
 10
5.507164545986658
 20
4.522469880434465
 10
5.507922586529808
 20
4.522469880434465
  0
LWPOLYLINE
  5
230
100
AcDbEntity
  8
USP-GEO
100
AcDbPolyline
 90
        5
 70
   128
 43
0.0
 10
5.582968600301683
 20
4.628595556475502
 10
5.582968600301683
 20
4.598273934749492
 10
5.582968600301683
 20
4.567952313023482
 10
5.582968600301683
 20
4.53763069129747
 10
5.507164545986658
 20
4.53763069129747
  0
LWPOLYLINE
  5
231
100
AcDbEntity
  8
USP-GEO
100
AcDbPolyline
 90
        2
 70
   128
 43
0.0
 10
5.582968600301683
 20
4.522469880434465
 10
5.583726640844833
 20
4.522469880434465
  0
LWPOLYLINE
  5
232
100
AcDbEntity
  8
USP-GEO
100
AcDbPolyline
 90
        2
 70
   128
 43
0.0
 10
5.507164545986658
 20
4.689238799927524
 10
5.507922586529808
 20
4.689238799927524
  0
LWPOLYLINE
  5
233
100
AcDbEntity
  8
USP-GEO
100
AcDbPolyline
 90
        8
 70
   128
 43
0.0
 10
5.507164545986658
 20
4.567952313023482
 10
5.507164545986658
 20
4.522469880434465
 10
5.507164545986658
 20
4.567952313023482
 10
5.507164545986658
 20
4.598273934749492
 10
5.507164545986658
 20
4.643756367338507
 10
5.507164545986658
 20
4.689238799927524
 10
5.582968600301683
 20
4.689238799927524
 10
5.583726640844833
 20
4.689238799927524
  0
LWPOLYLINE
  5
234
100
AcDbEntity
  8
USP-GEO
100
AcDbPolyline
 90
        7
 70
   128
 43
0.0
 10
5.507922586529808
 20
4.522469880434465
 10
5.507164545986658
 20
4.522469880434465
 10
5.582968600301683
 20
4.522469880434465
 10
5.582968600301683
 20
4.567952313023482
 10
5.582968600301683
 20
4.598273934749492
 10
5.582968600301683
 20
4.643756367338507
 10
5.582968600301683
 20
4.689238799927524
  0
LWPOLYLINE
  5
235
100
AcDbEntity
  8
USP-GEO
100
AcDbPolyline
 90
        3
 70
   128
 43
0.0
 10
5.582968600301683
 20
6.84434806410372
 10
5.582968600301683
 20
6.783704820651699
 10
5.582968600301683
 20
6.84434806410372
  0
LWPOLYLINE
  5
236
100
AcDbEntity
  8
USP-GEO
100
AcDbPolyline
 90
        2
 70
   128
 43
0.0
 10
5.582968600301683
 20
6.81402644237771
 10
5.582968600301683
 20
6.859508874966725
  0
LWPOLYLINE
  5
237
100
AcDbEntity
  8
USP-GEO
100
AcDbPolyline
 90
        9
 70
   128
 43
0.0
 10
5.582968600301683
 20
6.510052184574455
 10
5.582968600301683
 20
6.995956172733773
 10
5.582968600301683
 20
6.920152118418746
 10
5.582968600301683
 20
6.84434806410372
 10
5.582968600301683
 20
6.920152118418746
 10
5.582968600301683
 20
6.995956172733773
 10
5.582968600301683
 20
7.056599416185794
 10
5.582968600301683
 20
7.071760227048799
 10
5.582968600301683
 20
7.056599416185794
  0
LWPOLYLINE
  5
238
100
AcDbEntity
  8
USP-GEO
100
AcDbPolyline
 90
        2
 70
   128
 43
0.0
 10
5.582968600301683
 20
6.859508874966725
 10
5.582968600301683
 20
6.81402644237771
  0
LWPOLYLINE
  5
239
100
AcDbEntity
  8
USP-GEO
100
AcDbPolyline
 90
       19
 70
   129
 43
0.0
 10
5.507164545986658
 20
7.041438605322788
 10
5.507164545986658
 20
7.071760227048799
 10
5.507164545986658
 20
7.056599416185794
 10
5.507164545986658
 20
6.995956172733773
 10
5.507164545986658
 20
6.920152118418746
 10
5.507164545986658
 20
6.84434806410372
 10
5.507164545986658
 20
6.783704820651699
 10
5.507164545986658
 20
6.768544009788694
 10
5.507164545986658
 20
6.783704820651699
 10
5.507164545986658
 20
6.81402644237771
 10
5.507164545986658
 20
6.859508874966725
 10
5.507164545986658
 20
6.904991307555741
 10
5.507164545986658
 20
6.859508874966725
 10
5.507164545986658
 20
6.81402644237771
 10
5.507164545986658
 20
6.783704820651699
 10
5.507164545986658
 20
6.84434806410372
 10
5.507164545986658
 20
6.920152118418746
 10
5.507164545986658
 20
6.995956172733773
 10
5.507164545986658
 20
7.026277794459783
  0
LWPOLYLINE
  5
23A
100
AcDbEntity
  8
USP-GEO
100
AcDbPolyline
 90
        4
 70
   129
 43
0.0
 10
5.582968600301683
 20
6.995956172733773
 10
5.507164545986658
 20
6.995956172733773
 10
5.507164545986658
 20
6.510052184574455
 10
5.582968600301683
 20
6.510052184574455
  0
LWPOLYLINE
  5
23B
100
AcDbEntity
  8
USP-GEO
100
AcDbPolyline
 90
       14
 70
   129
 43
0.0
 10
5.582968600301683
 20
6.768544009788694
 10
5.582968600301683
 20
6.783704820651699
 10
5.582968600301683
 20
6.81402644237771
 10
5.582968600301683
 20
6.859508874966725
 10
5.582968600301683
 20
6.904991307555741
 10
5.582968600301683
 20
6.935312929281752
 10
5.582968600301683
 20
6.950473740144757
 10
5.507164545986658
 20
6.950473740144757
 10
5.507164545986658
 20
6.935312929281752
 10
5.507164545986658
 20
6.904991307555741
 10
5.507164545986658
 20
6.859508874966725
 10
5.507164545986658
 20
6.81402644237771
 10
5.507164545986658
 20
6.783704820651699
 10
5.507164545986658
 20
6.768544009788694
  0
LWPOLYLINE
  5
23C
100
AcDbEntity
  8
USP-GEO
100
AcDbPolyline
 90
       14
 70
   129
 43
0.0
 10
5.507164545986658
 20
7.071760227048799
 10
5.507164545986658
 20
7.056599416185794
 10
5.507164545986658
 20
6.995956172733773
 10
5.507164545986658
 20
6.920152118418746
 10
5.507164545986658
 20
6.84434806410372
 10
5.507164545986658
 20
6.783704820651699
 10
5.507164545986658
 20
6.768544009788694
 10
5.582968600301683
 20
6.768544009788694
 10
5.582968600301683
 20
6.783704820651699
 10
5.582968600301683
 20
6.84434806410372
 10
5.582968600301683
 20
6.920152118418746
 10
5.582968600301683
 20
6.995956172733773
 10
5.582968600301683
 20
7.056599416185794
 10
5.582968600301683
 20
7.071760227048799
  0
LWPOLYLINE
  5
23D
100
AcDbEntity
  8
USP-GEO
100
AcDbPolyline
 90
        9
 70
   128
 43
0.0
 10
5.582968600301683
 20
5.599645492250989
 10
5.582968600301683
 20
6.085549480410307
 10
5.582968600301683
 20
6.115871102136317
 10
5.582968600301683
 20
6.146192723862329
 10
5.582968600301683
 20
6.176514345588339
 10
5.582968600301683
 20
6.419087319396423
 10
5.582968600301683
 20
6.449408941122434
 10
5.582968600301683
 20
6.479730562848444
 10
5.582968600301683
 20
6.510052184574455
  0
LWPOLYLINE
  5
23E
100
AcDbEntity
  8
USP-GEO
100
AcDbPolyline
 90
        2
 70
   128
 43
0.0
 10
5.582968600301683
 20
5.599645492250989
 10
5.582968600301683
 20
6.085549480410307
  0
LWPOLYLINE
  5
23F
100
AcDbEntity
  8
USP-GEO
100
AcDbPolyline
 90
        5
 70
   128
 43
0.0
 10
5.507164545986658
 20
6.176514345588339
 10
5.507164545986658
 20
6.146192723862329
 10
5.507164545986658
 20
6.115871102136317
 10
5.507164545986658
 20
6.085549480410307
 10
5.507164545986658
 20
5.599645492250989
  0
LWPOLYLINE
  5
240
100
AcDbEntity
  8
USP-GEO
100
AcDbPolyline
 90
        2
 70
   128
 43
0.0
 10
5.582968600301683
 20
5.569323870524979
 10
5.582968600301683
 20
5.599645492250989
  0
LWPOLYLINE
  5
241
100
AcDbEntity
  8
USP-GEO
100
AcDbPolyline
 90
        6
 70
   128
 43
0.0
 10
5.582968600301683
 20
5.099338733771816
 10
5.582968600301683
 20
5.144821166360831
 10
5.582968600301683
 20
5.099338733771816
 10
5.582968600301683
 20
5.05309826063965
 10
5.582968600301683
 20
5.022776638913638
 10
5.582968600301683
 20
5.05309826063965
  0
LWPOLYLINE
  5
242
100
AcDbEntity
  8
USP-GEO
100
AcDbPolyline
 90
        2
 70
   128
 43
0.0
 10
5.582968600301683
 20
5.205464409812853
 10
5.582968600301683
 20
5.508680627072957
  0
LWPOLYLINE
  5
243
100
AcDbEntity
  8
USP-GEO
100
AcDbPolyline
 90
        2
 70
   128
 43
0.0
 10
5.582968600301683
 20
5.190303598949848
 10
5.583726640844833
 20
5.190303598949848
  0
LWPOLYLINE
  5
244
100
AcDbEntity
  8
USP-GEO
100
AcDbPolyline
 90
        3
 70
   128
 43
0.0
 10
5.582968600301683
 20
5.508680627072957
 10
5.582968600301683
 20
5.539002248798968
 10
5.582968600301683
 20
5.569323870524979
  0
LWPOLYLINE
  5
245
100
AcDbEntity
  8
USP-GEO
100
AcDbPolyline
 90
        2
 70
   129
 43
0.0
 10
5.582968600301683
 20
5.190303598949848
 10
5.582968600301683
 20
5.144821166360831
  0
LWPOLYLINE
  5
246
100
AcDbEntity
  8
USP-GEO
100
AcDbPolyline
 90
        4
 70
   128
 43
0.0
 10
5.582968600301683
 20
5.114499544634821
 10
5.582968600301683
 20
5.144821166360831
 10
5.582968600301683
 20
5.175142788086843
 10
5.582968600301683
 20
5.205464409812853
  0
LWPOLYLINE
  5
247
100
AcDbEntity
  8
USP-GEO
100
AcDbPolyline
 90
        2
 70
   128
 43
0.0
 10
5.582968600301683
 20
5.05309826063965
 10
5.582968600301683
 20
5.099338733771816
  0
LWPOLYLINE
  5
248
100
AcDbEntity
  8
USP-GEO
100
AcDbPolyline
 90
        2
 70
   128
 43
0.0
 10
5.582968600301683
 20
5.022776638913638
 10
5.583726640844833
 20
5.022776638913638
  0
LWPOLYLINE
  5
249
100
AcDbEntity
  8
USP-GEO
100
AcDbPolyline
 90
        4
 70
   129
 43
0.0
 10
5.507164545986658
 20
5.099338733771816
 10
5.507164545986658
 20
5.144821166360831
 10
5.507164545986658
 20
5.190303598949848
 10
5.507164545986658
 20
5.144821166360831
  0
LWPOLYLINE
  5
24A
100
AcDbEntity
  8
USP-GEO
100
AcDbPolyline
 90
        2
 70
   129
 43
0.0
 10
5.507922586529808
 20
5.022776638913638
 10
5.507164545986658
 20
5.022776638913638
  0
LWPOLYLINE
  5
24B
100
AcDbEntity
  8
USP-GEO
100
AcDbPolyline
 90
        3
 70
   128
 43
0.0
 10
5.507164545986658
 20
5.05309826063965
 10
5.507164545986658
 20
5.022776638913638
 10
5.507164545986658
 20
5.05309826063965
  0
LWPOLYLINE
  5
24C
100
AcDbEntity
  8
USP-GEO
100
AcDbPolyline
 90
        2
 70
   129
 43
0.0
 10
5.507164545986658
 20
5.05309826063965
 10
5.507164545986658
 20
5.099338733771816
  0
LWPOLYLINE
  5
24D
100
AcDbEntity
  8
USP-GEO
100
AcDbPolyline
 90
        2
 70
   129
 43
0.0
 10
5.507922586529808
 20
5.190303598949848
 10
5.507164545986658
 20
5.190303598949848
  0
LWPOLYLINE
  5
24E
100
AcDbEntity
  8
USP-GEO
100
AcDbPolyline
 90
        5
 70
   128
 43
0.0
 10
5.582968600301683
 20
5.205464409812853
 10
5.582968600301683
 20
5.175142788086843
 10
5.582968600301683
 20
5.144821166360831
 10
5.582968600301683
 20
5.114499544634821
 10
5.507164545986658
 20
5.114499544634821
  0
LWPOLYLINE
  5
24F
100
AcDbEntity
  8
USP-GEO
100
AcDbPolyline
 90
        4
 70
   128
 43
0.0
 10
5.507164545986658
 20
5.508680627072957
 10
5.507164545986658
 20
5.205464409812853
 10
5.582968600301683
 20
5.205464409812853
 10
5.582968600301683
 20
5.508680627072957
  0
LWPOLYLINE
  5
250
100
AcDbEntity
  8
USP-GEO
100
AcDbPolyline
 90
        2
 70
   128
 43
0.0
 10
5.582968600301683
 20
5.022776638913638
 10
5.583726640844833
 20
5.022776638913638
  0
LWPOLYLINE
  5
251
100
AcDbEntity
  8
USP-GEO
100
AcDbPolyline
 90
        7
 70
   128
 43
0.0
 10
5.507922586529808
 20
5.022776638913638
 10
5.507164545986658
 20
5.022776638913638
 10
5.582968600301683
 20
5.022776638913638
 10
5.582968600301683
 20
5.05309826063965
 10
5.582968600301683
 20
5.099338733771816
 10
5.582968600301683
 20
5.144821166360831
 10
5.582968600301683
 20
5.190303598949848
  0
LWPOLYLINE
  5
252
100
AcDbEntity
  8
USP-GEO
100
AcDbPolyline
 90
        2
 70
   128
 43
0.0
 10
5.507164545986658
 20
5.190303598949848
 10
5.507922586529808
 20
5.190303598949848
  0
LWPOLYLINE
  5
253
100
AcDbEntity
  8
USP-GEO
100
AcDbPolyline
 90
        7
 70
   128
 43
0.0
 10
5.507164545986658
 20
5.022776638913638
 10
5.507164545986658
 20
5.05309826063965
 10
5.507164545986658
 20
5.099338733771816
 10
5.507164545986658
 20
5.144821166360831
 10
5.507164545986658
 20
5.190303598949848
 10
5.582968600301683
 20
5.190303598949848
 10
5.583726640844833
 20
5.190303598949848
  0
LWPOLYLINE
  5
254
100
AcDbEntity
  8
USP-GEO
100
AcDbPolyline
 90
        8
 70
   129
 43
0.0
 10
5.582968600301683
 20
5.569323870524979
 10
5.582968600301683
 20
5.599645492250989
 10
5.507164545986658
 20
5.599645492250989
 10
5.507164545986658
 20
5.569323870524979
 10
5.507164545986658
 20
5.539002248798968
 10
5.507164545986658
 20
5.508680627072957
 10
5.582968600301683
 20
5.508680627072957
 10
5.582968600301683
 20
5.539002248798968
  0
LWPOLYLINE
  5
255
100
AcDbEntity
  8
USP-GEO
100
AcDbPolyline
 90
        2
 70
   128
 43
0.0
 10
5.582968600301683
 20
6.267479210766371
 10
5.582968600301683
 20
6.282640021629376
  0
LWPOLYLINE
  5
256
100
AcDbEntity
  8
USP-GEO
100
AcDbPolyline
 90
       10
 70
   129
 43
0.0
 10
5.582968600301683
 20
6.434248130259428
 10
5.582968600301683
 20
6.403926508533418
 10
5.582968600301683
 20
6.358444075944402
 10
5.582968600301683
 20
6.312961643355386
 10
5.582968600301683
 20
6.282640021629376
 10
5.582968600301683
 20
6.312961643355386
 10
5.582968600301683
 20
6.358444075944402
 10
5.582968600301683
 20
6.403926508533418
 10
5.582968600301683
 20
6.434248130259428
 10
5.582968600301683
 20
6.449408941122434
  0
LWPOLYLINE
  5
257
100
AcDbEntity
  8
USP-GEO
100
AcDbPolyline
 90
        2
 70
   128
 43
0.0
 10
5.582968600301683
 20
6.768544009788694
 10
5.582968600301683
 20
6.783704820651699
  0
LWPOLYLINE
  5
258
100
AcDbEntity
  8
USP-GEO
100
AcDbPolyline
 90
        4
 70
   129
 43
0.0
 10
5.582968600301683
 20
6.81402644237771
 10
5.582968600301683
 20
6.783704820651699
 10
5.582968600301683
 20
6.768544009788694
 10
5.582968600301683
 20
6.783704820651699
  0
LWPOLYLINE
  5
259
100
AcDbEntity
  8
USP-GEO
100
AcDbPolyline
 90
        2
 70
   128
 43
0.0
 10
5.582968600301683
 20
6.783704820651699
 10
5.582968600301683
 20
6.768544009788694
  0
LWPOLYLINE
  5
25A
100
AcDbEntity
  8
USP-GEO
100
AcDbPolyline
 90
        2
 70
   128
 43
0.0
 10
5.582968600301683
 20
6.282640021629376
 10
5.582968600301683
 20
6.267479210766371
  0
LWPOLYLINE
  5
25B
100
AcDbEntity
  8
USP-GEO
100
AcDbPolyline
 90
        4
 70
   129
 43
0.0
 10
5.507164545986658
 20
6.267479210766371
 10
5.507164545986658
 20
6.282640021629376
 10
5.507164545986658
 20
6.312961643355386
 10
5.507164545986658
 20
6.282640021629376
  0
LWPOLYLINE
  5
25C
100
AcDbEntity
  8
USP-GEO
100
AcDbPolyline
 90
        6
 70
   129
 43
0.0
 10
5.507164545986658
 20
6.403926508533418
 10
5.507164545986658
 20
6.434248130259428
 10
5.507164545986658
 20
6.449408941122434
 10
5.507164545986658
 20
6.434248130259428
 10
5.507164545986658
 20
6.403926508533418
 10
5.507164545986658
 20
6.358444075944402
  0
LWPOLYLINE
  5
25D
100
AcDbEntity
  8
USP-GEO
100
AcDbPolyline
 90
        2
 70
   129
 43
0.0
 10
5.507164545986658
 20
6.312961643355386
 10
5.507164545986658
 20
6.358444075944402
  0
LWPOLYLINE
  5
25E
100
AcDbEntity
  8
USP-GEO
100
AcDbPolyline
 90
        3
 70
   128
 43
0.0
 10
5.507164545986658
 20
6.783704820651699
 10
5.507164545986658
 20
6.768544009788694
 10
5.507164545986658
 20
6.783704820651699
  0
LWPOLYLINE
  5
25F
100
AcDbEntity
  8
USP-GEO
100
AcDbPolyline
 90
        5
 70
   128
 43
0.0
 10
5.507164545986658
 20
6.085549480410307
 10
5.582968600301683
 20
6.085549480410307
 10
5.582968600301683
 20
6.115871102136317
 10
5.582968600301683
 20
6.146192723862329
 10
5.582968600301683
 20
6.176514345588339
  0
LWPOLYLINE
  5
260
100
AcDbEntity
  8
USP-GEO
100
AcDbPolyline
 90
        5
 70
   128
 43
0.0
 10
5.507164545986658
 20
6.419087319396423
 10
5.582968600301683
 20
6.419087319396423
 10
5.582968600301683
 20
6.449408941122434
 10
5.582968600301683
 20
6.479730562848444
 10
5.582968600301683
 20
6.510052184574455
  0
LWPOLYLINE
  5
261
100
AcDbEntity
  8
USP-GEO
100
AcDbPolyline
 90
        7
 70
   128
 43
0.0
 10
5.582968600301683
 20
6.419087319396423
 10
5.582968600301683
 20
6.176514345588339
 10
5.507164545986658
 20
6.176514345588339
 10
5.507164545986658
 20
6.419087319396423
 10
5.507164545986658
 20
6.449408941122434
 10
5.507164545986658
 20
6.479730562848444
 10
5.507164545986658
 20
6.510052184574455
  0
LWPOLYLINE
  5
262
100
AcDbEntity
  8
USP-GEO
100
AcDbPolyline
 90
       14
 70
   129
 43
0.0
 10
5.507164545986658
 20
6.449408941122434
 10
5.507164545986658
 20
6.434248130259428
 10
5.507164545986658
 20
6.403926508533418
 10
5.507164545986658
 20
6.358444075944402
 10
5.507164545986658
 20
6.312961643355386
 10
5.507164545986658
 20
6.282640021629376
 10
5.507164545986658
 20
6.267479210766371
 10
5.582968600301683
 20
6.267479210766371
 10
5.582968600301683
 20
6.282640021629376
 10
5.582968600301683
 20
6.312961643355386
 10
5.582968600301683
 20
6.358444075944402
 10
5.582968600301683
 20
6.403926508533418
 10
5.582968600301683
 20
6.434248130259428
 10
5.582968600301683
 20
6.449408941122434
  0
LWPOLYLINE
  5
263
100
AcDbEntity
  8
USP-GEO
100
AcDbPolyline
 90
        6
 70
   128
 43
0.0
 10
5.582968600301683
 20
6.950473740144757
 10
5.582968600301683
 20
6.935312929281752
 10
5.582968600301683
 20
6.904991307555741
 10
5.582968600301683
 20
6.859508874966725
 10
5.582968600301683
 20
6.904991307555741
 10
5.582968600301683
 20
6.935312929281752
  0
LWPOLYLINE
  5
264
100
AcDbEntity
  8
USP-GEO
100
AcDbPolyline
 90
        6
 70
   128
 43
0.0
 10
5.582968600301683
 20
7.056599416185794
 10
5.582968600301683
 20
6.995956172733773
 10
5.582968600301683
 20
7.026277794459783
 10
5.582968600301683
 20
7.041438605322788
 10
5.582968600301683
 20
7.071760227048799
 10
5.582968600301683
 20
7.238529146541857
  0
LWPOLYLINE
  5
265
100
AcDbEntity
  8
USP-GEO
100
AcDbPolyline
 90
        2
 70
   128
 43
0.0
 10
5.582968600301683
 20
6.935312929281752
 10
5.582968600301683
 20
6.950473740144757
  0
LWPOLYLINE
  5
266
100
AcDbEntity
  8
USP-GEO
100
AcDbPolyline
 90
        2
 70
   128
 43
0.0
 10
5.507164545986658
 20
6.935312929281752
 10
5.507164545986658
 20
6.904991307555741
  0
LWPOLYLINE
  5
267
100
AcDbEntity
  8
USP-GEO
100
AcDbPolyline
 90
        2
 70
   129
 43
0.0
 10
5.507164545986658
 20
6.950473740144757
 10
5.507164545986658
 20
6.935312929281752
  0
LWPOLYLINE
  5
268
100
AcDbEntity
  8
USP-GEO
100
AcDbPolyline
 90
        2
 70
   128
 43
0.0
 10
5.507164545986658
 20
6.904991307555741
 10
5.507164545986658
 20
6.935312929281752
  0
LWPOLYLINE
  5
269
100
AcDbEntity
  8
USP-GEO
100
AcDbPolyline
 90
        4
 70
   128
 43
0.0
 10
5.507164545986658
 20
7.071760227048799
 10
5.507164545986658
 20
7.041438605322788
 10
5.507164545986658
 20
7.026277794459783
 10
5.507164545986658
 20
6.995956172733773
  0
LWPOLYLINE
  5
26A
100
AcDbEntity
  8
USP-GEO
100
AcDbPolyline
 90
        5
 70
   128
 43
0.0
 10
5.507164545986658
 20
7.071760227048799
 10
5.582968600301683
 20
7.071760227048799
 10
5.582968600301683
 20
7.041438605322788
 10
5.582968600301683
 20
7.026277794459783
 10
5.582968600301683
 20
6.995956172733773
  0
LWPOLYLINE
  5
26B
100
AcDbEntity
  8
USP-GEO
100
AcDbPolyline
 90
        4
 70
   128
 43
0.0
 10
5.582968600301683
 20
7.071760227048799
 10
5.582968600301683
 20
7.238529146541857
 10
5.507164545986658
 20
7.238529146541857
 10
5.507164545986658
 20
7.071760227048799
  0
LWPOLYLINE
  5
26C
100
AcDbEntity
  8
USP-GEO
100
AcDbPolyline
 90
       11
 70
   128
 43
0.0
 10
6.857234753337277
 20
4.886329341146591
 10
6.826913131611267
 20
4.916650962872603
 10
6.781430699022248
 20
4.931811773735608
 10
6.735948266433233
 20
4.916650962872603
 10
6.705626644707223
 20
4.886329341146591
 10
6.690465833844218
 20
4.840846908557576
 10
6.705626644707223
 20
4.795364475968561
 10
6.735948266433233
 20
4.765042854242549
 10
6.781430699022248
 20
4.749882043379544
 10
6.826913131611267
 20
4.765042854242549
 10
6.857234753337277
 20
4.795364475968561
  0
LWPOLYLINE
  5
26D
100
AcDbEntity
  8
USP-GEO
100
AcDbPolyline
 90
        3
 70
   128
 43
0.0
 10
6.857234753337277
 20
4.795364475968561
 10
6.872395564200282
 20
4.840846908557576
 10
6.857234753337277
 20
4.886329341146591
  0
LWPOLYLINE
  5
26E
100
AcDbEntity
  8
USP-GEO
100
AcDbPolyline
 90
       12
 70
   129
 43
0.0
 10
6.159079413095884
 20
1.638883654290866
 10
6.174240223958889
 20
1.593401221701851
 10
6.159079413095884
 20
1.547918789112834
 10
6.128757791369874
 20
1.517597167386824
 10
6.083275358780856
 20
1.502436356523819
 10
6.037792926191841
 20
1.517597167386824
 10
6.00747130446583
 20
1.547918789112834
 10
5.992310493602825
 20
1.593401221701851
 10
6.00747130446583
 20
1.638883654290866
 10
6.037792926191841
 20
1.669205276016876
 10
6.083275358780856
 20
1.684366086879883
 10
6.128757791369874
 20
1.669205276016876
  0
LWPOLYLINE
  5
26F
100
AcDbEntity
  8
USP-GEO
100
AcDbPolyline
 90
       12
 70
   129
 43
0.0
 10
6.174240223958889
 20
2.473486292299305
 10
6.159079413095884
 20
2.518968724888322
 10
6.128757791369874
 20
2.549290346614332
 10
6.083275358780856
 20
2.564451157477337
 10
6.037792926191841
 20
2.549290346614332
 10
6.00747130446583
 20
2.518968724888322
 10
5.992310493602825
 20
2.473486292299305
 10
6.00747130446583
 20
2.42800385971029
 10
6.037792926191841
 20
2.39768223798428
 10
6.083275358780856
 20
2.382521427121274
 10
6.128757791369874
 20
2.39768223798428
 10
6.159079413095884
 20
2.42800385971029
  0
LWPOLYLINE
  5
270
100
AcDbEntity
  8
USP-GEO
100
AcDbPolyline
 90
        3
 70
   128
 43
0.0
 10
6.128757791369874
 20
4.142691568316184
 10
6.083275358780856
 20
4.127530757453179
 10
6.128757791369874
 20
4.142691568316184
  0
LWPOLYLINE
  5
271
100
AcDbEntity
  8
USP-GEO
100
AcDbPolyline
 90
       12
 70
   129
 43
0.0
 10
6.174240223958889
 20
3.338410552033755
 10
6.159079413095884
 20
3.383892984622772
 10
6.128757791369874
 20
3.429375417211787
 10
6.083275358780856
 20
3.429375417211787
 10
6.037792926191841
 20
3.429375417211787
 10
6.00747130446583
 20
3.383892984622772
 10
5.992310493602825
 20
3.338410552033755
 10
6.00747130446583
 20
3.29292811944474
 10
6.037792926191841
 20
3.26260649771873
 10
6.083275358780856
 20
3.247445686855725
 10
6.128757791369874
 20
3.26260649771873
 10
6.159079413095884
 20
3.29292811944474
  0
LWPOLYLINE
  5
272
100
AcDbEntity
  8
USP-GEO
100
AcDbPolyline
 90
       12
 70
   129
 43
0.0
 10
6.174240223958889
 20
4.218495622631211
 10
6.159079413095884
 20
4.263978055220226
 10
6.128757791369874
 20
4.295057717489386
 10
6.083275358780856
 20
4.310218528352391
 10
6.037792926191841
 20
4.295057717489386
 10
6.00747130446583
 20
4.263978055220226
 10
5.992310493602825
 20
4.218495622631211
 10
6.00747130446583
 20
4.173013190042194
 10
6.037792926191841
 20
4.142691568316184
 10
6.083275358780856
 20
4.127530757453179
 10
6.128757791369874
 20
4.142691568316184
 10
6.159079413095884
 20
4.173013190042194
  0
LWPOLYLINE
  5
273
100
AcDbEntity
  8
USP-GEO
100
AcDbPolyline
 90
        3
 70
   128
 43
0.0
 10
6.083275358780856
 20
3.247445686855725
 10
6.037792926191841
 20
3.26260649771873
 10
6.083275358780856
 20
3.247445686855725
  0
LWPOLYLINE
  5
274
100
AcDbEntity
  8
USP-GEO
100
AcDbPolyline
 90
        3
 70
   128
 43
0.0
 10
6.083275358780856
 20
4.127530757453179
 10
6.037792926191841
 20
4.142691568316184
 10
6.083275358780856
 20
4.127530757453179
  0
LWPOLYLINE
  5
275
100
AcDbEntity
  8
USP-GEO
100
AcDbPolyline
 90
        2
 70
   129
 43
0.0
 10
7.084646916282355
 20
2.473486292299305
 10
7.084646916282355
 20
4.53763069129747
  0
LWPOLYLINE
  5
276
100
AcDbEntity
  8
USP-GEO
100
AcDbPolyline
 90
        4
 70
   128
 43
0.0
 10
7.084646916282355
 20
2.473486292299305
 10
7.084646916282355
 20
4.53763069129747
 10
7.084646916282355
 20
4.567952313023482
 10
7.099807727145361
 20
4.598273934749492
  0
LWPOLYLINE
  5
277
100
AcDbEntity
  8
USP-GEO
100
AcDbPolyline
 90
        3
 70
   128
 43
0.0
 10
6.735948266433233
 20
3.171641632540698
 10
6.781430699022248
 20
3.186802443403703
 10
6.735948266433233
 20
3.171641632540698
  0
LWPOLYLINE
  5
278
100
AcDbEntity
  8
USP-GEO
100
AcDbPolyline
 90
        3
 70
   128
 43
0.0
 10
6.735948266433233
 20
3.020033523910646
 10
6.781430699022248
 20
3.004872713047641
 10
6.735948266433233
 20
3.020033523910646
  0
LWPOLYLINE
  5
279
100
AcDbEntity
  8
USP-GEO
100
AcDbPolyline
 90
        3
 70
   128
 43
0.0
 10
6.781430699022248
 20
4.749882043379544
 10
6.735948266433233
 20
4.765042854242549
 10
6.781430699022248
 20
4.749882043379544
  0
LWPOLYLINE
  5
27A
100
AcDbEntity
  8
USP-GEO
100
AcDbPolyline
 90
       12
 70
   129
 43
0.0
 10
6.872395564200282
 20
3.095837578225671
 10
6.857234753337277
 20
3.050355145636656
 10
6.826913131611267
 20
3.020033523910646
 10
6.781430699022248
 20
3.004872713047641
 10
6.735948266433233
 20
3.020033523910646
 10
6.705626644707223
 20
3.050355145636656
 10
6.690465833844218
 20
3.095837578225671
 10
6.705626644707223
 20
3.141320010814688
 10
6.735948266433233
 20
3.171641632540698
 10
6.781430699022248
 20
3.186802443403703
 10
6.826913131611267
 20
3.171641632540698
 10
6.857234753337277
 20
3.141320010814688
  0
LWPOLYLINE
  5
27B
100
AcDbEntity
  8
USP-GEO
100
AcDbPolyline
 90
       12
 70
   129
 43
0.0
 10
6.872395564200282
 20
3.975922648823127
 10
6.857234753337277
 20
4.021405081412142
 10
6.826913131611267
 20
4.051726703138152
 10
6.781430699022248
 20
4.066887514001157
 10
6.735948266433233
 20
4.051726703138152
 10
6.705626644707223
 20
4.021405081412142
 10
6.690465833844218
 20
3.975922648823127
 10
6.705626644707223
 20
3.93044021623411
 10
6.735948266433233
 20
3.9001185945081
 10
6.781430699022248
 20
3.884957783645095
 10
6.826913131611267
 20
3.9001185945081
 10
6.857234753337277
 20
3.93044021623411
  0
LWPOLYLINE
  5
27C
100
AcDbEntity
  8
USP-GEO
100
AcDbPolyline
 90
        3
 70
   128
 43
0.0
 10
6.826913131611267
 20
4.765042854242549
 10
6.781430699022248
 20
4.749882043379544
 10
6.826913131611267
 20
4.765042854242549
  0
LWPOLYLINE
  5
27D
100
AcDbEntity
  8
USP-GEO
100
AcDbPolyline
 90
        2
 70
   128
 43
0.0
 10
7.099807727145361
 20
4.598273934749492
 10
7.114968538008366
 20
4.628595556475502
  0
LWPOLYLINE
  5
27E
100
AcDbEntity
  8
USP-GEO
100
AcDbPolyline
 90
        9
 70
   128
 43
0.0
 10
6.128757791369874
 20
6.920152118418746
 10
6.159079413095884
 20
6.889830496692736
 10
6.174240223958889
 20
6.84434806410372
 10
6.159079413095884
 20
6.798865631514704
 10
6.128757791369874
 20
6.768544009788694
 10
6.083275358780856
 20
6.753383198925689
 10
6.037792926191841
 20
6.768544009788694
 10
6.00747130446583
 20
6.798865631514704
 10
5.992310493602825
 20
6.84434806410372
  0
LWPOLYLINE
  5
27F
100
AcDbEntity
  8
USP-GEO
100
AcDbPolyline
 90
       12
 70
   129
 43
0.0
 10
6.174240223958889
 20
5.099338733771816
 10
6.159079413095884
 20
5.05309826063965
 10
6.128757791369874
 20
5.022776638913638
 10
6.083275358780856
 20
5.007615828050633
 10
6.037792926191841
 20
5.022776638913638
 10
6.00747130446583
 20
5.05309826063965
 10
5.992310493602825
 20
5.099338733771816
 10
6.00747130446583
 20
5.144821166360831
 10
6.037792926191841
 20
5.175142788086843
 10
6.083275358780856
 20
5.190303598949848
 10
6.128757791369874
 20
5.175142788086843
 10
6.159079413095884
 20
5.144821166360831
  0
LWPOLYLINE
  5
280
100
AcDbEntity
  8
USP-GEO
100
AcDbPolyline
 90
       12
 70
   129
 43
0.0
 10
6.174240223958889
 20
5.97942380436927
 10
6.159079413095884
 20
5.933941371780255
 10
6.128757791369874
 20
5.887700898648089
 10
6.083275358780856
 20
5.887700898648089
 10
6.037792926191841
 20
5.887700898648089
 10
6.00747130446583
 20
5.933941371780255
 10
5.992310493602825
 20
5.97942380436927
 10
6.00747130446583
 20
6.024906236958287
 10
6.037792926191841
 20
6.055227858684297
 10
6.083275358780856
 20
6.055227858684297
 10
6.128757791369874
 20
6.055227858684297
 10
6.159079413095884
 20
6.024906236958287
  0
LWPOLYLINE
  5
281
100
AcDbEntity
  8
USP-GEO
100
AcDbPolyline
 90
        3
 70
   128
 43
0.0
 10
6.037792926191841
 20
5.887700898648089
 10
6.00747130446583
 20
5.933941371780255
 10
6.037792926191841
 20
5.887700898648089
  0
LWPOLYLINE
  5
282
100
AcDbEntity
  8
USP-GEO
100
AcDbPolyline
 90
        5
 70
   128
 43
0.0
 10
5.992310493602825
 20
6.84434806410372
 10
6.00747130446583
 20
6.889830496692736
 10
6.037792926191841
 20
6.920152118418746
 10
6.083275358780856
 20
6.935312929281752
 10
6.128757791369874
 20
6.920152118418746
  0
LWPOLYLINE
  5
283
100
AcDbEntity
  8
USP-GEO
100
AcDbPolyline
 90
       11
 70
   128
 43
0.0
 10
6.857234753337277
 20
6.55553461716347
 10
6.826913131611267
 20
6.52521299543746
 10
6.781430699022248
 20
6.510052184574455
 10
6.735948266433233
 20
6.52521299543746
 10
6.705626644707223
 20
6.55553461716347
 10
6.690465833844218
 20
6.601017049752486
 10
6.705626644707223
 20
6.646499482341502
 10
6.735948266433233
 20
6.676821104067512
 10
6.781430699022248
 20
6.691981914930518
 10
6.826913131611267
 20
6.676821104067512
 10
6.857234753337277
 20
6.646499482341502
  0
LWPOLYLINE
  5
284
100
AcDbEntity
  8
USP-GEO
100
AcDbPolyline
 90
       11
 70
   128
 43
0.0
 10
6.857234753337277
 20
5.766414411744047
 10
6.826913131611267
 20
5.796736033470057
 10
6.781430699022248
 20
5.811896844333062
 10
6.735948266433233
 20
5.796736033470057
 10
6.705626644707223
 20
5.766414411744047
 10
6.690465833844218
 20
5.720931979155031
 10
6.705626644707223
 20
5.675449546566015
 10
6.735948266433233
 20
5.645127924840005
 10
6.781430699022248
 20
5.629967113976999
 10
6.826913131611267
 20
5.645127924840005
 10
6.857234753337277
 20
5.675449546566015
  0
LWPOLYLINE
  5
285
100
AcDbEntity
  8
USP-GEO
100
AcDbPolyline
 90
        3
 70
   128
 43
0.0
 10
6.735948266433233
 20
5.796736033470057
 10
6.781430699022248
 20
5.811896844333062
 10
6.735948266433233
 20
5.796736033470057
  0
LWPOLYLINE
  5
286
100
AcDbEntity
  8
USP-GEO
100
AcDbPolyline
 90
        3
 70
   128
 43
0.0
 10
6.857234753337277
 20
5.766414411744047
 10
6.872395564200282
 20
5.720931979155031
 10
6.857234753337277
 20
5.675449546566015
  0
LWPOLYLINE
  5
287
100
AcDbEntity
  8
USP-GEO
100
AcDbPolyline
 90
        3
 70
   128
 43
0.0
 10
6.857234753337277
 20
6.646499482341502
 10
6.872395564200282
 20
6.601017049752486
 10
6.857234753337277
 20
6.55553461716347
  0
LWPOLYLINE
  5
288
100
AcDbEntity
  8
USP-GEO
100
AcDbPolyline
 90
        2
 70
   128
 43
0.0
 10
7.084646916282355
 20
6.146192723862329
 10
7.084646916282355
 20
6.176514345588339
  0
LWPOLYLINE
  5
289
100
AcDbEntity
  8
USP-GEO
100
AcDbPolyline
 90
        2
 70
   129
 43
0.0
 10
7.084646916282355
 20
6.176514345588339
 10
7.084646916282355
 20
6.419087319396423
  0
LWPOLYLINE
  5
28A
100
AcDbEntity
  8
USP-GEO
100
AcDbPolyline
 90
        3
 70
   128
 43
0.0
 10
7.099807727145361
 20
6.115871102136317
 10
7.114968538008366
 20
6.085549480410307
 10
7.099807727145361
 20
6.115871102136317
  0
LWPOLYLINE
  5
28B
100
AcDbEntity
  8
USP-GEO
100
AcDbPolyline
 90
       12
 70
   129
 43
0.0
 10
7.357541511816449
 20
5.281268464127879
 10
7.327219890090439
 20
5.31159008585389
 10
7.281737457501421
 20
5.326750896716895
 10
7.236255024912406
 20
5.31159008585389
 10
7.205933403186396
 20
5.281268464127879
 10
7.190772592323391
 20
5.235786031538863
 10
7.205933403186396
 20
5.190303598949848
 10
7.236255024912406
 20
5.159981977223836
 10
7.281737457501421
 20
5.144821166360831
 10
7.327219890090439
 20
5.159981977223836
 10
7.357541511816449
 20
5.190303598949848
 10
7.372702322679455
 20
5.235786031538863
  0
LWPOLYLINE
  5
28C
100
AcDbEntity
  8
USP-GEO
100
AcDbPolyline
 90
        3
 70
   128
 43
0.0
 10
7.190772592323391
 20
5.235786031538863
 10
7.205933403186396
 20
5.281268464127879
 10
7.190772592323391
 20
5.235786031538863
  0
LWPOLYLINE
  5
28D
100
AcDbEntity
  8
USP-GEO
100
AcDbPolyline
 90
        2
 70
   129
 43
0.0
 10
7.584953674761528
 20
5.205464409812853
 10
7.584953674761528
 20
5.508680627072957
  0
LWPOLYLINE
  5
28E
100
AcDbEntity
  8
USP-GEO
100
AcDbPolyline
 90
        3
 70
   128
 43
0.0
 10
7.569792863898523
 20
5.144821166360831
 10
7.554632053035518
 20
5.114499544634821
 10
7.569792863898523
 20
5.144821166360831
  0
LWPOLYLINE
  5
28F
100
AcDbEntity
  8
USP-GEO
100
AcDbPolyline
 90
        3
 70
   128
 43
0.0
 10
7.584953674761528
 20
5.205464409812853
 10
7.584953674761528
 20
5.175142788086843
 10
7.584953674761528
 20
5.205464409812853
  0
LWPOLYLINE
  5
290
100
AcDbEntity
  8
USP-GEO
100
AcDbPolyline
 90
        3
 70
   128
 43
0.0
 10
7.554632053035518
 20
5.599645492250989
 10
7.569792863898523
 20
5.569323870524979
 10
7.554632053035518
 20
5.599645492250989
  0
LWPOLYLINE
  5
291
100
AcDbEntity
  8
USP-GEO
100
AcDbPolyline
 90
       11
 70
   128
 43
0.0
 10
7.190772592323391
 20
6.980795361870767
 10
7.205933403186396
 20
6.935312929281752
 10
7.236255024912406
 20
6.904991307555741
 10
7.281737457501421
 20
6.889830496692736
 10
7.327219890090439
 20
6.904991307555741
 10
7.357541511816449
 20
6.935312929281752
 10
7.372702322679455
 20
6.980795361870767
 10
7.357541511816449
 20
7.026277794459783
 10
7.327219890090439
 20
7.056599416185794
 10
7.281737457501421
 20
7.071760227048799
 10
7.236255024912406
 20
7.056599416185794
  0
LWPOLYLINE
  5
292
100
AcDbEntity
  8
USP-GEO
100
AcDbPolyline
 90
        3
 70
   128
 43
0.0
 10
7.327219890090439
 20
6.904991307555741
 10
7.281737457501421
 20
6.889830496692736
 10
7.327219890090439
 20
6.904991307555741
  0
LWPOLYLINE
  5
293
100
AcDbEntity
  8
USP-GEO
100
AcDbPolyline
 90
        3
 70
   128
 43
0.0
 10
7.190772592323391
 20
6.980795361870767
 10
7.205933403186396
 20
7.026277794459783
 10
7.236255024912406
 20
7.056599416185794
  0
LWPOLYLINE
  5
294
100
AcDbEntity
  8
USP-GEO
100
AcDbPolyline
 90
        3
 70
   128
 43
0.0
 10
7.281737457501421
 20
6.889830496692736
 10
7.236255024912406
 20
6.904991307555741
 10
7.281737457501421
 20
6.889830496692736
  0
LWPOLYLINE
  5
295
100
AcDbEntity
  8
USP-GEO
100
AcDbPolyline
 90
        2
 70
   129
 43
0.0
 10
7.584953674761528
 20
7.238529146541857
 10
7.584953674761528
 20
7.071760227048799
  0
LWPOLYLINE
  5
296
100
AcDbEntity
  8
USP-GEO
100
AcDbPolyline
 90
        3
 70
   128
 43
0.0
 10
7.584953674761528
 20
7.071760227048799
 10
7.584953674761528
 20
7.041438605322788
 10
7.584953674761528
 20
7.071760227048799
  0
ENDBLK
  5
298
100
AcDbEntity
  8
0
100
AcDbBlockEnd
  0
BLOCK
  5
412
100
AcDbEntity
  8
0
100
AcDbBlockBegin
  2
THD28-2_S
 70
     0
 10
0.0
 20
0.0
 30
0.0
  3
THD28-2_S
  1

  0
TEXT
  5
29B
100
AcDbEntity
  8
USP-TXT
100
AcDbText
 10
-0.9919416043345945
 20
-0.8937005333017538
 30
-1.050183983838884
 40
0.296875
  1
THD28-2 - SIDE VIEW
 72
     1
 11
1.778891728998738
 21
-0.8937005333017538
 31
-1.050183983838884
100
AcDbText
  0
LWPOLYLINE
  5
29C
100
AcDbEntity
  8
USP-GEO
100
AcDbPolyline
 90
        2
 70
   128
 43
0.0
 10
0.1978485817622184
 20
0.0
 10
3.201205213723558
 20
0.0
  0
LWPOLYLINE
  5
29D
100
AcDbEntity
  8
USP-GEO
100
AcDbPolyline
 90
        2
 70
   129
 43
0.0
 10
1.745009330331904
 20
1.988340344683138
 10
3.170883591997548
 20
0.3039742578032545
  0
LWPOLYLINE
  5
29E
100
AcDbEntity
  8
USP-GEO
100
AcDbPolyline
 90
        2
 70
   129
 43
0.0
 10
3.201205213723558
 20
0.0758040543150251
 10
0.1978485817622184
 20
0.0758040543150251
  0
LWPOLYLINE
  5
29F
100
AcDbEntity
  8
USP-GEO
100
AcDbPolyline
 90
        6
 70
   129
 43
0.0
 10
0.2433310143512344
 20
0.0
 10
0.1978485817622184
 20
0.0
 10
3.201205213723558
 20
0.0
 10
0.1978485817622184
 20
0.0
 10
0.2433310143512344
 20
0.0
 10
0.1978485817622184
 20
0.0
  0
LWPOLYLINE
  5
2A0
100
AcDbEntity
  8
USP-GEO
100
AcDbPolyline
 90
       13
 70
   128
 43
0.0
 10
0.0765620948581765
 20
0.4100999338442915
 10
0.1675269600362075
 20
0.3039742578032545
 10
0.1826877708992134
 20
0.2736526360772444
 10
0.1978485817622184
 20
0.242572973808084
 10
0.1978485817622184
 20
0.2122513520820721
 10
0.1978485817622184
 20
0.0758040543150251
 10
3.201205213723558
 20
0.0758040543150251
 10
3.201205213723558
 20
0.2122513520820721
 10
3.201205213723558
 20
0.242572973808084
 10
3.186044402860553
 20
0.2736526360772444
 10
3.170883591997548
 20
0.3039742578032545
 10
1.745009330331904
 20
1.988340344683138
 10
1.654044465153872
 20
2.13994845331319
  0
LWPOLYLINE
  5
2A1
100
AcDbEntity
  8
USP-GEO
100
AcDbPolyline
 90
        2
 70
   129
 43
0.0
 10
3.170883591997548
 20
0.3039742578032545
 10
1.745009330331904
 20
1.988340344683138
  0
LWPOLYLINE
  5
2A2
100
AcDbEntity
  8
USP-GEO
100
AcDbPolyline
 90
        2
 70
   128
 43
0.0
 10
0.1978485817622184
 20
0.0758040543150251
 10
3.201205213723558
 20
0.0758040543150251
  0
LWPOLYLINE
  5
2A3
100
AcDbEntity
  8
USP-GEO
100
AcDbPolyline
 90
        3
 70
   128
 43
0.0
 10
1.077175611816523
 20
7.238529146541857
 10
0.0765620948581765
 20
7.238529146541857
 10
0.0765620948581765
 20
0.4100999338442915
  0
LWPOLYLINE
  5
2A4
100
AcDbEntity
  8
USP-GEO
100
AcDbPolyline
 90
        5
 70
   128
 43
0.0
 10
0.0
 20
7.071760227048799
 10
0.0
 20
7.238529146541857
 10
0.0
 20
0.4100999338442915
 10
0.0
 20
1.988340344683138
 10
0.0
 20
2.13994845331319
  0
LWPOLYLINE
  5
2A5
100
AcDbEntity
  8
USP-GEO
100
AcDbPolyline
 90
       14
 70
   128
 43
0.0
 10
0.0
 20
5.508680627072957
 10
0.0
 20
5.205464409812853
 10
0.0
 20
5.175142788086843
 10
0.0
 20
5.144821166360831
 10
0.0
 20
5.114499544634821
 10
0.0
 20
4.628595556475502
 10
0.0
 20
4.598273934749492
 10
0.0
 20
4.567952313023482
 10
0.0
 20
4.53763069129747
 10
0.0
 20
2.473486292299305
 10
0.0
 20
2.306717372806248
 10
0.0
 20
2.13994845331319
 10
0.0
 20
1.988340344683138
 10
0.0
 20
0.4100999338442915
  0
LWPOLYLINE
  5
2A6
100
AcDbEntity
  8
USP-GEO
100
AcDbPolyline
 90
        5
 70
   128
 43
0.0
 10
0.0765620948581765
 20
7.071760227048799
 10
0.0765620948581765
 20
7.238529146541857
 10
0.0765620948581765
 20
0.4100999338442915
 10
0.0765620948581765
 20
1.988340344683138
 10
0.0765620948581765
 20
2.13994845331319
  0
LWPOLYLINE
  5
2A7
100
AcDbEntity
  8
USP-GEO
100
AcDbPolyline
 90
       11
 70
   128
 43
0.0
 10
1.578240410838846
 20
6.419087319396423
 10
1.578240410838846
 20
6.449408941122434
 10
1.563079599975841
 20
6.479730562848444
 10
1.547918789112836
 20
6.510052184574455
 10
1.107497233542533
 20
6.995956172733773
 10
1.092336422679528
 20
7.026277794459783
 10
1.077175611816523
 20
7.041438605322788
 10
1.077175611816523
 20
7.071760227048799
 10
1.077175611816523
 20
7.238529146541857
 10
0.0
 20
7.238529146541857
 10
0.0
 20
0.4100999338442915
  0
LWPOLYLINE
  5
2A8
100
AcDbEntity
  8
USP-GEO
100
AcDbPolyline
 90
        7
 70
   128
 43
0.0
 10
0.0
 20
2.473486292299305
 10
0.0
 20
2.306717372806248
 10
0.0
 20
2.13994845331319
 10
0.0
 20
1.988340344683138
 10
0.0
 20
0.4100999338442915
 10
0.0765620948581765
 20
0.4100999338442915
 10
0.0765620948581765
 20
1.988340344683138
  0
LWPOLYLINE
  5
2A9
100
AcDbEntity
  8
USP-GEO
100
AcDbPolyline
 90
       28
 70
   128
 43
0.0
 10
0.0
 20
5.144821166360831
 10
0.0
 20
5.114499544634821
 10
0.0
 20
4.628595556475502
 10
0.0
 20
4.598273934749492
 10
0.0
 20
4.567952313023482
 10
0.0
 20
4.53763069129747
 10
0.0
 20
2.473486292299305
 10
0.0
 20
2.306717372806248
 10
0.0
 20
2.13994845331319
 10
0.0
 20
1.988340344683138
 10
0.0
 20
0.4100999338442915
 10
0.0
 20
7.238529146541857
 10
0.0
 20
7.071760227048799
 10
0.0
 20
7.041438605322788
 10
0.0
 20
7.026277794459783
 10
0.0
 20
6.995956172733773
 10
0.0
 20
6.510052184574455
 10
0.0
 20
6.479730562848444
 10
0.0
 20
6.449408941122434
 10
0.0
 20
6.419087319396423
 10
0.0
 20
6.176514345588339
 10
0.0
 20
6.146192723862329
 10
0.0
 20
6.115871102136317
 10
0.0
 20
6.085549480410307
 10
0.0
 20
5.599645492250989
 10
0.0
 20
5.569323870524979
 10
0.0
 20
5.539002248798968
 10
0.0
 20
5.508680627072957
  0
LWPOLYLINE
  5
2AA
100
AcDbEntity
  8
USP-GEO
100
AcDbPolyline
 90
       22
 70
   128
 43
0.0
 10
0.0765620948581765
 20
2.42800385971029
 10
0.0765620948581765
 20
2.473486292299305
 10
0.0765620948581765
 20
2.518968724888322
 10
0.0765620948581765
 20
2.549290346614332
 10
0.0765620948581765
 20
2.564451157477337
 10
0.0765620948581765
 20
2.549290346614332
 10
0.0765620948581765
 20
2.518968724888322
 10
0.0765620948581765
 20
2.473486292299305
 10
0.0765620948581765
 20
2.306717372806248
 10
0.0765620948581765
 20
2.13994845331319
 10
0.0765620948581765
 20
1.988340344683138
 10
0.0765620948581765
 20
0.4100999338442915
 10
0.0765620948581765
 20
7.238529146541857
 10
0.0765620948581765
 20
7.071760227048799
 10
0.0765620948581765
 20
7.041438605322788
 10
0.0765620948581765
 20
7.026277794459783
 10
0.0765620948581765
 20
6.995956172733773
 10
0.0765620948581765
 20
6.510052184574455
 10
0.0765620948581765
 20
6.479730562848444
 10
0.0765620948581765
 20
6.449408941122434
 10
0.0765620948581765
 20
6.419087319396423
 10
0.0
 20
6.419087319396423
  0
LWPOLYLINE
  5
2AB
100
AcDbEntity
  8
USP-GEO
100
AcDbPolyline
 90
        2
 70
   129
 43
0.0
 10
0.1675269600362075
 20
0.3039742578032545
 10
0.0765620948581765
 20
0.4100999338442915
  0
LWPOLYLINE
  5
2AC
100
AcDbEntity
  8
USP-GEO
100
AcDbPolyline
 90
        2
 70
   129
 43
0.0
 10
0.0765620948581765
 20
0.4100999338442915
 10
0.1675269600362075
 20
0.3039742578032545
  0
LWPOLYLINE
  5
2AD
100
AcDbEntity
  8
USP-GEO
100
AcDbPolyline
 90
        2
 70
   129
 43
0.0
 10
0.0
 20
0.4100999338442915
 10
0.0765620948581765
 20
0.4100999338442915
  0
LWPOLYLINE
  5
2AE
100
AcDbEntity
  8
USP-GEO
100
AcDbPolyline
 90
        2
 70
   129
 43
0.0
 10
0.0
 20
0.4100999338442915
 10
0.0765620948581765
 20
0.4100999338442915
  0
LWPOLYLINE
  5
2AF
100
AcDbEntity
  8
USP-GEO
100
AcDbPolyline
 90
        8
 70
   129
 43
0.0
 10
0.1978485817622184
 20
0.0758040543150251
 10
0.1978485817622184
 20
0.0
 10
0.2433310143512344
 20
0.0
 10
0.2736526360772444
 20
0.0
 10
0.2888134469402503
 20
0.0
 10
0.2888134469402503
 20
0.0758040543150251
 10
0.2736526360772444
 20
0.0758040543150251
 10
0.2433310143512344
 20
0.0758040543150251
  0
LWPOLYLINE
  5
2B0
100
AcDbEntity
  8
USP-GEO
100
AcDbPolyline
 90
        9
 70
   128
 43
0.0
 10
0.2736526360772444
 20
0.0758040543150251
 10
0.2888134469402503
 20
0.0758040543150251
 10
0.2736526360772444
 20
0.0758040543150251
 10
0.2888134469402503
 20
0.0758040543150251
 10
0.2736526360772444
 20
0.0758040543150251
 10
0.2433310143512344
 20
0.0758040543150251
 10
0.2736526360772444
 20
0.0758040543150251
 10
0.2433310143512344
 20
0.0758040543150251
 10
0.2736526360772444
 20
0.0758040543150251
  0
LWPOLYLINE
  5
2B1
100
AcDbEntity
  8
USP-GEO
100
AcDbPolyline
 90
        5
 70
   128
 43
0.0
 10
0.2433310143512344
 20
0.0
 10
0.2736526360772444
 20
0.0
 10
0.2433310143512344
 20
0.0
 10
0.2736526360772444
 20
0.0
 10
0.2433310143512344
 20
0.0
  0
LWPOLYLINE
  5
2B2
100
AcDbEntity
  8
USP-GEO
100
AcDbPolyline
 90
        2
 70
   128
 43
0.0
 10
0.1978485817622184
 20
0.0758040543150251
 10
0.1978485817622184
 20
0.0
  0
LWPOLYLINE
  5
2B3
100
AcDbEntity
  8
USP-GEO
100
AcDbPolyline
 90
        2
 70
   129
 43
0.0
 10
0.1978485817622184
 20
0.0
 10
0.1978485817622184
 20
0.0758040543150251
  0
LWPOLYLINE
  5
2B4
100
AcDbEntity
  8
USP-GEO
100
AcDbPolyline
 90
        4
 70
   128
 43
0.0
 10
0.1978485817622184
 20
0.0
 10
0.1978485817622184
 20
0.2122513520820721
 10
0.1978485817622184
 20
0.0758040543150251
 10
0.1978485817622184
 20
0.0
  0
LWPOLYLINE
  5
2B5
100
AcDbEntity
  8
USP-GEO
100
AcDbPolyline
 90
        2
 70
   129
 43
0.0
 10
0.1978485817622184
 20
0.0
 10
0.1978485817622184
 20
0.2122513520820721
  0
LWPOLYLINE
  5
2B6
100
AcDbEntity
  8
USP-GEO
100
AcDbPolyline
 90
        4
 70
   128
 43
0.0
 10
0.1978485817622184
 20
0.0
 10
0.1978485817622184
 20
0.2122513520820721
 10
0.1978485817622184
 20
0.0758040543150251
 10
0.1978485817622184
 20
0.0
  0
LWPOLYLINE
  5
2B7
100
AcDbEntity
  8
USP-GEO
100
AcDbPolyline
 90
        2
 70
   128
 43
0.0
 10
0.1978485817622184
 20
0.2122513520820721
 10
0.1978485817622184
 20
0.0758040543150251
  0
LWPOLYLINE
  5
2B8
100
AcDbEntity
  8
USP-GEO
100
AcDbPolyline
 90
        3
 70
   128
 43
0.0
 10
0.1978485817622184
 20
0.242572973808084
 10
0.1978485817622184
 20
0.2122513520820721
 10
0.1978485817622184
 20
0.242572973808084
  0
LWPOLYLINE
  5
2B9
100
AcDbEntity
  8
USP-GEO
100
AcDbPolyline
 90
        2
 70
   129
 43
0.0
 10
0.1978485817622184
 20
0.0758040543150251
 10
0.2433310143512344
 20
0.0758040543150251
  0
LWPOLYLINE
  5
2BA
100
AcDbEntity
  8
USP-GEO
100
AcDbPolyline
 90
        2
 70
   129
 43
0.0
 10
0.2433310143512344
 20
0.0758040543150251
 10
0.1978485817622184
 20
0.0758040543150251
  0
LWPOLYLINE
  5
2BB
100
AcDbEntity
  8
USP-GEO
100
AcDbPolyline
 90
        3
 70
   128
 43
0.0
 10
0.1826877708992134
 20
0.2736526360772444
 10
0.1675269600362075
 20
0.3039742578032545
 10
0.1826877708992134
 20
0.2736526360772444
  0
LWPOLYLINE
  5
2BC
100
AcDbEntity
  8
USP-GEO
100
AcDbPolyline
 90
        2
 70
   129
 43
0.0
 10
0.2888134469402503
 20
0.0758040543150251
 10
0.2888134469402503
 20
0.0
  0
LWPOLYLINE
  5
2BD
100
AcDbEntity
  8
USP-GEO
100
AcDbPolyline
 90
        2
 70
   129
 43
0.0
 10
0.2888134469402503
 20
0.0
 10
0.2888134469402503
 20
0.0758040543150251
  0
LWPOLYLINE
  5
2BE
100
AcDbEntity
  8
USP-GEO
100
AcDbPolyline
 90
        4
 70
   129
 43
0.0
 10
0.2736526360772444
 20
0.0
 10
0.2888134469402503
 20
0.0
 10
0.2736526360772444
 20
0.0
 10
0.2888134469402503
 20
0.0
  0
LWPOLYLINE
  5
2BF
100
AcDbEntity
  8
USP-GEO
100
AcDbPolyline
 90
        2
 70
   128
 43
0.0
 10
1.077175611816523
 20
5.539002248798968
 10
1.092336422679528
 20
5.569323870524979
  0
LWPOLYLINE
  5
2C0
100
AcDbEntity
  8
USP-GEO
100
AcDbPolyline
 90
        5
 70
   128
 43
0.0
 10
1.092336422679528
 20
5.144821166360831
 10
1.077175611816523
 20
5.175142788086843
 10
1.077175611816523
 20
5.205464409812853
 10
1.077175611816523
 20
5.508680627072957
 10
1.077175611816523
 20
5.539002248798968
  0
LWPOLYLINE
  5
2C1
100
AcDbEntity
  8
USP-GEO
100
AcDbPolyline
 90
       17
 70
   128
 43
0.0
 10
0.0
 20
2.306717372806248
 10
0.0
 20
2.473486292299305
 10
0.0
 20
4.53763069129747
 10
0.0
 20
4.567952313023482
 10
0.0
 20
4.598273934749492
 10
0.0
 20
4.628595556475502
 10
0.0
 20
5.114499544634821
 10
0.0
 20
5.144821166360831
 10
0.0
 20
5.175142788086843
 10
0.0
 20
5.205464409812853
 10
0.0
 20
5.508680627072957
 10
0.0
 20
5.539002248798968
 10
0.0
 20
5.569323870524979
 10
0.0
 20
5.599645492250989
 10
0.0
 20
6.085549480410307
 10
0.0
 20
6.115871102136317
 10
0.0
 20
6.146192723862329
  0
LWPOLYLINE
  5
2C2
100
AcDbEntity
  8
USP-GEO
100
AcDbPolyline
 90
        6
 70
   129
 43
0.0
 10
0.0
 20
4.840846908557576
 10
0.0
 20
4.795364475968561
 10
0.0
 20
4.765042854242549
 10
0.0
 20
4.749882043379544
 10
0.0
 20
4.765042854242549
 10
0.0
 20
4.795364475968561
  0
LWPOLYLINE
  5
2C3
100
AcDbEntity
  8
USP-GEO
100
AcDbPolyline
 90
        7
 70
   128
 43
0.0
 10
0.0
 20
4.931811773735608
 10
0.0
 20
4.916650962872603
 10
0.0
 20
4.886329341146591
 10
0.0
 20
4.840846908557576
 10
0.0
 20
4.795364475968561
 10
0.0
 20
4.765042854242549
 10
0.0
 20
4.749882043379544
  0
LWPOLYLINE
  5
2C4
100
AcDbEntity
  8
USP-GEO
100
AcDbPolyline
 90
       18
 70
   128
 43
0.0
 10
0.0765620948581765
 20
2.42800385971029
 10
0.0765620948581765
 20
2.473486292299305
 10
0.0765620948581765
 20
4.53763069129747
 10
0.0765620948581765
 20
4.567952313023482
 10
0.0765620948581765
 20
4.598273934749492
 10
0.0765620948581765
 20
4.628595556475502
 10
0.0765620948581765
 20
5.114499544634821
 10
0.0765620948581765
 20
5.144821166360831
 10
0.0765620948581765
 20
5.175142788086843
 10
0.0765620948581765
 20
5.205464409812853
 10
0.0765620948581765
 20
5.508680627072957
 10
0.0765620948581765
 20
5.539002248798968
 10
0.0765620948581765
 20
5.569323870524979
 10
0.0765620948581765
 20
5.599645492250989
 10
0.0765620948581765
 20
6.085549480410307
 10
0.0765620948581765
 20
6.115871102136317
 10
0.0765620948581765
 20
6.146192723862329
 10
0.0765620948581765
 20
6.176514345588339
  0
LWPOLYLINE
  5
2C5
100
AcDbEntity
  8
USP-GEO
100
AcDbPolyline
 90
        2
 70
   129
 43
0.0
 10
0.0765620948581765
 20
4.795364475968561
 10
0.0765620948581765
 20
4.840846908557576
  0
LWPOLYLINE
  5
2C6
100
AcDbEntity
  8
USP-GEO
100
AcDbPolyline
 90
        8
 70
   129
 43
0.0
 10
0.0765620948581765
 20
4.886329341146591
 10
0.0765620948581765
 20
4.840846908557576
 10
0.0765620948581765
 20
4.795364475968561
 10
0.0765620948581765
 20
4.765042854242549
 10
0.0765620948581765
 20
4.749882043379544
 10
0.0765620948581765
 20
4.765042854242549
 10
0.0765620948581765
 20
4.795364475968561
 10
0.0765620948581765
 20
4.840846908557576
  0
LWPOLYLINE
  5
2C7
100
AcDbEntity
  8
USP-GEO
100
AcDbPolyline
 90
        9
 70
   128
 43
0.0
 10
0.0765620948581765
 20
2.473486292299305
 10
0.0765620948581765
 20
4.53763069129747
 10
0.0765620948581765
 20
4.567952313023482
 10
0.0765620948581765
 20
4.598273934749492
 10
0.0765620948581765
 20
4.628595556475502
 10
0.0765620948581765
 20
5.114499544634821
 10
0.0765620948581765
 20
5.144821166360831
 10
0.0765620948581765
 20
5.175142788086843
 10
0.0765620948581765
 20
5.205464409812853
  0
LWPOLYLINE
  5
2C8
100
AcDbEntity
  8
USP-GEO
100
AcDbPolyline
 90
       12
 70
   129
 43
0.0
 10
0.8346026380084392
 20
4.810525286831566
 10
0.8042810162824283
 20
4.780203665105554
 10
0.7587985836934124
 20
4.765042854242549
 10
0.7133161511043973
 20
4.780203665105554
 10
0.6829945293783864
 20
4.810525286831566
 10
0.6678337185153814
 20
4.856007719420581
 10
0.6829945293783864
 20
4.901490152009596
 10
0.7133161511043973
 20
4.931811773735608
 10
0.7587985836934124
 20
4.946972584598613
 10
0.8042810162824283
 20
4.931811773735608
 10
0.8346026380084392
 20
4.901490152009596
 10
0.8497634488714442
 20
4.856007719420581
  0
LWPOLYLINE
  5
2C9
100
AcDbEntity
  8
USP-GEO
100
AcDbPolyline
 90
        4
 70
   129
 43
0.0
 10
0.0
 20
5.114499544634821
 10
0.0
 20
4.628595556475502
 10
0.0765620948581765
 20
4.628595556475502
 10
0.0765620948581765
 20
5.114499544634821
  0
LWPOLYLINE
  5
2CA
100
AcDbEntity
  8
USP-GEO
100
AcDbPolyline
 90
       14
 70
   129
 43
0.0
 10
0.0
 20
4.931811773735608
 10
0.0
 20
4.916650962872603
 10
0.0
 20
4.886329341146591
 10
0.0
 20
4.840846908557576
 10
0.0
 20
4.795364475968561
 10
0.0
 20
4.765042854242549
 10
0.0
 20
4.749882043379544
 10
0.0765620948581765
 20
4.749882043379544
 10
0.0765620948581765
 20
4.765042854242549
 10
0.0765620948581765
 20
4.795364475968561
 10
0.0765620948581765
 20
4.840846908557576
 10
0.0765620948581765
 20
4.886329341146591
 10
0.0765620948581765
 20
4.916650962872603
 10
0.0765620948581765
 20
4.931811773735608
  0
LWPOLYLINE
  5
2CB
100
AcDbEntity
  8
USP-GEO
100
AcDbPolyline
 90
        4
 70
   129
 43
0.0
 10
0.0
 20
4.886329341146591
 10
0.0
 20
4.840846908557576
 10
0.0
 20
4.795364475968561
 10
0.0
 20
4.840846908557576
  0
LWPOLYLINE
  5
2CC
100
AcDbEntity
  8
USP-GEO
100
AcDbPolyline
 90
        7
 70
   128
 43
0.0
 10
0.0
 20
4.628595556475502
 10
0.0
 20
4.598273934749492
 10
0.0
 20
4.567952313023482
 10
0.0
 20
4.53763069129747
 10
0.0
 20
2.473486292299305
 10
0.0765620948581765
 20
2.473486292299305
 10
0.0765620948581765
 20
4.53763069129747
  0
LWPOLYLINE
  5
2CD
100
AcDbEntity
  8
USP-GEO
100
AcDbPolyline
 90
        8
 70
   129
 43
0.0
 10
0.0
 20
1.593401221701851
 10
0.0
 20
1.638883654290866
 10
0.0
 20
1.669205276016876
 10
0.0
 20
1.684366086879883
 10
0.0
 20
1.669205276016876
 10
0.0
 20
1.638883654290866
 10
0.0
 20
1.593401221701851
 10
0.0
 20
1.547918789112834
  0
LWPOLYLINE
  5
2CE
100
AcDbEntity
  8
USP-GEO
100
AcDbPolyline
 90
        4
 70
   128
 43
0.0
 10
0.0
 20
1.547918789112834
 10
0.0
 20
1.517597167386824
 10
0.0
 20
1.502436356523819
 10
0.0
 20
1.517597167386824
  0
LWPOLYLINE
  5
2CF
100
AcDbEntity
  8
USP-GEO
100
AcDbPolyline
 90
        2
 70
   128
 43
0.0
 10
0.0
 20
1.547918789112834
 10
0.0
 20
1.517597167386824
  0
LWPOLYLINE
  5
2D0
100
AcDbEntity
  8
USP-GEO
100
AcDbPolyline
 90
        4
 70
   129
 43
0.0
 10
0.0765620948581765
 20
1.502436356523819
 10
0.0765620948581765
 20
1.517597167386824
 10
0.0765620948581765
 20
1.547918789112834
 10
0.0765620948581765
 20
1.517597167386824
  0
LWPOLYLINE
  5
2D1
100
AcDbEntity
  8
USP-GEO
100
AcDbPolyline
 90
        2
 70
   128
 43
0.0
 10
0.0765620948581765
 20
1.638883654290866
 10
0.0765620948581765
 20
1.593401221701851
  0
LWPOLYLINE
  5
2D2
100
AcDbEntity
  8
USP-GEO
100
AcDbPolyline
 90
        4
 70
   129
 43
0.0
 10
0.0765620948581765
 20
1.638883654290866
 10
0.0765620948581765
 20
1.669205276016876
 10
0.0765620948581765
 20
1.684366086879883
 10
0.0765620948581765
 20
1.669205276016876
  0
LWPOLYLINE
  5
2D3
100
AcDbEntity
  8
USP-GEO
100
AcDbPolyline
 90
        2
 70
   129
 43
0.0
 10
0.0765620948581765
 20
1.547918789112834
 10
0.0765620948581765
 20
1.593401221701851
  0
LWPOLYLINE
  5
2D4
100
AcDbEntity
  8
USP-GEO
100
AcDbPolyline
 90
        2
 70
   128
 43
0.0
 10
0.0765620948581765
 20
1.593401221701851
 10
0.0765620948581765
 20
1.638883654290866
  0
LWPOLYLINE
  5
2D5
100
AcDbEntity
  8
USP-GEO
100
AcDbPolyline
 90
        3
 70
   128
 43
0.0
 10
0.0765620948581765
 20
1.638883654290866
 10
0.0765620948581765
 20
1.669205276016876
 10
0.0765620948581765
 20
1.684366086879883
  0
LWPOLYLINE
  5
2D6
100
AcDbEntity
  8
USP-GEO
100
AcDbPolyline
 90
        8
 70
   129
 43
0.0
 10
0.0765620948581765
 20
1.638883654290866
 10
0.0765620948581765
 20
1.593401221701851
 10
0.0765620948581765
 20
1.547918789112834
 10
0.0765620948581765
 20
1.517597167386824
 10
0.0765620948581765
 20
1.502436356523819
 10
0.0765620948581765
 20
1.517597167386824
 10
0.0765620948581765
 20
1.547918789112834
 10
0.0765620948581765
 20
1.593401221701851
  0
LWPOLYLINE
  5
2D7
100
AcDbEntity
  8
USP-GEO
100
AcDbPolyline
 90
        2
 70
   128
 43
0.0
 10
0.0765620948581765
 20
1.669205276016876
 10
0.0765620948581765
 20
1.638883654290866
  0
LWPOLYLINE
  5
2D8
100
AcDbEntity
  8
USP-GEO
100
AcDbPolyline
 90
        2
 70
   128
 43
0.0
 10
0.0765620948581765
 20
1.684366086879883
 10
0.0765620948581765
 20
1.669205276016876
  0
LWPOLYLINE
  5
2D9
100
AcDbEntity
  8
USP-GEO
100
AcDbPolyline
 90
       14
 70
   129
 43
0.0
 10
0.0
 20
1.517597167386824
 10
0.0
 20
1.502436356523819
 10
0.0765620948581765
 20
1.502436356523819
 10
0.0765620948581765
 20
1.517597167386824
 10
0.0765620948581765
 20
1.547918789112834
 10
0.0765620948581765
 20
1.593401221701851
 10
0.0765620948581765
 20
1.638883654290866
 10
0.0765620948581765
 20
1.669205276016876
 10
0.0765620948581765
 20
1.684366086879883
 10
0.0
 20
1.684366086879883
 10
0.0
 20
1.669205276016876
 10
0.0
 20
1.638883654290866
 10
0.0
 20
1.593401221701851
 10
0.0
 20
1.547918789112834
  0
LWPOLYLINE
  5
2DA
100
AcDbEntity
  8
USP-GEO
100
AcDbPolyline
 90
        6
 70
   129
 43
0.0
 10
0.0
 20
1.547918789112834
 10
0.0
 20
1.593401221701851
 10
0.0
 20
1.547918789112834
 10
0.0
 20
1.517597167386824
 10
0.0
 20
1.502436356523819
 10
0.0
 20
1.517597167386824
  0
LWPOLYLINE
  5
2DB
100
AcDbEntity
  8
USP-GEO
100
AcDbPolyline
 90
        6
 70
   129
 43
0.0
 10
0.0
 20
1.593401221701851
 10
0.0
 20
1.638883654290866
 10
0.0
 20
1.669205276016876
 10
0.0
 20
1.684366086879883
 10
0.0
 20
1.669205276016876
 10
0.0
 20
1.638883654290866
  0
LWPOLYLINE
  5
2DC
100
AcDbEntity
  8
USP-GEO
100
AcDbPolyline
 90
        2
 70
   129
 43
0.0
 10
0.0
 20
2.473486292299305
 10
0.0
 20
2.518968724888322
  0
LWPOLYLINE
  5
2DD
100
AcDbEntity
  8
USP-GEO
100
AcDbPolyline
 90
        6
 70
   128
 43
0.0
 10
0.0
 20
2.42800385971029
 10
0.0
 20
2.473486292299305
 10
0.0
 20
2.42800385971029
 10
0.0
 20
2.39768223798428
 10
0.0
 20
2.382521427121274
 10
0.0
 20
2.39768223798428
  0
LWPOLYLINE
  5
2DE
100
AcDbEntity
  8
USP-GEO
100
AcDbPolyline
 90
        5
 70
   128
 43
0.0
 10
0.0
 20
2.518968724888322
 10
0.0
 20
2.549290346614332
 10
0.0
 20
2.564451157477337
 10
0.0
 20
2.549290346614332
 10
0.0
 20
2.518968724888322
  0
LWPOLYLINE
  5
2DF
100
AcDbEntity
  8
USP-GEO
100
AcDbPolyline
 90
        2
 70
   128
 43
0.0
 10
0.0
 20
2.13994845331319
 10
0.0
 20
2.306717372806248
  0
LWPOLYLINE
  5
2E0
100
AcDbEntity
  8
USP-GEO
100
AcDbPolyline
 90
        2
 70
   128
 43
0.0
 10
0.0
 20
2.39768223798428
 10
0.0
 20
2.42800385971029
  0
LWPOLYLINE
  5
2E1
100
AcDbEntity
  8
USP-GEO
100
AcDbPolyline
 90
        4
 70
   129
 43
0.0
 10
0.0765620948581765
 20
2.42800385971029
 10
0.0765620948581765
 20
2.39768223798428
 10
0.0765620948581765
 20
2.382521427121274
 10
0.0765620948581765
 20
2.39768223798428
  0
LWPOLYLINE
  5
2E2
100
AcDbEntity
  8
USP-GEO
100
AcDbPolyline
 90
        6
 70
   128
 43
0.0
 10
0.0765620948581765
 20
2.306717372806248
 10
0.0765620948581765
 20
2.473486292299305
 10
0.0765620948581765
 20
2.306717372806248
 10
0.0765620948581765
 20
2.13994845331319
 10
0.0765620948581765
 20
1.988340344683138
 10
0.0
 20
1.988340344683138
  0
LWPOLYLINE
  5
2E3
100
AcDbEntity
  8
USP-GEO
100
AcDbPolyline
 90
        3
 70
   128
 43
0.0
 10
0.0765620948581765
 20
2.42800385971029
 10
0.0765620948581765
 20
2.473486292299305
 10
0.0765620948581765
 20
2.518968724888322
  0
LWPOLYLINE
  5
2E4
100
AcDbEntity
  8
USP-GEO
100
AcDbPolyline
 90
        4
 70
   129
 43
0.0
 10
0.0765620948581765
 20
2.42800385971029
 10
0.0765620948581765
 20
2.39768223798428
 10
0.0765620948581765
 20
2.382521427121274
 10
0.0765620948581765
 20
2.39768223798428
  0
LWPOLYLINE
  5
2E5
100
AcDbEntity
  8
USP-GEO
100
AcDbPolyline
 90
        4
 70
   129
 43
0.0
 10
0.0765620948581765
 20
2.518968724888322
 10
0.0765620948581765
 20
2.549290346614332
 10
0.0765620948581765
 20
2.564451157477337
 10
0.0765620948581765
 20
2.549290346614332
  0
LWPOLYLINE
  5
2E6
100
AcDbEntity
  8
USP-GEO
100
AcDbPolyline
 90
        3
 70
   128
 43
0.0
 10
0.0765620948581765
 20
2.518968724888322
 10
0.0765620948581765
 20
2.473486292299305
 10
0.0765620948581765
 20
2.42800385971029
  0
LWPOLYLINE
  5
2E7
100
AcDbEntity
  8
USP-GEO
100
AcDbPolyline
 90
        2
 70
   128
 43
0.0
 10
0.0765620948581765
 20
2.13994845331319
 10
0.0765620948581765
 20
2.306717372806248
  0
LWPOLYLINE
  5
2E8
100
AcDbEntity
  8
USP-GEO
100
AcDbPolyline
 90
       14
 70
   129
 43
0.0
 10
0.0
 20
2.39768223798428
 10
0.0
 20
2.382521427121274
 10
0.0765620948581765
 20
2.382521427121274
 10
0.0765620948581765
 20
2.39768223798428
 10
0.0765620948581765
 20
2.42800385971029
 10
0.0765620948581765
 20
2.473486292299305
 10
0.0765620948581765
 20
2.518968724888322
 10
0.0765620948581765
 20
2.549290346614332
 10
0.0765620948581765
 20
2.564451157477337
 10
0.0
 20
2.564451157477337
 10
0.0
 20
2.549290346614332
 10
0.0
 20
2.518968724888322
 10
0.0
 20
2.473486292299305
 10
0.0
 20
2.42800385971029
  0
LWPOLYLINE
  5
2E9
100
AcDbEntity
  8
USP-GEO
100
AcDbPolyline
 90
       12
 70
   129
 43
0.0
 10
0.0
 20
2.382521427121274
 10
0.0
 20
2.39768223798428
 10
0.0
 20
2.42800385971029
 10
0.0
 20
2.473486292299305
 10
0.0
 20
2.518968724888322
 10
0.0
 20
2.549290346614332
 10
0.0
 20
2.564451157477337
 10
0.0
 20
2.549290346614332
 10
0.0
 20
2.518968724888322
 10
0.0
 20
2.473486292299305
 10
0.0
 20
2.42800385971029
 10
0.0
 20
2.39768223798428
  0
LWPOLYLINE
  5
2EA
100
AcDbEntity
  8
USP-GEO
100
AcDbPolyline
 90
        2
 70
   128
 43
0.0
 10
0.0765620948581765
 20
3.429375417211787
 10
0.0773201354013269
 20
3.429375417211787
  0
LWPOLYLINE
  5
2EB
100
AcDbEntity
  8
USP-GEO
100
AcDbPolyline
 90
        2
 70
   129
 43
0.0
 10
0.0773201354013269
 20
3.429375417211787
 10
0.0765620948581765
 20
3.429375417211787
  0
LWPOLYLINE
  5
2EC
100
AcDbEntity
  8
USP-GEO
100
AcDbPolyline
 90
        2
 70
   128
 43
0.0
 10
0.0
 20
3.095837578225671
 10
0.0
 20
3.050355145636656
  0
LWPOLYLINE
  5
2ED
100
AcDbEntity
  8
USP-GEO
100
AcDbPolyline
 90
        4
 70
   129
 43
0.0
 10
0.0
 20
3.429375417211787
 10
0.0
 20
3.383892984622772
 10
0.0
 20
3.338410552033755
 10
0.0
 20
3.383892984622772
  0
LWPOLYLINE
  5
2EE
100
AcDbEntity
  8
USP-GEO
100
AcDbPolyline
 90
        4
 70
   129
 43
0.0
 10
0.0
 20
3.29292811944474
 10
0.0
 20
3.26260649771873
 10
0.0
 20
3.247445686855725
 10
0.0
 20
3.26260649771873
  0
LWPOLYLINE
  5
2EF
100
AcDbEntity
  8
USP-GEO
100
AcDbPolyline
 90
        2
 70
   128
 43
0.0
 10
0.0
 20
3.29292811944474
 10
0.0
 20
3.338410552033755
  0
LWPOLYLINE
  5
2F0
100
AcDbEntity
  8
USP-GEO
100
AcDbPolyline
 90
        2
 70
   128
 43
0.0
 10
0.0
 20
3.004872713047641
 10
0.0
 20
3.020033523910646
  0
LWPOLYLINE
  5
2F1
100
AcDbEntity
  8
USP-GEO
100
AcDbPolyline
 90
        3
 70
   128
 43
0.0
 10
0.0
 20
3.050355145636656
 10
0.0
 20
3.020033523910646
 10
0.0
 20
3.050355145636656
  0
LWPOLYLINE
  5
2F2
100
AcDbEntity
  8
USP-GEO
100
AcDbPolyline
 90
        8
 70
   128
 43
0.0
 10
0.0
 20
3.050355145636656
 10
0.0
 20
3.095837578225671
 10
0.0
 20
3.141320010814688
 10
0.0
 20
3.171641632540698
 10
0.0
 20
3.186802443403703
 10
0.0
 20
3.171641632540698
 10
0.0
 20
3.141320010814688
 10
0.0
 20
3.095837578225671
  0
LWPOLYLINE
  5
2F3
100
AcDbEntity
  8
USP-GEO
100
AcDbPolyline
 90
        2
 70
   128
 43
0.0
 10
0.0
 20
3.338410552033755
 10
0.0
 20
3.29292811944474
  0
LWPOLYLINE
  5
2F4
100
AcDbEntity
  8
USP-GEO
100
AcDbPolyline
 90
        2
 70
   129
 43
0.0
 10
0.0
 20
3.004872713047641
 10
0.0
 20
3.020033523910646
  0
LWPOLYLINE
  5
2F5
100
AcDbEntity
  8
USP-GEO
100
AcDbPolyline
 90
        6
 70
   128
 43
0.0
 10
0.0
 20
3.186802443403703
 10
0.0
 20
3.171641632540698
 10
0.0
 20
3.141320010814688
 10
0.0
 20
3.095837578225671
 10
0.0
 20
3.050355145636656
 10
0.0
 20
3.020033523910646
  0
LWPOLYLINE
  5
2F6
100
AcDbEntity
  8
USP-GEO
100
AcDbPolyline
 90
        2
 70
   129
 43
0.0
 10
0.0765620948581765
 20
3.186802443403703
 10
0.0765620948581765
 20
3.171641632540698
  0
LWPOLYLINE
  5
2F7
100
AcDbEntity
  8
USP-GEO
100
AcDbPolyline
 90
       10
 70
   129
 43
0.0
 10
0.0765620948581765
 20
3.171641632540698
 10
0.0765620948581765
 20
3.141320010814688
 10
0.0765620948581765
 20
3.095837578225671
 10
0.0765620948581765
 20
3.050355145636656
 10
0.0765620948581765
 20
3.020033523910646
 10
0.0765620948581765
 20
3.004872713047641
 10
0.0765620948581765
 20
3.020033523910646
 10
0.0765620948581765
 20
3.050355145636656
 10
0.0765620948581765
 20
3.095837578225671
 10
0.0765620948581765
 20
3.141320010814688
  0
LWPOLYLINE
  5
2F8
100
AcDbEntity
  8
USP-GEO
100
AcDbPolyline
 90
        2
 70
   129
 43
0.0
 10
0.0765620948581765
 20
3.26260649771873
 10
0.0765620948581765
 20
3.29292811944474
  0
LWPOLYLINE
  5
2F9
100
AcDbEntity
  8
USP-GEO
100
AcDbPolyline
 90
        2
 70
   129
 43
0.0
 10
0.0765620948581765
 20
3.247445686855725
 10
0.0765620948581765
 20
3.26260649771873
  0
LWPOLYLINE
  5
2FA
100
AcDbEntity
  8
USP-GEO
100
AcDbPolyline
 90
        6
 70
   129
 43
0.0
 10
0.0765620948581765
 20
3.383892984622772
 10
0.0765620948581765
 20
3.338410552033755
 10
0.0765620948581765
 20
3.29292811944474
 10
0.0765620948581765
 20
3.338410552033755
 10
0.0765620948581765
 20
3.383892984622772
 10
0.0765620948581765
 20
3.429375417211787
  0
LWPOLYLINE
  5
2FB
100
AcDbEntity
  8
USP-GEO
100
AcDbPolyline
 90
        4
 70
   129
 43
0.0
 10
0.0765620948581765
 20
3.26260649771873
 10
0.0765620948581765
 20
3.29292811944474
 10
0.0765620948581765
 20
3.26260649771873
 10
0.0765620948581765
 20
3.247445686855725
  0
LWPOLYLINE
  5
2FC
100
AcDbEntity
  8
USP-GEO
100
AcDbPolyline
 90
        3
 70
   128
 43
0.0
 10
0.0765620948581765
 20
3.383892984622772
 10
0.0765620948581765
 20
3.338410552033755
 10
0.0765620948581765
 20
3.29292811944474
  0
LWPOLYLINE
  5
2FD
100
AcDbEntity
  8
USP-GEO
100
AcDbPolyline
 90
        3
 70
   128
 43
0.0
 10
0.0765620948581765
 20
3.29292811944474
 10
0.0765620948581765
 20
3.338410552033755
 10
0.0765620948581765
 20
3.383892984622772
  0
LWPOLYLINE
  5
2FE
100
AcDbEntity
  8
USP-GEO
100
AcDbPolyline
 90
        2
 70
   129
 43
0.0
 10
0.0765620948581765
 20
3.383892984622772
 10
0.0765620948581765
 20
3.429375417211787
  0
LWPOLYLINE
  5
2FF
100
AcDbEntity
  8
USP-GEO
100
AcDbPolyline
 90
        6
 70
   128
 43
0.0
 10
0.0765620948581765
 20
3.004872713047641
 10
0.0765620948581765
 20
3.020033523910646
 10
0.0765620948581765
 20
3.050355145636656
 10
0.0765620948581765
 20
3.095837578225671
 10
0.0765620948581765
 20
3.141320010814688
 10
0.0765620948581765
 20
3.171641632540698
  0
LWPOLYLINE
  5
300
100
AcDbEntity
  8
USP-GEO
100
AcDbPolyline
 90
        2
 70
   129
 43
0.0
 10
0.0765620948581765
 20
3.186802443403703
 10
0.0765620948581765
 20
3.171641632540698
  0
LWPOLYLINE
  5
301
100
AcDbEntity
  8
USP-GEO
100
AcDbPolyline
 90
        5
 70
   128
 43
0.0
 10
0.0765620948581765
 20
3.020033523910646
 10
0.0765620948581765
 20
3.050355145636656
 10
0.0765620948581765
 20
3.095837578225671
 10
0.0765620948581765
 20
3.141320010814688
 10
0.0765620948581765
 20
3.171641632540698
  0
LWPOLYLINE
  5
302
100
AcDbEntity
  8
USP-GEO
100
AcDbPolyline
 90
        2
 70
   128
 43
0.0
 10
0.0765620948581765
 20
3.020033523910646
 10
0.0765620948581765
 20
3.004872713047641
  0
LWPOLYLINE
  5
303
100
AcDbEntity
  8
USP-GEO
100
AcDbPolyline
 90
       14
 70
   129
 43
0.0
 10
0.0765620948581765
 20
3.004872713047641
 10
0.0765620948581765
 20
3.020033523910646
 10
0.0765620948581765
 20
3.050355145636656
 10
0.0765620948581765
 20
3.095837578225671
 10
0.0765620948581765
 20
3.141320010814688
 10
0.0765620948581765
 20
3.171641632540698
 10
0.0765620948581765
 20
3.186802443403703
 10
0.0
 20
3.186802443403703
 10
0.0
 20
3.171641632540698
 10
0.0
 20
3.141320010814688
 10
0.0
 20
3.095837578225671
 10
0.0
 20
3.050355145636656
 10
0.0
 20
3.020033523910646
 10
0.0
 20
3.004872713047641
  0
LWPOLYLINE
  5
304
100
AcDbEntity
  8
USP-GEO
100
AcDbPolyline
 90
       12
 70
   129
 43
0.0
 10
0.0
 20
3.338410552033755
 10
0.0
 20
3.29292811944474
 10
0.0
 20
3.26260649771873
 10
0.0
 20
3.247445686855725
 10
0.0765620948581765
 20
3.247445686855725
 10
0.0765620948581765
 20
3.26260649771873
 10
0.0765620948581765
 20
3.29292811944474
 10
0.0765620948581765
 20
3.338410552033755
 10
0.0765620948581765
 20
3.383892984622772
 10
0.0765620948581765
 20
3.429375417211787
 10
0.0
 20
3.429375417211787
 10
0.0
 20
3.383892984622772
  0
LWPOLYLINE
  5
305
100
AcDbEntity
  8
USP-GEO
100
AcDbPolyline
 90
       12
 70
   129
 43
0.0
 10
0.0007580405431504
 20
3.429375417211787
 10
0.0
 20
3.429375417211787
 10
0.0
 20
3.383892984622772
 10
0.0
 20
3.338410552033755
 10
0.0
 20
3.29292811944474
 10
0.0
 20
3.26260649771873
 10
0.0
 20
3.247445686855725
 10
0.0
 20
3.26260649771873
 10
0.0
 20
3.29292811944474
 10
0.0
 20
3.338410552033755
 10
0.0
 20
3.383892984622772
 10
0.0
 20
3.429375417211787
  0
LWPOLYLINE
  5
306
100
AcDbEntity
  8
USP-GEO
100
AcDbPolyline
 90
        4
 70
   129
 43
0.0
 10
0.0
 20
3.020033523910646
 10
0.0
 20
3.050355145636656
 10
0.0
 20
3.020033523910646
 10
0.0
 20
3.004872713047641
  0
LWPOLYLINE
  5
307
100
AcDbEntity
  8
USP-GEO
100
AcDbPolyline
 90
        2
 70
   129
 43
0.0
 10
0.0
 20
3.171641632540698
 10
0.0
 20
3.186802443403703
  0
LWPOLYLINE
  5
308
100
AcDbEntity
  8
USP-GEO
100
AcDbPolyline
 90
        3
 70
   128
 43
0.0
 10
0.0
 20
3.050355145636656
 10
0.0
 20
3.095837578225671
 10
0.0
 20
3.141320010814688
  0
LWPOLYLINE
  5
309
100
AcDbEntity
  8
USP-GEO
100
AcDbPolyline
 90
        3
 70
   128
 43
0.0
 10
0.0
 20
3.141320010814688
 10
0.0
 20
3.095837578225671
 10
0.0
 20
3.050355145636656
  0
LWPOLYLINE
  5
30A
100
AcDbEntity
  8
USP-GEO
100
AcDbPolyline
 90
        2
 70
   129
 43
0.0
 10
0.0
 20
3.141320010814688
 10
0.0
 20
3.171641632540698
  0
LWPOLYLINE
  5
30B
100
AcDbEntity
  8
USP-GEO
100
AcDbPolyline
 90
        4
 70
   129
 43
0.0
 10
0.0
 20
4.263978055220226
 10
0.0
 20
4.218495622631211
 10
0.0
 20
4.173013190042194
 10
0.0
 20
4.218495622631211
  0
LWPOLYLINE
  5
30C
100
AcDbEntity
  8
USP-GEO
100
AcDbPolyline
 90
        4
 70
   129
 43
0.0
 10
0.0
 20
4.173013190042194
 10
0.0
 20
4.142691568316184
 10
0.0
 20
4.127530757453179
 10
0.0
 20
4.142691568316184
  0
LWPOLYLINE
  5
30D
100
AcDbEntity
  8
USP-GEO
100
AcDbPolyline
 90
        5
 70
   128
 43
0.0
 10
0.0
 20
4.263978055220226
 10
0.0
 20
4.295057717489386
 10
0.0
 20
4.310218528352391
 10
0.0
 20
4.295057717489386
 10
0.0
 20
4.263978055220226
  0
LWPOLYLINE
  5
30E
100
AcDbEntity
  8
USP-GEO
100
AcDbPolyline
 90
        2
 70
   129
 43
0.0
 10
0.0
 20
4.051726703138152
 10
0.0
 20
4.066887514001157
  0
LWPOLYLINE
  5
30F
100
AcDbEntity
  8
USP-GEO
100
AcDbPolyline
 90
        5
 70
   128
 43
0.0
 10
0.0
 20
4.021405081412142
 10
0.0
 20
3.975922648823127
 10
0.0
 20
3.93044021623411
 10
0.0
 20
3.9001185945081
 10
0.0
 20
3.884957783645095
  0
LWPOLYLINE
  5
310
100
AcDbEntity
  8
USP-GEO
100
AcDbPolyline
 90
        2
 70
   129
 43
0.0
 10
0.0
 20
3.884957783645095
 10
0.0
 20
3.9001185945081
  0
LWPOLYLINE
  5
311
100
AcDbEntity
  8
USP-GEO
100
AcDbPolyline
 90
        6
 70
   128
 43
0.0
 10
0.0
 20
3.9001185945081
 10
0.0
 20
3.93044021623411
 10
0.0
 20
3.975922648823127
 10
0.0
 20
4.021405081412142
 10
0.0
 20
4.051726703138152
 10
0.0
 20
4.021405081412142
  0
LWPOLYLINE
  5
312
100
AcDbEntity
  8
USP-GEO
100
AcDbPolyline
 90
        2
 70
   128
 43
0.0
 10
0.0
 20
4.173013190042194
 10
0.0
 20
4.218495622631211
  0
LWPOLYLINE
  5
313
100
AcDbEntity
  8
USP-GEO
100
AcDbPolyline
 90
        6
 70
   128
 43
0.0
 10
0.0
 20
4.066887514001157
 10
0.0
 20
4.051726703138152
 10
0.0
 20
4.021405081412142
 10
0.0
 20
3.975922648823127
 10
0.0
 20
3.93044021623411
 10
0.0
 20
3.9001185945081
  0
LWPOLYLINE
  5
314
100
AcDbEntity
  8
USP-GEO
100
AcDbPolyline
 90
        2
 70
   129
 43
0.0
 10
0.0765620948581765
 20
3.884957783645095
 10
0.0765620948581765
 20
3.9001185945081
  0
LWPOLYLINE
  5
315
100
AcDbEntity
  8
USP-GEO
100
AcDbPolyline
 90
        4
 70
   128
 43
0.0
 10
0.0765620948581765
 20
3.9001185945081
 10
0.0765620948581765
 20
3.93044021623411
 10
0.0765620948581765
 20
3.975922648823127
 10
0.0765620948581765
 20
4.021405081412142
  0
LWPOLYLINE
  5
316
100
AcDbEntity
  8
USP-GEO
100
AcDbPolyline
 90
        4
 70
   128
 43
0.0
 10
0.0765620948581765
 20
4.021405081412142
 10
0.0765620948581765
 20
3.975922648823127
 10
0.0765620948581765
 20
3.93044021623411
 10
0.0765620948581765
 20
3.9001185945081
  0
LWPOLYLINE
  5
317
100
AcDbEntity
  8
USP-GEO
100
AcDbPolyline
 90
        4
 70
   129
 43
0.0
 10
0.0765620948581765
 20
4.795364475968561
 10
0.0765620948581765
 20
4.765042854242549
 10
0.0765620948581765
 20
4.749882043379544
 10
0.0765620948581765
 20
4.765042854242549
  0
LWPOLYLINE
  5
318
100
AcDbEntity
  8
USP-GEO
100
AcDbPolyline
 90
        4
 70
   129
 43
0.0
 10
0.0765620948581765
 20
4.021405081412142
 10
0.0765620948581765
 20
4.051726703138152
 10
0.0765620948581765
 20
4.066887514001157
 10
0.0765620948581765
 20
4.051726703138152
  0
LWPOLYLINE
  5
319
100
AcDbEntity
  8
USP-GEO
100
AcDbPolyline
 90
        4
 70
   129
 43
0.0
 10
0.0765620948581765
 20
4.173013190042194
 10
0.0765620948581765
 20
4.142691568316184
 10
0.0765620948581765
 20
4.127530757453179
 10
0.0765620948581765
 20
4.142691568316184
  0
LWPOLYLINE
  5
31A
100
AcDbEntity
  8
USP-GEO
100
AcDbPolyline
 90
        3
 70
   128
 43
0.0
 10
0.0765620948581765
 20
4.173013190042194
 10
0.0765620948581765
 20
4.218495622631211
 10
0.0765620948581765
 20
4.263978055220226
  0
LWPOLYLINE
  5
31B
100
AcDbEntity
  8
USP-GEO
100
AcDbPolyline
 90
        3
 70
   128
 43
0.0
 10
0.0765620948581765
 20
4.263978055220226
 10
0.0765620948581765
 20
4.218495622631211
 10
0.0765620948581765
 20
4.173013190042194
  0
LWPOLYLINE
  5
31C
100
AcDbEntity
  8
USP-GEO
100
AcDbPolyline
 90
        4
 70
   129
 43
0.0
 10
0.0765620948581765
 20
4.263978055220226
 10
0.0765620948581765
 20
4.295057717489386
 10
0.0765620948581765
 20
4.310218528352391
 10
0.0765620948581765
 20
4.295057717489386
  0
LWPOLYLINE
  5
31D
100
AcDbEntity
  8
USP-GEO
100
AcDbPolyline
 90
        4
 70
   129
 43
0.0
 10
0.0765620948581765
 20
4.263978055220226
 10
0.0765620948581765
 20
4.295057717489386
 10
0.0765620948581765
 20
4.310218528352391
 10
0.0765620948581765
 20
4.295057717489386
  0
LWPOLYLINE
  5
31E
100
AcDbEntity
  8
USP-GEO
100
AcDbPolyline
 90
        4
 70
   129
 43
0.0
 10
0.0765620948581765
 20
4.127530757453179
 10
0.0765620948581765
 20
4.142691568316184
 10
0.0765620948581765
 20
4.173013190042194
 10
0.0765620948581765
 20
4.142691568316184
  0
LWPOLYLINE
  5
31F
100
AcDbEntity
  8
USP-GEO
100
AcDbPolyline
 90
        3
 70
   128
 43
0.0
 10
0.0765620948581765
 20
4.263978055220226
 10
0.0765620948581765
 20
4.218495622631211
 10
0.0765620948581765
 20
4.173013190042194
  0
LWPOLYLINE
  5
320
100
AcDbEntity
  8
USP-GEO
100
AcDbPolyline
 90
        3
 70
   128
 43
0.0
 10
0.0765620948581765
 20
4.173013190042194
 10
0.0765620948581765
 20
4.218495622631211
 10
0.0765620948581765
 20
4.263978055220226
  0
LWPOLYLINE
  5
321
100
AcDbEntity
  8
USP-GEO
100
AcDbPolyline
 90
        2
 70
   129
 43
0.0
 10
0.0765620948581765
 20
4.051726703138152
 10
0.0765620948581765
 20
4.066887514001157
  0
LWPOLYLINE
  5
322
100
AcDbEntity
  8
USP-GEO
100
AcDbPolyline
 90
        4
 70
   128
 43
0.0
 10
0.0765620948581765
 20
3.9001185945081
 10
0.0765620948581765
 20
3.93044021623411
 10
0.0765620948581765
 20
3.975922648823127
 10
0.0765620948581765
 20
4.021405081412142
  0
LWPOLYLINE
  5
323
100
AcDbEntity
  8
USP-GEO
100
AcDbPolyline
 90
        2
 70
   129
 43
0.0
 10
0.0765620948581765
 20
3.884957783645095
 10
0.0765620948581765
 20
3.9001185945081
  0
LWPOLYLINE
  5
324
100
AcDbEntity
  8
USP-GEO
100
AcDbPolyline
 90
        4
 70
   128
 43
0.0
 10
0.0765620948581765
 20
3.9001185945081
 10
0.0765620948581765
 20
3.93044021623411
 10
0.0765620948581765
 20
3.975922648823127
 10
0.0765620948581765
 20
4.021405081412142
  0
LWPOLYLINE
  5
325
100
AcDbEntity
  8
USP-GEO
100
AcDbPolyline
 90
        2
 70
   129
 43
0.0
 10
0.0765620948581765
 20
4.021405081412142
 10
0.0765620948581765
 20
4.051726703138152
  0
LWPOLYLINE
  5
326
100
AcDbEntity
  8
USP-GEO
100
AcDbPolyline
 90
        5
 70
   128
 43
0.0
 10
0.0765620948581765
 20
4.628595556475502
 10
0.0765620948581765
 20
4.598273934749492
 10
0.0765620948581765
 20
4.567952313023482
 10
0.0765620948581765
 20
4.53763069129747
 10
0.0
 20
4.53763069129747
  0
LWPOLYLINE
  5
327
100
AcDbEntity
  8
USP-GEO
100
AcDbPolyline
 90
       14
 70
   129
 43
0.0
 10
0.0
 20
3.9001185945081
 10
0.0
 20
3.884957783645095
 10
0.0765620948581765
 20
3.884957783645095
 10
0.0765620948581765
 20
3.9001185945081
 10
0.0765620948581765
 20
3.93044021623411
 10
0.0765620948581765
 20
3.975922648823127
 10
0.0765620948581765
 20
4.021405081412142
 10
0.0765620948581765
 20
4.051726703138152
 10
0.0765620948581765
 20
4.066887514001157
 10
0.0
 20
4.066887514001157
 10
0.0
 20
4.051726703138152
 10
0.0
 20
4.021405081412142
 10
0.0
 20
3.975922648823127
 10
0.0
 20
3.93044021623411
  0
LWPOLYLINE
  5
328
100
AcDbEntity
  8
USP-GEO
100
AcDbPolyline
 90
       14
 70
   129
 43
0.0
 10
0.0
 20
4.310218528352391
 10
0.0
 20
4.295057717489386
 10
0.0
 20
4.263978055220226
 10
0.0
 20
4.218495622631211
 10
0.0
 20
4.173013190042194
 10
0.0
 20
4.142691568316184
 10
0.0
 20
4.127530757453179
 10
0.0765620948581765
 20
4.127530757453179
 10
0.0765620948581765
 20
4.142691568316184
 10
0.0765620948581765
 20
4.173013190042194
 10
0.0765620948581765
 20
4.218495622631211
 10
0.0765620948581765
 20
4.263978055220226
 10
0.0765620948581765
 20
4.295057717489386
 10
0.0765620948581765
 20
4.310218528352391
  0
LWPOLYLINE
  5
329
100
AcDbEntity
  8
USP-GEO
100
AcDbPolyline
 90
        2
 70
   129
 43
0.0
 10
0.0
 20
4.749882043379544
 10
0.0
 20
4.765042854242549
  0
LWPOLYLINE
  5
32A
100
AcDbEntity
  8
USP-GEO
100
AcDbPolyline
 90
        8
 70
   129
 43
0.0
 10
0.0
 20
4.066887514001157
 10
0.0
 20
4.051726703138152
 10
0.0
 20
4.021405081412142
 10
0.0
 20
3.975922648823127
 10
0.0
 20
3.93044021623411
 10
0.0
 20
3.975922648823127
 10
0.0
 20
4.021405081412142
 10
0.0
 20
4.051726703138152
  0
LWPOLYLINE
  5
32B
100
AcDbEntity
  8
USP-GEO
100
AcDbPolyline
 90
        2
 70
   129
 43
0.0
 10
0.0
 20
3.9001185945081
 10
0.0
 20
3.93044021623411
  0
LWPOLYLINE
  5
32C
100
AcDbEntity
  8
USP-GEO
100
AcDbPolyline
 90
        3
 70
   128
 43
0.0
 10
0.0
 20
3.9001185945081
 10
0.0
 20
3.884957783645095
 10
0.0
 20
3.9001185945081
  0
LWPOLYLINE
  5
32D
100
AcDbEntity
  8
USP-GEO
100
AcDbPolyline
 90
        2
 70
   129
 43
0.0
 10
0.0
 20
4.765042854242549
 10
0.0
 20
4.795364475968561
  0
LWPOLYLINE
  5
32E
100
AcDbEntity
  8
USP-GEO
100
AcDbPolyline
 90
        4
 70
   129
 43
0.0
 10
0.0
 20
4.173013190042194
 10
0.0
 20
4.142691568316184
 10
0.0
 20
4.127530757453179
 10
0.0
 20
4.142691568316184
  0
LWPOLYLINE
  5
32F
100
AcDbEntity
  8
USP-GEO
100
AcDbPolyline
 90
        8
 70
   128
 43
0.0
 10
0.0
 20
4.218495622631211
 10
0.0
 20
4.263978055220226
 10
0.0
 20
4.295057717489386
 10
0.0
 20
4.310218528352391
 10
0.0
 20
4.295057717489386
 10
0.0
 20
4.263978055220226
 10
0.0
 20
4.218495622631211
 10
0.0
 20
4.173013190042194
  0
LWPOLYLINE
  5
330
100
AcDbEntity
  8
USP-GEO
100
AcDbPolyline
 90
        4
 70
   128
 43
0.0
 10
0.7587985836934124
 20
1.517597167386824
 10
0.7133161511043973
 20
1.517597167386824
 10
0.6829945293783864
 20
1.563079599975841
 10
0.6678337185153814
 20
1.608562032564856
  0
LWPOLYLINE
  5
331
100
AcDbEntity
  8
USP-GEO
100
AcDbPolyline
 90
       10
 70
   128
 43
0.0
 10
0.6678337185153814
 20
1.608562032564856
 10
0.6829945293783864
 20
1.654044465153871
 10
0.7133161511043973
 20
1.684366086879883
 10
0.7587985836934124
 20
1.699526897742888
 10
0.8042810162824283
 20
1.684366086879883
 10
0.8346026380084392
 20
1.654044465153871
 10
0.8497634488714442
 20
1.608562032564856
 10
0.8346026380084392
 20
1.563079599975841
 10
0.8042810162824283
 20
1.517597167386824
 10
0.7587985836934124
 20
1.517597167386824
  0
LWPOLYLINE
  5
332
100
AcDbEntity
  8
USP-GEO
100
AcDbPolyline
 90
       12
 70
   128
 43
0.0
 10
0.7587985836934124
 20
1.259863382715735
 10
0.7133161511043973
 20
1.27502419357874
 10
0.6829945293783864
 20
1.30534581530475
 10
0.6678337185153814
 20
1.350828247893767
 10
0.6829945293783864
 20
1.396310680482782
 10
0.7133161511043973
 20
1.426632302208792
 10
0.7587985836934124
 20
1.441793113071799
 10
0.8042810162824283
 20
1.426632302208792
 10
0.8346026380084392
 20
1.396310680482782
 10
0.8497634488714442
 20
1.350828247893767
 10
0.8346026380084392
 20
1.30534581530475
 10
0.8042810162824283
 20
1.27502419357874
  0
LWPOLYLINE
  5
333
100
AcDbEntity
  8
USP-GEO
100
AcDbPolyline
 90
        2
 70
   128
 43
0.0
 10
0.8042810162824283
 20
1.27502419357874
 10
0.7587985836934124
 20
1.259863382715735
  0
LWPOLYLINE
  5
334
100
AcDbEntity
  8
USP-GEO
100
AcDbPolyline
 90
       12
 70
   128
 43
0.0
 10
0.8346026380084392
 20
3.399053795485777
 10
0.8042810162824283
 20
3.429375417211787
 10
0.7587985836934124
 20
3.444536228074792
 10
0.7133161511043973
 20
3.429375417211787
 10
0.6829945293783864
 20
3.399053795485777
 10
0.6678337185153814
 20
3.353571362896762
 10
0.6829945293783864
 20
3.308088930307745
 10
0.7133161511043973
 20
3.277767308581735
 10
0.7587985836934124
 20
3.26260649771873
 10
0.8042810162824283
 20
3.277767308581735
 10
0.8346026380084392
 20
3.308088930307745
 10
0.8497634488714442
 20
3.353571362896762
  0
LWPOLYLINE
  5
335
100
AcDbEntity
  8
USP-GEO
100
AcDbPolyline
 90
       12
 70
   128
 43
0.0
 10
0.8497634488714442
 20
3.110998389088676
 10
0.8346026380084392
 20
3.156480821677693
 10
0.8042810162824283
 20
3.186802443403703
 10
0.7587985836934124
 20
3.186802443403703
 10
0.7133161511043973
 20
3.186802443403703
 10
0.6829945293783864
 20
3.156480821677693
 10
0.6678337185153814
 20
3.110998389088676
 10
0.6829945293783864
 20
3.065515956499661
 10
0.7133161511043973
 20
3.020033523910646
 10
0.7587985836934124
 20
3.020033523910646
 10
0.8042810162824283
 20
3.020033523910646
 10
0.8346026380084392
 20
3.065515956499661
  0
LWPOLYLINE
  5
336
100
AcDbEntity
  8
USP-GEO
100
AcDbPolyline
 90
        2
 70
   128
 43
0.0
 10
0.8497634488714442
 20
3.110998389088676
 10
0.8346026380084392
 20
3.065515956499661
  0
LWPOLYLINE
  5
337
100
AcDbEntity
  8
USP-GEO
100
AcDbPolyline
 90
        2
 70
   128
 43
0.0
 10
0.8346026380084392
 20
3.399053795485777
 10
0.8497634488714442
 20
3.353571362896762
  0
LWPOLYLINE
  5
338
100
AcDbEntity
  8
USP-GEO
100
AcDbPolyline
 90
        3
 70
   128
 43
0.0
 10
0.8042810162824283
 20
3.186802443403703
 10
0.7587985836934124
 20
3.186802443403703
 10
0.8042810162824283
 20
3.186802443403703
  0
LWPOLYLINE
  5
339
100
AcDbEntity
  8
USP-GEO
100
AcDbPolyline
 90
        5
 70
   128
 43
0.0
 10
0.4100999338442924
 20
7.056599416185794
 10
0.4555823664333074
 20
6.995956172733773
 10
0.4859039881593184
 20
6.920152118418746
 10
0.4555823664333074
 20
6.84434806410372
 10
0.4100999338442924
 20
6.783704820651699
  0
LWPOLYLINE
  5
33A
100
AcDbEntity
  8
USP-GEO
100
AcDbPolyline
 90
        4
 70
   128
 43
0.0
 10
0.0765620948581765
 20
7.238529146541857
 10
1.077175611816523
 20
7.238529146541857
 10
0.0
 20
7.238529146541857
 10
0.0765620948581765
 20
7.238529146541857
  0
LWPOLYLINE
  5
33B
100
AcDbEntity
  8
USP-GEO
100
AcDbPolyline
 90
        4
 70
   128
 43
0.0
 10
0.0765620948581765
 20
7.238529146541857
 10
1.077175611816523
 20
7.238529146541857
 10
0.0
 20
7.238529146541857
 10
0.0765620948581765
 20
7.238529146541857
  0
LWPOLYLINE
  5
33C
100
AcDbEntity
  8
USP-GEO
100
AcDbPolyline
 90
        2
 70
   128
 43
0.0
 10
0.0
 20
6.84434806410372
 10
0.0
 20
6.798865631514704
  0
LWPOLYLINE
  5
33D
100
AcDbEntity
  8
USP-GEO
100
AcDbPolyline
 90
        6
 70
   128
 43
0.0
 10
0.0
 20
7.056599416185794
 10
0.0
 20
7.026277794459783
 10
0.0
 20
6.995956172733773
 10
0.0
 20
6.510052184574455
 10
0.0
 20
6.479730562848444
 10
0.0
 20
6.449408941122434
  0
LWPOLYLINE
  5
33E
100
AcDbEntity
  8
USP-GEO
100
AcDbPolyline
 90
        2
 70
   128
 43
0.0
 10
0.0
 20
6.798865631514704
 10
0.0
 20
6.84434806410372
  0
LWPOLYLINE
  5
33F
100
AcDbEntity
  8
USP-GEO
100
AcDbPolyline
 90
        2
 70
   129
 43
0.0
 10
0.0765620948581765
 20
6.798865631514704
 10
0.0765620948581765
 20
6.84434806410372
  0
LWPOLYLINE
  5
340
100
AcDbEntity
  8
USP-GEO
100
AcDbPolyline
 90
        5
 70
   128
 43
0.0
 10
0.0765620948581765
 20
6.889830496692736
 10
0.0765620948581765
 20
6.84434806410372
 10
0.0765620948581765
 20
6.798865631514704
 10
0.0765620948581765
 20
6.768544009788694
 10
0.0765620948581765
 20
6.753383198925689
  0
LWPOLYLINE
  5
341
100
AcDbEntity
  8
USP-GEO
100
AcDbPolyline
 90
        4
 70
   128
 43
0.0
 10
0.0765620948581765
 20
6.889830496692736
 10
0.0765620948581765
 20
6.84434806410372
 10
0.0765620948581765
 20
6.798865631514704
 10
0.0765620948581765
 20
6.768544009788694
  0
LWPOLYLINE
  5
342
100
AcDbEntity
  8
USP-GEO
100
AcDbPolyline
 90
       16
 70
   128
 43
0.0
 10
0.0765620948581765
 20
5.508680627072957
 10
0.0765620948581765
 20
5.539002248798968
 10
0.0765620948581765
 20
5.569323870524979
 10
0.0765620948581765
 20
5.599645492250989
 10
0.0765620948581765
 20
6.085549480410307
 10
0.0765620948581765
 20
6.115871102136317
 10
0.0765620948581765
 20
6.146192723862329
 10
0.0765620948581765
 20
6.176514345588339
 10
0.0765620948581765
 20
6.419087319396423
 10
0.0765620948581765
 20
6.449408941122434
 10
0.0765620948581765
 20
6.479730562848444
 10
0.0765620948581765
 20
6.510052184574455
 10
0.0765620948581765
 20
6.995956172733773
 10
0.0765620948581765
 20
7.026277794459783
 10
0.0765620948581765
 20
7.041438605322788
 10
0.0765620948581765
 20
7.071760227048799
  0
LWPOLYLINE
  5
343
100
AcDbEntity
  8
USP-GEO
100
AcDbPolyline
 90
        7
 70
   128
 43
0.0
 10
0.3191350686662604
 20
6.768544009788694
 10
0.2433310143512344
 20
6.783704820651699
 10
0.1978485817622184
 20
6.84434806410372
 10
0.1675269600362075
 20
6.920152118418746
 10
0.1978485817622184
 20
6.995956172733773
 10
0.2433310143512344
 20
7.056599416185794
 10
0.3191350686662604
 20
7.071760227048799
  0
LWPOLYLINE
  5
344
100
AcDbEntity
  8
USP-GEO
100
AcDbPolyline
 90
       26
 70
   128
 43
0.0
 10
0.0
 20
6.768544009788694
 10
0.0
 20
6.798865631514704
 10
0.0
 20
6.84434806410372
 10
0.0
 20
6.889830496692736
 10
0.0
 20
6.920152118418746
 10
0.0
 20
6.889830496692736
 10
0.0
 20
6.904991307555741
 10
0.0
 20
6.935312929281752
 10
0.0
 20
6.980795361870767
 10
0.0
 20
7.026277794459783
 10
0.0
 20
6.995956172733773
 10
0.0
 20
6.510052184574455
 10
0.0
 20
6.479730562848444
 10
0.0
 20
6.449408941122434
 10
0.0
 20
6.419087319396423
 10
0.0
 20
6.176514345588339
 10
0.0
 20
6.146192723862329
 10
0.0
 20
6.115871102136317
 10
0.0
 20
6.085549480410307
 10
0.0
 20
5.599645492250989
 10
0.0
 20
5.569323870524979
 10
0.0
 20
5.539002248798968
 10
0.0
 20
5.508680627072957
 10
0.0
 20
5.205464409812853
 10
0.0
 20
5.175142788086843
 10
0.0
 20
5.144821166360831
  0
LWPOLYLINE
  5
345
100
AcDbEntity
  8
USP-GEO
100
AcDbPolyline
 90
        6
 70
   128
 43
0.0
 10
0.0
 20
6.935312929281752
 10
0.0
 20
6.904991307555741
 10
0.0
 20
6.889830496692736
 10
0.0
 20
6.84434806410372
 10
0.0
 20
6.798865631514704
 10
0.0
 20
6.768544009788694
  0
LWPOLYLINE
  5
346
100
AcDbEntity
  8
USP-GEO
100
AcDbPolyline
 90
        7
 70
   128
 43
0.0
 10
0.0
 20
7.071760227048799
 10
0.0
 20
7.041438605322788
 10
0.0
 20
7.026277794459783
 10
0.0
 20
6.995956172733773
 10
0.0
 20
6.510052184574455
 10
0.0765620948581765
 20
6.510052184574455
 10
0.0765620948581765
 20
6.995956172733773
  0
LWPOLYLINE
  5
347
100
AcDbEntity
  8
USP-GEO
100
AcDbPolyline
 90
       22
 70
   129
 43
0.0
 10
0.0
 20
6.920152118418746
 10
0.0
 20
6.889830496692736
 10
0.0
 20
6.84434806410372
 10
0.0
 20
6.798865631514704
 10
0.0
 20
6.768544009788694
 10
0.0
 20
6.753383198925689
 10
0.0765620948581765
 20
6.753383198925689
 10
0.0765620948581765
 20
6.768544009788694
 10
0.0765620948581765
 20
6.798865631514704
 10
0.0765620948581765
 20
6.84434806410372
 10
0.0765620948581765
 20
6.889830496692736
 10
0.0765620948581765
 20
6.920152118418746
 10
0.0765620948581765
 20
6.935312929281752
 10
0.0765620948581765
 20
6.980795361870767
 10
0.0765620948581765
 20
7.026277794459783
 10
0.0765620948581765
 20
7.056599416185794
 10
0.0765620948581765
 20
7.071760227048799
 10
0.0
 20
7.071760227048799
 10
0.0
 20
7.056599416185794
 10
0.0
 20
7.026277794459783
 10
0.0
 20
6.980795361870767
 10
0.0
 20
6.935312929281752
  0
LWPOLYLINE
  5
348
100
AcDbEntity
  8
USP-GEO
100
AcDbPolyline
 90
        2
 70
   129
 43
0.0
 10
0.0773201354013269
 20
5.887700898648089
 10
0.0765620948581765
 20
5.887700898648089
  0
LWPOLYLINE
  5
349
100
AcDbEntity
  8
USP-GEO
100
AcDbPolyline
 90
        4
 70
   129
 43
0.0
 10
0.0765620948581765
 20
6.024906236958287
 10
0.0765620948581765
 20
6.055227858684297
 10
0.0773201354013269
 20
6.055227858684297
 10
0.0765620948581765
 20
6.055227858684297
  0
LWPOLYLINE
  5
34A
100
AcDbEntity
  8
USP-GEO
100
AcDbPolyline
 90
        7
 70
   128
 43
0.0
 10
0.0773201354013269
 20
5.887700898648089
 10
0.0765620948581765
 20
5.887700898648089
 10
0.0765620948581765
 20
5.933941371780255
 10
0.0765620948581765
 20
5.97942380436927
 10
0.0765620948581765
 20
6.024906236958287
 10
0.0765620948581765
 20
5.97942380436927
 10
0.0765620948581765
 20
5.933941371780255
  0
LWPOLYLINE
  5
34B
100
AcDbEntity
  8
USP-GEO
100
AcDbPolyline
 90
        2
 70
   128
 43
0.0
 10
0.0765620948581765
 20
6.055227858684297
 10
0.0773201354013269
 20
6.055227858684297
  0
LWPOLYLINE
  5
34C
100
AcDbEntity
  8
USP-GEO
100
AcDbPolyline
 90
        2
 70
   128
 43
0.0
 10
0.0765620948581765
 20
6.055227858684297
 10
0.0773201354013269
 20
6.055227858684297
  0
LWPOLYLINE
  5
34D
100
AcDbEntity
  8
USP-GEO
100
AcDbPolyline
 90
        4
 70
   128
 43
0.0
 10
0.0773201354013269
 20
5.887700898648089
 10
0.0765620948581765
 20
5.887700898648089
 10
0.0
 20
5.887700898648089
 10
0.0007580405431504
 20
5.887700898648089
  0
LWPOLYLINE
  5
34E
100
AcDbEntity
  8
USP-GEO
100
AcDbPolyline
 90
        7
 70
   128
 43
0.0
 10
0.0
 20
6.176514345588339
 10
0.0
 20
6.146192723862329
 10
0.0
 20
6.115871102136317
 10
0.0
 20
6.085549480410307
 10
0.0
 20
5.599645492250989
 10
0.0765620948581765
 20
5.599645492250989
 10
0.0765620948581765
 20
6.085549480410307
  0
LWPOLYLINE
  5
34F
100
AcDbEntity
  8
USP-GEO
100
AcDbPolyline
 90
        2
 70
   129
 43
0.0
 10
0.0
 20
4.840846908557576
 10
0.0
 20
4.886329341146591
  0
LWPOLYLINE
  5
350
100
AcDbEntity
  8
USP-GEO
100
AcDbPolyline
 90
        4
 70
   129
 43
0.0
 10
0.0
 20
5.05309826063965
 10
0.0
 20
5.022776638913638
 10
0.0
 20
5.007615828050633
 10
0.0
 20
5.022776638913638
  0
LWPOLYLINE
  5
351
100
AcDbEntity
  8
USP-GEO
100
AcDbPolyline
 90
        8
 70
   128
 43
0.0
 10
0.0
 20
5.159981977223836
 10
0.0
 20
5.144821166360831
 10
0.0
 20
5.175142788086843
 10
0.0
 20
5.190303598949848
 10
0.0
 20
5.175142788086843
 10
0.0
 20
5.144821166360831
 10
0.0
 20
5.099338733771816
 10
0.0
 20
5.05309826063965
  0
LWPOLYLINE
  5
352
100
AcDbEntity
  8
USP-GEO
100
AcDbPolyline
 90
       10
 70
   128
 43
0.0
 10
0.0
 20
5.281268464127879
 10
0.0
 20
5.235786031538863
 10
0.0
 20
5.190303598949848
 10
0.0
 20
5.159981977223836
 10
0.0
 20
5.190303598949848
 10
0.0
 20
5.235786031538863
 10
0.0
 20
5.281268464127879
 10
0.0
 20
5.31159008585389
 10
0.0
 20
5.326750896716895
 10
0.0
 20
5.31159008585389
  0
LWPOLYLINE
  5
353
100
AcDbEntity
  8
USP-GEO
100
AcDbPolyline
 90
        5
 70
   128
 43
0.0
 10
0.0
 20
4.886329341146591
 10
0.0
 20
4.916650962872603
 10
0.0
 20
4.931811773735608
 10
0.0
 20
4.916650962872603
 10
0.0
 20
4.886329341146591
  0
LWPOLYLINE
  5
354
100
AcDbEntity
  8
USP-GEO
100
AcDbPolyline
 90
        2
 70
   128
 43
0.0
 10
0.0
 20
5.099338733771816
 10
0.0
 20
5.05309826063965
  0
LWPOLYLINE
  5
355
100
AcDbEntity
  8
USP-GEO
100
AcDbPolyline
 90
        2
 70
   128
 43
0.0
 10
0.0
 20
5.720931979155031
 10
0.0
 20
5.675449546566015
  0
LWPOLYLINE
  5
356
100
AcDbEntity
  8
USP-GEO
100
AcDbPolyline
 90
        2
 70
   129
 43
0.0
 10
0.0
 20
5.144821166360831
 10
0.0
 20
5.159981977223836
  0
LWPOLYLINE
  5
357
100
AcDbEntity
  8
USP-GEO
100
AcDbPolyline
 90
        2
 70
   128
 43
0.0
 10
0.0
 20
5.31159008585389
 10
0.0
 20
5.281268464127879
  0
LWPOLYLINE
  5
358
100
AcDbEntity
  8
USP-GEO
100
AcDbPolyline
 90
        6
 70
   128
 43
0.0
 10
0.0
 20
5.326750896716895
 10
0.0
 20
5.31159008585389
 10
0.0
 20
5.281268464127879
 10
0.0
 20
5.235786031538863
 10
0.0
 20
5.190303598949848
 10
0.0
 20
5.159981977223836
  0
LWPOLYLINE
  5
359
100
AcDbEntity
  8
USP-GEO
100
AcDbPolyline
 90
        3
 70
   128
 43
0.0
 10
0.0765620948581765
 20
5.675449546566015
 10
0.0765620948581765
 20
5.645127924840005
 10
0.0765620948581765
 20
5.629967113976999
  0
LWPOLYLINE
  5
35A
100
AcDbEntity
  8
USP-GEO
100
AcDbPolyline
 90
        2
 70
   128
 43
0.0
 10
0.0765620948581765
 20
4.886329341146591
 10
0.0765620948581765
 20
4.840846908557576
  0
LWPOLYLINE
  5
35B
100
AcDbEntity
  8
USP-GEO
100
AcDbPolyline
 90
        4
 70
   128
 43
0.0
 10
0.0765620948581765
 20
5.811896844333062
 10
0.0765620948581765
 20
5.796736033470057
 10
0.0765620948581765
 20
5.766414411744047
 10
0.0765620948581765
 20
5.720931979155031
  0
LWPOLYLINE
  5
35C
100
AcDbEntity
  8
USP-GEO
100
AcDbPolyline
 90
        4
 70
   128
 43
0.0
 10
0.0765620948581765
 20
5.629967113976999
 10
0.0765620948581765
 20
5.645127924840005
 10
0.0765620948581765
 20
5.675449546566015
 10
0.0765620948581765
 20
5.720931979155031
  0
LWPOLYLINE
  5
35D
100
AcDbEntity
  8
USP-GEO
100
AcDbPolyline
 90
        2
 70
   129
 43
0.0
 10
0.0765620948581765
 20
5.144821166360831
 10
0.0765620948581765
 20
5.175142788086843
  0
LWPOLYLINE
  5
35E
100
AcDbEntity
  8
USP-GEO
100
AcDbPolyline
 90
        2
 70
   128
 43
0.0
 10
0.0765620948581765
 20
4.840846908557576
 10
0.0765620948581765
 20
4.886329341146591
  0
LWPOLYLINE
  5
35F
100
AcDbEntity
  8
USP-GEO
100
AcDbPolyline
 90
        5
 70
   128
 43
0.0
 10
0.0765620948581765
 20
4.886329341146591
 10
0.0765620948581765
 20
4.916650962872603
 10
0.0765620948581765
 20
4.931811773735608
 10
0.0765620948581765
 20
4.916650962872603
 10
0.0765620948581765
 20
4.886329341146591
  0
LWPOLYLINE
  5
360
100
AcDbEntity
  8
USP-GEO
100
AcDbPolyline
 90
        4
 70
   129
 43
0.0
 10
0.0765620948581765
 20
5.190303598949848
 10
0.0765620948581765
 20
5.159981977223836
 10
0.0765620948581765
 20
5.144821166360831
 10
0.0765620948581765
 20
5.159981977223836
  0
LWPOLYLINE
  5
361
100
AcDbEntity
  8
USP-GEO
100
AcDbPolyline
 90
        8
 70
   129
 43
0.0
 10
0.0765620948581765
 20
5.190303598949848
 10
0.0765620948581765
 20
5.235786031538863
 10
0.0765620948581765
 20
5.281268464127879
 10
0.0765620948581765
 20
5.31159008585389
 10
0.0765620948581765
 20
5.326750896716895
 10
0.0765620948581765
 20
5.31159008585389
 10
0.0765620948581765
 20
5.281268464127879
 10
0.0765620948581765
 20
5.235786031538863
  0
LWPOLYLINE
  5
362
100
AcDbEntity
  8
USP-GEO
100
AcDbPolyline
 90
        4
 70
   129
 43
0.0
 10
0.0765620948581765
 20
5.05309826063965
 10
0.0765620948581765
 20
5.022776638913638
 10
0.0765620948581765
 20
5.007615828050633
 10
0.0765620948581765
 20
5.022776638913638
  0
LWPOLYLINE
  5
363
100
AcDbEntity
  8
USP-GEO
100
AcDbPolyline
 90
        4
 70
   129
 43
0.0
 10
0.0765620948581765
 20
5.144821166360831
 10
0.0765620948581765
 20
5.099338733771816
 10
0.0765620948581765
 20
5.05309826063965
 10
0.0765620948581765
 20
5.099338733771816
  0
LWPOLYLINE
  5
364
100
AcDbEntity
  8
USP-GEO
100
AcDbPolyline
 90
        3
 70
   128
 43
0.0
 10
0.0765620948581765
 20
5.175142788086843
 10
0.0765620948581765
 20
5.190303598949848
 10
0.0765620948581765
 20
5.175142788086843
  0
LWPOLYLINE
  5
365
100
AcDbEntity
  8
USP-GEO
100
AcDbPolyline
 90
        5
 70
   128
 43
0.0
 10
0.0765620948581765
 20
5.811896844333062
 10
0.0765620948581765
 20
5.796736033470057
 10
0.0765620948581765
 20
5.766414411744047
 10
0.0765620948581765
 20
5.720931979155031
 10
0.0765620948581765
 20
5.675449546566015
  0
LWPOLYLINE
  5
366
100
AcDbEntity
  8
USP-GEO
100
AcDbPolyline
 90
        4
 70
   129
 43
0.0
 10
0.0765620948581765
 20
4.886329341146591
 10
0.0765620948581765
 20
4.916650962872603
 10
0.0765620948581765
 20
4.931811773735608
 10
0.0765620948581765
 20
4.916650962872603
  0
LWPOLYLINE
  5
367
100
AcDbEntity
  8
USP-GEO
100
AcDbPolyline
 90
       12
 70
   129
 43
0.0
 10
0.0765620948581765
 20
5.629967113976999
 10
0.0765620948581765
 20
5.645127924840005
 10
0.0765620948581765
 20
5.675449546566015
 10
0.0765620948581765
 20
5.720931979155031
 10
0.0765620948581765
 20
5.766414411744047
 10
0.0765620948581765
 20
5.796736033470057
 10
0.0765620948581765
 20
5.811896844333062
 10
0.0765620948581765
 20
5.796736033470057
 10
0.0765620948581765
 20
5.766414411744047
 10
0.0765620948581765
 20
5.720931979155031
 10
0.0765620948581765
 20
5.675449546566015
 10
0.0765620948581765
 20
5.645127924840005
  0
LWPOLYLINE
  5
368
100
AcDbEntity
  8
USP-GEO
100
AcDbPolyline
 90
       12
 70
   128
 43
0.0
 10
0.0765620948581765
 20
5.022776638913638
 10
0.0765620948581765
 20
5.05309826063965
 10
0.0765620948581765
 20
5.099338733771816
 10
0.0765620948581765
 20
5.144821166360831
 10
0.0765620948581765
 20
5.175142788086843
 10
0.0765620948581765
 20
5.190303598949848
 10
0.0765620948581765
 20
5.175142788086843
 10
0.0765620948581765
 20
5.144821166360831
 10
0.0765620948581765
 20
5.099338733771816
 10
0.0765620948581765
 20
5.05309826063965
 10
0.0765620948581765
 20
5.022776638913638
 10
0.0765620948581765
 20
5.007615828050633
  0
LWPOLYLINE
  5
369
100
AcDbEntity
  8
USP-GEO
100
AcDbPolyline
 90
        6
 70
   129
 43
0.0
 10
0.0765620948581765
 20
5.281268464127879
 10
0.0765620948581765
 20
5.31159008585389
 10
0.0765620948581765
 20
5.326750896716895
 10
0.0765620948581765
 20
5.31159008585389
 10
0.0765620948581765
 20
5.281268464127879
 10
0.0765620948581765
 20
5.235786031538863
  0
LWPOLYLINE
  5
36A
100
AcDbEntity
  8
USP-GEO
100
AcDbPolyline
 90
        7
 70
   128
 43
0.0
 10
0.0765620948581765
 20
5.235786031538863
 10
0.0765620948581765
 20
5.190303598949848
 10
0.0765620948581765
 20
5.159981977223836
 10
0.0765620948581765
 20
5.144821166360831
 10
0.0765620948581765
 20
5.159981977223836
 10
0.0765620948581765
 20
5.190303598949848
 10
0.0765620948581765
 20
5.235786031538863
  0
LWPOLYLINE
  5
36B
100
AcDbEntity
  8
USP-GEO
100
AcDbPolyline
 90
        4
 70
   128
 43
0.0
 10
0.0765620948581765
 20
5.144821166360831
 10
0.0765620948581765
 20
5.175142788086843
 10
0.0765620948581765
 20
5.205464409812853
 10
0.0765620948581765
 20
5.508680627072957
  0
LWPOLYLINE
  5
36C
100
AcDbEntity
  8
USP-GEO
100
AcDbPolyline
 90
        2
 70
   128
 43
0.0
 10
0.0765620948581765
 20
5.007615828050633
 10
0.0765620948581765
 20
5.022776638913638
  0
LWPOLYLINE
  5
36D
100
AcDbEntity
  8
USP-GEO
100
AcDbPolyline
 90
        2
 70
   128
 43
0.0
 10
0.0
 20
5.144821166360831
 10
0.0
 20
5.114499544634821
  0
LWPOLYLINE
  5
36E
100
AcDbEntity
  8
USP-GEO
100
AcDbPolyline
 90
        3
 70
   128
 43
0.0
 10
0.0
 20
5.144821166360831
 10
0.0
 20
5.175142788086843
 10
0.0
 20
5.205464409812853
  0
LWPOLYLINE
  5
36F
100
AcDbEntity
  8
USP-GEO
100
AcDbPolyline
 90
        2
 70
   128
 43
0.0
 10
0.0765620948581765
 20
5.114499544634821
 10
0.0765620948581765
 20
5.144821166360831
  0
LWPOLYLINE
  5
370
100
AcDbEntity
  8
USP-GEO
100
AcDbPolyline
 90
        4
 70
   128
 43
0.0
 10
0.0
 20
5.508680627072957
 10
0.0
 20
5.205464409812853
 10
0.0765620948581765
 20
5.205464409812853
 10
0.0765620948581765
 20
5.508680627072957
  0
LWPOLYLINE
  5
371
100
AcDbEntity
  8
USP-GEO
100
AcDbPolyline
 90
       10
 70
   128
 43
0.0
 10
0.0765620948581765
 20
5.190303598949848
 10
0.0765620948581765
 20
5.235786031538863
 10
0.0765620948581765
 20
5.281268464127879
 10
0.0765620948581765
 20
5.31159008585389
 10
0.0765620948581765
 20
5.326750896716895
 10
0.0
 20
5.326750896716895
 10
0.0
 20
5.31159008585389
 10
0.0
 20
5.281268464127879
 10
0.0
 20
5.235786031538863
 10
0.0
 20
5.190303598949848
  0
LWPOLYLINE
  5
372
100
AcDbEntity
  8
USP-GEO
100
AcDbPolyline
 90
        4
 70
   129
 43
0.0
 10
0.0765620948581765
 20
5.190303598949848
 10
0.0765620948581765
 20
5.175142788086843
 10
0.0765620948581765
 20
5.144821166360831
 10
0.0765620948581765
 20
5.159981977223836
  0
LWPOLYLINE
  5
373
100
AcDbEntity
  8
USP-GEO
100
AcDbPolyline
 90
        4
 70
   129
 43
0.0
 10
0.0
 20
5.144821166360831
 10
0.0
 20
5.175142788086843
 10
0.0
 20
5.190303598949848
 10
0.0
 20
5.159981977223836
  0
LWPOLYLINE
  5
374
100
AcDbEntity
  8
USP-GEO
100
AcDbPolyline
 90
        2
 70
   129
 43
0.0
 10
0.0
 20
4.931811773735608
 10
0.0
 20
4.916650962872603
  0
LWPOLYLINE
  5
375
100
AcDbEntity
  8
USP-GEO
100
AcDbPolyline
 90
        2
 70
   129
 43
0.0
 10
0.0
 20
4.886329341146591
 10
0.0
 20
4.916650962872603
  0
LWPOLYLINE
  5
376
100
AcDbEntity
  8
USP-GEO
100
AcDbPolyline
 90
       10
 70
   128
 43
0.0
 10
0.0
 20
5.144821166360831
 10
0.0
 20
5.099338733771816
 10
0.0
 20
5.05309826063965
 10
0.0
 20
5.022776638913638
 10
0.0
 20
5.007615828050633
 10
0.0765620948581765
 20
5.007615828050633
 10
0.0765620948581765
 20
5.022776638913638
 10
0.0765620948581765
 20
5.05309826063965
 10
0.0765620948581765
 20
5.099338733771816
 10
0.0765620948581765
 20
5.144821166360831
  0
LWPOLYLINE
  5
377
100
AcDbEntity
  8
USP-GEO
100
AcDbPolyline
 90
        4
 70
   128
 43
0.0
 10
0.0
 20
5.811896844333062
 10
0.0
 20
5.796736033470057
 10
0.0
 20
5.766414411744047
 10
0.0
 20
5.796736033470057
  0
LWPOLYLINE
  5
378
100
AcDbEntity
  8
USP-GEO
100
AcDbPolyline
 90
        5
 70
   128
 43
0.0
 10
0.0
 20
5.645127924840005
 10
0.0
 20
5.675449546566015
 10
0.0
 20
5.720931979155031
 10
0.0
 20
5.766414411744047
 10
0.0
 20
5.720931979155031
  0
LWPOLYLINE
  5
379
100
AcDbEntity
  8
USP-GEO
100
AcDbPolyline
 90
        3
 70
   128
 43
0.0
 10
0.0
 20
5.675449546566015
 10
0.0
 20
5.645127924840005
 10
0.0
 20
5.629967113976999
  0
LWPOLYLINE
  5
37A
100
AcDbEntity
  8
USP-GEO
100
AcDbPolyline
 90
        2
 70
   129
 43
0.0
 10
0.0
 20
5.326750896716895
 10
0.0
 20
5.31159008585389
  0
LWPOLYLINE
  5
37B
100
AcDbEntity
  8
USP-GEO
100
AcDbPolyline
 90
       10
 70
   129
 43
0.0
 10
0.0
 20
5.190303598949848
 10
0.0
 20
5.235786031538863
 10
0.0
 20
5.281268464127879
 10
0.0
 20
5.31159008585389
 10
0.0
 20
5.281268464127879
 10
0.0
 20
5.235786031538863
 10
0.0
 20
5.190303598949848
 10
0.0
 20
5.159981977223836
 10
0.0
 20
5.144821166360831
 10
0.0
 20
5.159981977223836
  0
LWPOLYLINE
  5
37C
100
AcDbEntity
  8
USP-GEO
100
AcDbPolyline
 90
       12
 70
   129
 43
0.0
 10
0.0
 20
5.720931979155031
 10
0.0
 20
5.675449546566015
 10
0.0
 20
5.645127924840005
 10
0.0
 20
5.629967113976999
 10
0.0
 20
5.645127924840005
 10
0.0
 20
5.675449546566015
 10
0.0
 20
5.720931979155031
 10
0.0
 20
5.766414411744047
 10
0.0
 20
5.796736033470057
 10
0.0
 20
5.811896844333062
 10
0.0
 20
5.796736033470057
 10
0.0
 20
5.766414411744047
  0
LWPOLYLINE
  5
37D
100
AcDbEntity
  8
USP-GEO
100
AcDbPolyline
 90
        4
 70
   129
 43
0.0
 10
0.0
 20
5.144821166360831
 10
0.0
 20
5.175142788086843
 10
0.0
 20
5.190303598949848
 10
0.0
 20
5.175142788086843
  0
LWPOLYLINE
  5
37E
100
AcDbEntity
  8
USP-GEO
100
AcDbPolyline
 90
        2
 70
   129
 43
0.0
 10
0.0
 20
5.144821166360831
 10
0.0
 20
5.099338733771816
  0
LWPOLYLINE
  5
37F
100
AcDbEntity
  8
USP-GEO
100
AcDbPolyline
 90
        2
 70
   128
 43
0.0
 10
0.0
 20
5.099338733771816
 10
0.0
 20
5.05309826063965
  0
LWPOLYLINE
  5
380
100
AcDbEntity
  8
USP-GEO
100
AcDbPolyline
 90
        3
 70
   128
 43
0.0
 10
0.0
 20
5.05309826063965
 10
0.0
 20
5.099338733771816
 10
0.0
 20
5.144821166360831
  0
LWPOLYLINE
  5
381
100
AcDbEntity
  8
USP-GEO
100
AcDbPolyline
 90
        4
 70
   129
 43
0.0
 10
0.0
 20
5.05309826063965
 10
0.0
 20
5.022776638913638
 10
0.0
 20
5.007615828050633
 10
0.0
 20
5.022776638913638
  0
LWPOLYLINE
  5
382
100
AcDbEntity
  8
USP-GEO
100
AcDbPolyline
 90
        9
 70
   128
 43
0.0
 10
0.0
 20
5.796736033470057
 10
0.0
 20
5.811896844333062
 10
0.0
 20
5.796736033470057
 10
0.0
 20
5.766414411744047
 10
0.0
 20
5.720931979155031
 10
0.0
 20
5.675449546566015
 10
0.0
 20
5.645127924840005
 10
0.0
 20
5.629967113976999
 10
0.0
 20
5.645127924840005
  0
LWPOLYLINE
  5
383
100
AcDbEntity
  8
USP-GEO
100
AcDbPolyline
 90
        8
 70
   128
 43
0.0
 10
0.0
 20
5.599645492250989
 10
0.0
 20
5.569323870524979
 10
0.0
 20
5.539002248798968
 10
0.0
 20
5.508680627072957
 10
0.0765620948581765
 20
5.508680627072957
 10
0.0765620948581765
 20
5.539002248798968
 10
0.0765620948581765
 20
5.569323870524979
 10
0.0765620948581765
 20
5.599645492250989
  0
LWPOLYLINE
  5
384
100
AcDbEntity
  8
USP-GEO
100
AcDbPolyline
 90
       14
 70
   129
 43
0.0
 10
0.0
 20
5.811896844333062
 10
0.0
 20
5.796736033470057
 10
0.0
 20
5.766414411744047
 10
0.0
 20
5.720931979155031
 10
0.0
 20
5.675449546566015
 10
0.0
 20
5.645127924840005
 10
0.0
 20
5.629967113976999
 10
0.0765620948581765
 20
5.629967113976999
 10
0.0765620948581765
 20
5.645127924840005
 10
0.0765620948581765
 20
5.675449546566015
 10
0.0765620948581765
 20
5.720931979155031
 10
0.0765620948581765
 20
5.766414411744047
 10
0.0765620948581765
 20
5.796736033470057
 10
0.0765620948581765
 20
5.811896844333062
  0
LWPOLYLINE
  5
385
100
AcDbEntity
  8
USP-GEO
100
AcDbPolyline
 90
        2
 70
   128
 43
0.0
 10
0.0
 20
6.055227858684297
 10
0.0007580405431504
 20
6.055227858684297
  0
LWPOLYLINE
  5
386
100
AcDbEntity
  8
USP-GEO
100
AcDbPolyline
 90
        2
 70
   129
 43
0.0
 10
0.0
 20
6.768544009788694
 10
0.0
 20
6.753383198925689
  0
LWPOLYLINE
  5
387
100
AcDbEntity
  8
USP-GEO
100
AcDbPolyline
 90
        2
 70
   129
 43
0.0
 10
0.0
 20
6.024906236958287
 10
0.0
 20
6.055227858684297
  0
LWPOLYLINE
  5
388
100
AcDbEntity
  8
USP-GEO
100
AcDbPolyline
 90
        2
 70
   129
 43
0.0
 10
0.0
 20
6.768544009788694
 10
0.0
 20
6.798865631514704
  0
LWPOLYLINE
  5
389
100
AcDbEntity
  8
USP-GEO
100
AcDbPolyline
 90
        4
 70
   128
 43
0.0
 10
0.0
 20
5.97942380436927
 10
0.0
 20
5.933941371780255
 10
0.0
 20
5.887700898648089
 10
0.0007580405431504
 20
5.887700898648089
  0
LWPOLYLINE
  5
38A
100
AcDbEntity
  8
USP-GEO
100
AcDbPolyline
 90
       12
 70
   128
 43
0.0
 10
0.0
 20
6.676821104067512
 10
0.0
 20
6.646499482341502
 10
0.0
 20
6.601017049752486
 10
0.0
 20
6.55553461716347
 10
0.0
 20
6.52521299543746
 10
0.0
 20
6.510052184574455
 10
0.0
 20
6.52521299543746
 10
0.0
 20
6.55553461716347
 10
0.0
 20
6.601017049752486
 10
0.0
 20
6.646499482341502
 10
0.0
 20
6.676821104067512
 10
0.0
 20
6.691981914930518
  0
LWPOLYLINE
  5
38B
100
AcDbEntity
  8
USP-GEO
100
AcDbPolyline
 90
        2
 70
   128
 43
0.0
 10
0.0
 20
6.176514345588339
 10
0.0
 20
6.419087319396423
  0
LWPOLYLINE
  5
38C
100
AcDbEntity
  8
USP-GEO
100
AcDbPolyline
 90
        2
 70
   128
 43
0.0
 10
0.0
 20
6.146192723862329
 10
0.0
 20
6.176514345588339
  0
LWPOLYLINE
  5
38D
100
AcDbEntity
  8
USP-GEO
100
AcDbPolyline
 90
        2
 70
   128
 43
0.0
 10
0.0
 20
5.97942380436927
 10
0.0
 20
6.024906236958287
  0
LWPOLYLINE
  5
38E
100
AcDbEntity
  8
USP-GEO
100
AcDbPolyline
 90
        2
 70
   128
 43
0.0
 10
0.0
 20
6.055227858684297
 10
0.0007580405431504
 20
6.055227858684297
  0
LWPOLYLINE
  5
38F
100
AcDbEntity
  8
USP-GEO
100
AcDbPolyline
 90
        2
 70
   128
 43
0.0
 10
0.0
 20
6.676821104067512
 10
0.0
 20
6.691981914930518
  0
LWPOLYLINE
  5
390
100
AcDbEntity
  8
USP-GEO
100
AcDbPolyline
 90
        2
 70
   128
 43
0.0
 10
0.0
 20
6.419087319396423
 10
0.0
 20
6.449408941122434
  0
LWPOLYLINE
  5
391
100
AcDbEntity
  8
USP-GEO
100
AcDbPolyline
 90
        3
 70
   128
 43
0.0
 10
0.0765620948581765
 20
6.55553461716347
 10
0.0765620948581765
 20
6.52521299543746
 10
0.0765620948581765
 20
6.510052184574455
  0
LWPOLYLINE
  5
392
100
AcDbEntity
  8
USP-GEO
100
AcDbPolyline
 90
        2
 70
   128
 43
0.0
 10
0.0765620948581765
 20
6.419087319396423
 10
0.0765620948581765
 20
6.176514345588339
  0
LWPOLYLINE
  5
393
100
AcDbEntity
  8
USP-GEO
100
AcDbPolyline
 90
        2
 70
   128
 43
0.0
 10
0.0765620948581765
 20
6.55553461716347
 10
0.0765620948581765
 20
6.601017049752486
  0
LWPOLYLINE
  5
394
100
AcDbEntity
  8
USP-GEO
100
AcDbPolyline
 90
        2
 70
   129
 43
0.0
 10
0.0765620948581765
 20
6.753383198925689
 10
0.0765620948581765
 20
6.768544009788694
  0
LWPOLYLINE
  5
395
100
AcDbEntity
  8
USP-GEO
100
AcDbPolyline
 90
        3
 70
   128
 43
0.0
 10
0.0765620948581765
 20
6.798865631514704
 10
0.0765620948581765
 20
6.768544009788694
 10
0.0765620948581765
 20
6.798865631514704
  0
LWPOLYLINE
  5
396
100
AcDbEntity
  8
USP-GEO
100
AcDbPolyline
 90
        2
 70
   129
 43
0.0
 10
0.0765620948581765
 20
6.024906236958287
 10
0.0765620948581765
 20
6.055227858684297
  0
LWPOLYLINE
  5
397
100
AcDbEntity
  8
USP-GEO
100
AcDbPolyline
 90
        4
 70
   129
 43
0.0
 10
0.0765620948581765
 20
5.933941371780255
 10
0.0765620948581765
 20
5.97942380436927
 10
0.0765620948581765
 20
6.024906236958287
 10
0.0765620948581765
 20
5.97942380436927
  0
LWPOLYLINE
  5
398
100
AcDbEntity
  8
USP-GEO
100
AcDbPolyline
 90
       13
 70
   128
 43
0.0
 10
0.0765620948581765
 20
6.601017049752486
 10
0.0765620948581765
 20
6.646499482341502
 10
0.0765620948581765
 20
6.676821104067512
 10
0.0765620948581765
 20
6.691981914930518
 10
0.0765620948581765
 20
6.676821104067512
 10
0.0765620948581765
 20
6.646499482341502
 10
0.0765620948581765
 20
6.601017049752486
 10
0.0765620948581765
 20
6.55553461716347
 10
0.0765620948581765
 20
6.52521299543746
 10
0.0765620948581765
 20
6.510052184574455
 10
0.0765620948581765
 20
6.479730562848444
 10
0.0765620948581765
 20
6.449408941122434
 10
0.0765620948581765
 20
6.419087319396423
  0
LWPOLYLINE
  5
399
100
AcDbEntity
  8
USP-GEO
100
AcDbPolyline
 90
        2
 70
   129
 43
0.0
 10
0.0765620948581765
 20
5.933941371780255
 10
0.0765620948581765
 20
5.887700898648089
  0
LWPOLYLINE
  5
39A
100
AcDbEntity
  8
USP-GEO
100
AcDbPolyline
 90
       12
 70
   129
 43
0.0
 10
0.0765620948581765
 20
6.676821104067512
 10
0.0765620948581765
 20
6.646499482341502
 10
0.0765620948581765
 20
6.601017049752486
 10
0.0765620948581765
 20
6.55553461716347
 10
0.0765620948581765
 20
6.52521299543746
 10
0.0765620948581765
 20
6.510052184574455
 10
0.0765620948581765
 20
6.52521299543746
 10
0.0765620948581765
 20
6.55553461716347
 10
0.0765620948581765
 20
6.601017049752486
 10
0.0765620948581765
 20
6.646499482341502
 10
0.0765620948581765
 20
6.676821104067512
 10
0.0765620948581765
 20
6.691981914930518
  0
LWPOLYLINE
  5
39B
100
AcDbEntity
  8
USP-GEO
100
AcDbPolyline
 90
        2
 70
   128
 43
0.0
 10
0.0765620948581765
 20
6.753383198925689
 10
0.0765620948581765
 20
6.768544009788694
  0
LWPOLYLINE
  5
39C
100
AcDbEntity
  8
USP-GEO
100
AcDbPolyline
 90
        2
 70
   128
 43
0.0
 10
0.0765620948581765
 20
5.933941371780255
 10
0.0765620948581765
 20
5.887700898648089
  0
LWPOLYLINE
  5
39D
100
AcDbEntity
  8
USP-GEO
100
AcDbPolyline
 90
        2
 70
   128
 43
0.0
 10
0.0
 20
6.691981914930518
 10
0.0
 20
6.676821104067512
  0
LWPOLYLINE
  5
39E
100
AcDbEntity
  8
USP-GEO
100
AcDbPolyline
 90
       10
 70
   128
 43
0.0
 10
0.0
 20
6.52521299543746
 10
0.0
 20
6.55553461716347
 10
0.0
 20
6.601017049752486
 10
0.0
 20
6.646499482341502
 10
0.0
 20
6.676821104067512
 10
0.0
 20
6.646499482341502
 10
0.0
 20
6.601017049752486
 10
0.0
 20
6.55553461716347
 10
0.0
 20
6.52521299543746
 10
0.0
 20
6.510052184574455
  0
LWPOLYLINE
  5
39F
100
AcDbEntity
  8
USP-GEO
100
AcDbPolyline
 90
        2
 70
   128
 43
0.0
 10
0.0
 20
6.676821104067512
 10
0.0
 20
6.691981914930518
  0
LWPOLYLINE
  5
3A0
100
AcDbEntity
  8
USP-GEO
100
AcDbPolyline
 90
        2
 70
   129
 43
0.0
 10
0.0007580405431504
 20
6.055227858684297
 10
0.0
 20
6.055227858684297
  0
LWPOLYLINE
  5
3A1
100
AcDbEntity
  8
USP-GEO
100
AcDbPolyline
 90
        2
 70
   129
 43
0.0
 10
0.0
 20
5.933941371780255
 10
0.0
 20
5.887700898648089
  0
LWPOLYLINE
  5
3A2
100
AcDbEntity
  8
USP-GEO
100
AcDbPolyline
 90
        4
 70
   128
 43
0.0
 10
0.0
 20
6.055227858684297
 10
0.0
 20
6.024906236958287
 10
0.0
 20
5.97942380436927
 10
0.0
 20
5.933941371780255
  0
LWPOLYLINE
  5
3A3
100
AcDbEntity
  8
USP-GEO
100
AcDbPolyline
 90
        2
 70
   129
 43
0.0
 10
0.0
 20
6.768544009788694
 10
0.0
 20
6.753383198925689
  0
LWPOLYLINE
  5
3A4
100
AcDbEntity
  8
USP-GEO
100
AcDbPolyline
 90
        4
 70
   128
 43
0.0
 10
0.0
 20
6.055227858684297
 10
0.0
 20
6.024906236958287
 10
0.0
 20
5.97942380436927
 10
0.0
 20
5.933941371780255
  0
LWPOLYLINE
  5
3A5
100
AcDbEntity
  8
USP-GEO
100
AcDbPolyline
 90
        8
 70
   128
 43
0.0
 10
0.0
 20
6.691981914930518
 10
0.0
 20
6.676821104067512
 10
0.0
 20
6.646499482341502
 10
0.0
 20
6.601017049752486
 10
0.0
 20
6.55553461716347
 10
0.0
 20
6.52521299543746
 10
0.0
 20
6.510052184574455
 10
0.0
 20
6.52521299543746
  0
LWPOLYLINE
  5
3A6
100
AcDbEntity
  8
USP-GEO
100
AcDbPolyline
 90
        5
 70
   128
 43
0.0
 10
0.0
 20
6.085549480410307
 10
0.0765620948581765
 20
6.085549480410307
 10
0.0765620948581765
 20
6.115871102136317
 10
0.0765620948581765
 20
6.146192723862329
 10
0.0765620948581765
 20
6.176514345588339
  0
LWPOLYLINE
  5
3A7
100
AcDbEntity
  8
USP-GEO
100
AcDbPolyline
 90
        7
 70
   128
 43
0.0
 10
0.0
 20
6.510052184574455
 10
0.0
 20
6.479730562848444
 10
0.0
 20
6.449408941122434
 10
0.0
 20
6.419087319396423
 10
0.0
 20
6.176514345588339
 10
0.0765620948581765
 20
6.176514345588339
 10
0.0765620948581765
 20
6.419087319396423
  0
LWPOLYLINE
  5
3A8
100
AcDbEntity
  8
USP-GEO
100
AcDbPolyline
 90
       14
 70
   129
 43
0.0
 10
0.0
 20
6.52521299543746
 10
0.0
 20
6.510052184574455
 10
0.0765620948581765
 20
6.510052184574455
 10
0.0765620948581765
 20
6.52521299543746
 10
0.0765620948581765
 20
6.55553461716347
 10
0.0765620948581765
 20
6.601017049752486
 10
0.0765620948581765
 20
6.646499482341502
 10
0.0765620948581765
 20
6.676821104067512
 10
0.0765620948581765
 20
6.691981914930518
 10
0.0
 20
6.691981914930518
 10
0.0
 20
6.676821104067512
 10
0.0
 20
6.646499482341502
 10
0.0
 20
6.601017049752486
 10
0.0
 20
6.55553461716347
  0
LWPOLYLINE
  5
3A9
100
AcDbEntity
  8
USP-GEO
100
AcDbPolyline
 90
        6
 70
   128
 43
0.0
 10
0.0765620948581765
 20
5.887700898648089
 10
0.0765620948581765
 20
5.933941371780255
 10
0.0765620948581765
 20
5.97942380436927
 10
0.0765620948581765
 20
6.024906236958287
 10
0.0765620948581765
 20
6.055227858684297
 10
0.0
 20
6.055227858684297
  0
LWPOLYLINE
  5
3AA
100
AcDbEntity
  8
USP-GEO
100
AcDbPolyline
 90
        9
 70
   128
 43
0.0
 10
0.0007580405431504
 20
6.055227858684297
 10
0.0
 20
6.055227858684297
 10
0.0
 20
6.024906236958287
 10
0.0
 20
5.97942380436927
 10
0.0
 20
5.933941371780255
 10
0.0
 20
5.887700898648089
 10
0.0
 20
5.933941371780255
 10
0.0
 20
5.97942380436927
 10
0.0
 20
6.024906236958287
  0
LWPOLYLINE
  5
3AB
100
AcDbEntity
  8
USP-GEO
100
AcDbPolyline
 90
        2
 70
   128
 43
0.0
 10
0.4100999338442924
 20
6.783704820651699
 10
0.3191350686662604
 20
6.768544009788694
  0
LWPOLYLINE
  5
3AC
100
AcDbEntity
  8
USP-GEO
100
AcDbPolyline
 90
        7
 70
   128
 43
0.0
 10
0.0
 20
6.84434806410372
 10
0.0
 20
6.889830496692736
 10
0.0
 20
6.920152118418746
 10
0.0
 20
6.935312929281752
 10
0.0
 20
6.920152118418746
 10
0.0
 20
6.889830496692736
 10
0.0
 20
6.84434806410372
  0
LWPOLYLINE
  5
3AD
100
AcDbEntity
  8
USP-GEO
100
AcDbPolyline
 90
        2
 70
   128
 43
0.0
 10
0.0
 20
6.889830496692736
 10
0.0
 20
6.904991307555741
  0
LWPOLYLINE
  5
3AE
100
AcDbEntity
  8
USP-GEO
100
AcDbPolyline
 90
        6
 70
   129
 43
0.0
 10
0.0
 20
7.026277794459783
 10
0.0
 20
6.980795361870767
 10
0.0
 20
6.935312929281752
 10
0.0
 20
6.904991307555741
 10
0.0
 20
6.935312929281752
 10
0.0
 20
6.980795361870767
  0
LWPOLYLINE
  5
3AF
100
AcDbEntity
  8
USP-GEO
100
AcDbPolyline
 90
        4
 70
   129
 43
0.0
 10
0.0
 20
7.026277794459783
 10
0.0
 20
7.056599416185794
 10
0.0
 20
7.071760227048799
 10
0.0
 20
7.041438605322788
  0
LWPOLYLINE
  5
3B0
100
AcDbEntity
  8
USP-GEO
100
AcDbPolyline
 90
        2
 70
   128
 43
0.0
 10
0.0
 20
7.056599416185794
 10
0.0
 20
7.071760227048799
  0
LWPOLYLINE
  5
3B1
100
AcDbEntity
  8
USP-GEO
100
AcDbPolyline
 90
        2
 70
   128
 43
0.0
 10
0.0
 20
6.904991307555741
 10
0.0
 20
6.889830496692736
  0
LWPOLYLINE
  5
3B2
100
AcDbEntity
  8
USP-GEO
100
AcDbPolyline
 90
        4
 70
   129
 43
0.0
 10
0.0765620948581765
 20
6.935312929281752
 10
0.0765620948581765
 20
6.904991307555741
 10
0.0765620948581765
 20
6.889830496692736
 10
0.0765620948581765
 20
6.904991307555741
  0
LWPOLYLINE
  5
3B3
100
AcDbEntity
  8
USP-GEO
100
AcDbPolyline
 90
        7
 70
   128
 43
0.0
 10
0.0765620948581765
 20
6.980795361870767
 10
0.0765620948581765
 20
7.026277794459783
 10
0.0765620948581765
 20
7.056599416185794
 10
0.0765620948581765
 20
7.071760227048799
 10
0.0765620948581765
 20
7.056599416185794
 10
0.0765620948581765
 20
7.026277794459783
 10
0.0765620948581765
 20
6.980795361870767
  0
LWPOLYLINE
  5
3B4
100
AcDbEntity
  8
USP-GEO
100
AcDbPolyline
 90
        2
 70
   129
 43
0.0
 10
0.0765620948581765
 20
6.935312929281752
 10
0.0765620948581765
 20
6.980795361870767
  0
LWPOLYLINE
  5
3B5
100
AcDbEntity
  8
USP-GEO
100
AcDbPolyline
 90
        6
 70
   129
 43
0.0
 10
0.0765620948581765
 20
6.84434806410372
 10
0.0765620948581765
 20
6.889830496692736
 10
0.0765620948581765
 20
6.920152118418746
 10
0.0765620948581765
 20
6.935312929281752
 10
0.0765620948581765
 20
6.920152118418746
 10
0.0765620948581765
 20
6.889830496692736
  0
LWPOLYLINE
  5
3B6
100
AcDbEntity
  8
USP-GEO
100
AcDbPolyline
 90
        2
 70
   129
 43
0.0
 10
0.0765620948581765
 20
7.071760227048799
 10
0.0765620948581765
 20
7.056599416185794
  0
LWPOLYLINE
  5
3B7
100
AcDbEntity
  8
USP-GEO
100
AcDbPolyline
 90
       10
 70
   129
 43
0.0
 10
0.0765620948581765
 20
7.026277794459783
 10
0.0765620948581765
 20
6.980795361870767
 10
0.0765620948581765
 20
6.935312929281752
 10
0.0765620948581765
 20
6.904991307555741
 10
0.0765620948581765
 20
6.889830496692736
 10
0.0765620948581765
 20
6.904991307555741
 10
0.0765620948581765
 20
6.935312929281752
 10
0.0765620948581765
 20
6.980795361870767
 10
0.0765620948581765
 20
7.026277794459783
 10
0.0765620948581765
 20
7.056599416185794
  0
LWPOLYLINE
  5
3B8
100
AcDbEntity
  8
USP-GEO
100
AcDbPolyline
 90
        4
 70
   129
 43
0.0
 10
0.0765620948581765
 20
6.889830496692736
 10
0.0765620948581765
 20
6.920152118418746
 10
0.0765620948581765
 20
6.935312929281752
 10
0.0765620948581765
 20
6.920152118418746
  0
LWPOLYLINE
  5
3B9
100
AcDbEntity
  8
USP-GEO
100
AcDbPolyline
 90
        5
 70
   128
 43
0.0
 10
0.0
 20
7.238529146541857
 10
0.0
 20
7.071760227048799
 10
0.0
 20
7.041438605322788
 10
0.0
 20
7.026277794459783
 10
0.0
 20
7.056599416185794
  0
LWPOLYLINE
  5
3BA
100
AcDbEntity
  8
USP-GEO
100
AcDbPolyline
 90
        2
 70
   129
 43
0.0
 10
0.0
 20
6.935312929281752
 10
0.0
 20
6.920152118418746
  0
LWPOLYLINE
  5
3BB
100
AcDbEntity
  8
USP-GEO
100
AcDbPolyline
 90
       14
 70
   128
 43
0.0
 10
0.0
 20
7.071760227048799
 10
0.0
 20
7.056599416185794
 10
0.0
 20
7.026277794459783
 10
0.0
 20
6.980795361870767
 10
0.0
 20
6.935312929281752
 10
0.0
 20
6.904991307555741
 10
0.0
 20
6.889830496692736
 10
0.0
 20
6.904991307555741
 10
0.0
 20
6.935312929281752
 10
0.0
 20
6.980795361870767
 10
0.0
 20
7.026277794459783
 10
0.0
 20
7.056599416185794
 10
0.0
 20
7.071760227048799
 10
0.0
 20
7.056599416185794
  0
LWPOLYLINE
  5
3BC
100
AcDbEntity
  8
USP-GEO
100
AcDbPolyline
 90
        5
 70
   128
 43
0.0
 10
0.0765620948581765
 20
7.071760227048799
 10
0.0765620948581765
 20
7.041438605322788
 10
0.0765620948581765
 20
7.026277794459783
 10
0.0765620948581765
 20
6.995956172733773
 10
0.0
 20
6.995956172733773
  0
LWPOLYLINE
  5
3BD
100
AcDbEntity
  8
USP-GEO
100
AcDbPolyline
 90
        4
 70
   129
 43
0.0
 10
0.0765620948581765
 20
7.071760227048799
 10
0.0765620948581765
 20
7.238529146541857
 10
0.0
 20
7.238529146541857
 10
0.0
 20
7.071760227048799
  0
LWPOLYLINE
  5
3BE
100
AcDbEntity
  8
USP-GEO
100
AcDbPolyline
 90
        3
 70
   128
 43
0.0
 10
0.0765620948581765
 20
6.889830496692736
 10
0.0765620948581765
 20
6.904991307555741
 10
0.0765620948581765
 20
6.935312929281752
  0
LWPOLYLINE
  5
3BF
100
AcDbEntity
  8
USP-GEO
100
AcDbPolyline
 90
        2
 70
   128
 43
0.0
 10
0.3191350686662604
 20
7.071760227048799
 10
0.4100999338442924
 20
7.056599416185794
  0
LWPOLYLINE
  5
3C0
100
AcDbEntity
  8
USP-GEO
100
AcDbPolyline
 90
       12
 70
   129
 43
0.0
 10
0.8346026380084392
 20
6.81402644237771
 10
0.8042810162824283
 20
6.783704820651699
 10
0.7587985836934124
 20
6.768544009788694
 10
0.7133161511043973
 20
6.783704820651699
 10
0.6829945293783864
 20
6.81402644237771
 10
0.6678337185153814
 20
6.859508874966725
 10
0.6829945293783864
 20
6.904991307555741
 10
0.7133161511043973
 20
6.935312929281752
 10
0.7587985836934124
 20
6.950473740144757
 10
0.8042810162824283
 20
6.935312929281752
 10
0.8346026380084392
 20
6.904991307555741
 10
0.8497634488714442
 20
6.859508874966725
  0
LWPOLYLINE
  5
3C1
100
AcDbEntity
  8
USP-GEO
100
AcDbPolyline
 90
       12
 70
   128
 43
0.0
 10
0.6829945293783864
 20
5.144821166360831
 10
0.7133161511043973
 20
5.190303598949848
 10
0.7587985836934124
 20
5.190303598949848
 10
0.8042810162824283
 20
5.190303598949848
 10
0.8346026380084392
 20
5.144821166360831
 10
0.8497634488714442
 20
5.099338733771816
 10
0.8346026380084392
 20
5.05309826063965
 10
0.8042810162824283
 20
5.022776638913638
 10
0.7587985836934124
 20
5.022776638913638
 10
0.7133161511043973
 20
5.022776638913638
 10
0.6829945293783864
 20
5.05309826063965
 10
0.6678337185153814
 20
5.099338733771816
  0
LWPOLYLINE
  5
3C2
100
AcDbEntity
  8
USP-GEO
100
AcDbPolyline
 90
       12
 70
   128
 43
0.0
 10
0.8042810162824283
 20
6.52521299543746
 10
0.7587985836934124
 20
6.510052184574455
 10
0.7133161511043973
 20
6.52521299543746
 10
0.6829945293783864
 20
6.55553461716347
 10
0.6678337185153814
 20
6.601017049752486
 10
0.6829945293783864
 20
6.646499482341502
 10
0.7133161511043973
 20
6.691981914930518
 10
0.7587985836934124
 20
6.691981914930518
 10
0.8042810162824283
 20
6.691981914930518
 10
0.8346026380084392
 20
6.646499482341502
 10
0.8497634488714442
 20
6.601017049752486
 10
0.8346026380084392
 20
6.55553461716347
  0
LWPOLYLINE
  5
3C3
100
AcDbEntity
  8
USP-GEO
100
AcDbPolyline
 90
        3
 70
   128
 43
0.0
 10
0.7133161511043973
 20
6.783704820651699
 10
0.7587985836934124
 20
6.768544009788694
 10
0.7133161511043973
 20
6.783704820651699
  0
LWPOLYLINE
  5
3C4
100
AcDbEntity
  8
USP-GEO
100
AcDbPolyline
 90
        2
 70
   128
 43
0.0
 10
0.6678337185153814
 20
5.099338733771816
 10
0.6829945293783864
 20
5.144821166360831
  0
LWPOLYLINE
  5
3C5
100
AcDbEntity
  8
USP-GEO
100
AcDbPolyline
 90
        3
 70
   128
 43
0.0
 10
0.8042810162824283
 20
5.190303598949848
 10
0.7587985836934124
 20
5.190303598949848
 10
0.8042810162824283
 20
5.190303598949848
  0
LWPOLYLINE
  5
3C6
100
AcDbEntity
  8
USP-GEO
100
AcDbPolyline
 90
        3
 70
   128
 43
0.0
 10
0.8042810162824283
 20
5.022776638913638
 10
0.7587985836934124
 20
5.022776638913638
 10
0.8042810162824283
 20
5.022776638913638
  0
LWPOLYLINE
  5
3C7
100
AcDbEntity
  8
USP-GEO
100
AcDbPolyline
 90
        3
 70
   128
 43
0.0
 10
1.077175611816523
 20
5.175142788086843
 10
1.077175611816523
 20
5.205464409812853
 10
1.077175611816523
 20
5.175142788086843
  0
LWPOLYLINE
  5
3C8
100
AcDbEntity
  8
USP-GEO
100
AcDbPolyline
 90
        2
 70
   129
 43
0.0
 10
1.077175611816523
 20
5.508680627072957
 10
1.077175611816523
 20
5.205464409812853
  0
LWPOLYLINE
  5
3C9
100
AcDbEntity
  8
USP-GEO
100
AcDbPolyline
 90
        2
 70
   129
 43
0.0
 10
1.077175611816523
 20
5.205464409812853
 10
1.077175611816523
 20
5.508680627072957
  0
LWPOLYLINE
  5
3CA
100
AcDbEntity
  8
USP-GEO
100
AcDbPolyline
 90
        2
 70
   128
 43
0.0
 10
0.8346026380084392
 20
6.55553461716347
 10
0.8042810162824283
 20
6.52521299543746
  0
LWPOLYLINE
  5
3CB
100
AcDbEntity
  8
USP-GEO
100
AcDbPolyline
 90
        3
 70
   128
 43
0.0
 10
0.7587985836934124
 20
6.768544009788694
 10
0.8042810162824283
 20
6.783704820651699
 10
0.7587985836934124
 20
6.768544009788694
  0
LWPOLYLINE
  5
3CC
100
AcDbEntity
  8
USP-GEO
100
AcDbPolyline
 90
        3
 70
   128
 43
0.0
 10
1.077175611816523
 20
7.041438605322788
 10
1.077175611816523
 20
7.071760227048799
 10
1.077175611816523
 20
7.041438605322788
  0
LWPOLYLINE
  5
3CD
100
AcDbEntity
  8
USP-GEO
100
AcDbPolyline
 90
        2
 70
   129
 43
0.0
 10
1.077175611816523
 20
7.071760227048799
 10
1.077175611816523
 20
7.238529146541857
  0
LWPOLYLINE
  5
3CE
100
AcDbEntity
  8
USP-GEO
100
AcDbPolyline
 90
        2
 70
   129
 43
0.0
 10
1.077175611816523
 20
7.071760227048799
 10
1.077175611816523
 20
7.238529146541857
  0
LWPOLYLINE
  5
3CF
100
AcDbEntity
  8
USP-GEO
100
AcDbPolyline
 90
        2
 70
   129
 43
0.0
 10
1.107497233542533
 20
5.114499544634821
 10
1.547918789112836
 20
4.628595556475502
  0
LWPOLYLINE
  5
3D0
100
AcDbEntity
  8
USP-GEO
100
AcDbPolyline
 90
        6
 70
   128
 43
0.0
 10
1.578240410838846
 20
2.473486292299305
 10
1.578240410838846
 20
4.53763069129747
 10
1.578240410838846
 20
4.567952313023482
 10
1.563079599975841
 20
4.598273934749492
 10
1.547918789112836
 20
4.628595556475502
 10
1.107497233542533
 20
5.114499544634821
  0
LWPOLYLINE
  5
3D1
100
AcDbEntity
  8
USP-GEO
100
AcDbPolyline
 90
        2
 70
   129
 43
0.0
 10
1.547918789112836
 20
4.628595556475502
 10
1.107497233542533
 20
5.114499544634821
  0
LWPOLYLINE
  5
3D2
100
AcDbEntity
  8
USP-GEO
100
AcDbPolyline
 90
        2
 70
   128
 43
0.0
 10
1.259105342172586
 20
2.762299739239557
 10
1.21362290958357
 20
2.777460550102562
  0
LWPOLYLINE
  5
3D3
100
AcDbEntity
  8
USP-GEO
100
AcDbPolyline
 90
        7
 70
   128
 43
0.0
 10
1.259105342172586
 20
2.944229469595619
 10
1.305345815304752
 20
2.929068658732614
 10
1.335667437030762
 20
2.898747037006604
 10
1.350828247893767
 20
2.853264604417587
 10
1.335667437030762
 20
2.807782171828572
 10
1.305345815304752
 20
2.777460550102562
 10
1.259105342172586
 20
2.762299739239557
  0
LWPOLYLINE
  5
3D4
100
AcDbEntity
  8
USP-GEO
100
AcDbPolyline
 90
        2
 70
   129
 43
0.0
 10
1.578240410838846
 20
4.53763069129747
 10
1.578240410838846
 20
2.473486292299305
  0
LWPOLYLINE
  5
3D5
100
AcDbEntity
  8
USP-GEO
100
AcDbPolyline
 90
        2
 70
   129
 43
0.0
 10
1.578240410838846
 20
2.473486292299305
 10
1.578240410838846
 20
4.53763069129747
  0
LWPOLYLINE
  5
3D6
100
AcDbEntity
  8
USP-GEO
100
AcDbPolyline
 90
        2
 70
   128
 43
0.0
 10
1.21362290958357
 20
1.184059328400708
 10
1.259105342172586
 20
1.199220139263715
  0
LWPOLYLINE
  5
3D7
100
AcDbEntity
  8
USP-GEO
100
AcDbPolyline
 90
       12
 70
   128
 43
0.0
 10
1.259105342172586
 20
1.199220139263715
 10
1.305345815304752
 20
1.184059328400708
 10
1.335667437030762
 20
1.153737706674698
 10
1.350828247893767
 20
1.108255274085683
 10
1.335667437030762
 20
1.062014800953516
 10
1.305345815304752
 20
1.016532368364501
 10
1.259105342172586
 20
1.016532368364501
 10
1.21362290958357
 20
1.016532368364501
 10
1.18330128785756
 20
1.062014800953516
 10
1.168140476994554
 20
1.108255274085683
 10
1.18330128785756
 20
1.153737706674698
 10
1.21362290958357
 20
1.184059328400708
  0
LWPOLYLINE
  5
3D8
100
AcDbEntity
  8
USP-GEO
100
AcDbPolyline
 90
       10
 70
   128
 43
0.0
 10
1.259105342172586
 20
0.7587985836934124
 10
1.21362290958357
 20
0.7739593945564174
 10
1.18330128785756
 20
0.8042810162824274
 10
1.168140476994554
 20
0.8497634488714442
 10
1.18330128785756
 20
0.8952458814604593
 10
1.21362290958357
 20
0.9255675031864694
 10
1.259105342172586
 20
0.9407283140494744
 10
1.305345815304752
 20
0.9255675031864694
 10
1.335667437030762
 20
0.8952458814604593
 10
1.350828247893767
 20
0.8497634488714442
  0
LWPOLYLINE
  5
3D9
100
AcDbEntity
  8
USP-GEO
100
AcDbPolyline
 90
        2
 70
   128
 43
0.0
 10
1.305345815304752
 20
0.7739593945564174
 10
1.259105342172586
 20
0.7587985836934124
  0
LWPOLYLINE
  5
3DA
100
AcDbEntity
  8
USP-GEO
100
AcDbPolyline
 90
        2
 70
   128
 43
0.0
 10
1.350828247893767
 20
0.8497634488714442
 10
1.335667437030762
 20
0.8042810162824274
  0
LWPOLYLINE
  5
3DB
100
AcDbEntity
  8
USP-GEO
100
AcDbPolyline
 90
        2
 70
   128
 43
0.0
 10
1.335667437030762
 20
0.8042810162824274
 10
1.305345815304752
 20
0.7739593945564174
  0
LWPOLYLINE
  5
3DC
100
AcDbEntity
  8
USP-GEO
100
AcDbPolyline
 90
       12
 70
   129
 43
0.0
 10
1.335667437030762
 20
2.564451157477337
 10
1.305345815304752
 20
2.518968724888322
 10
1.259105342172586
 20
2.518968724888322
 10
1.21362290958357
 20
2.518968724888322
 10
1.18330128785756
 20
2.564451157477337
 10
1.168140476994554
 20
2.609933590066352
 10
1.18330128785756
 20
2.655416022655369
 10
1.21362290958357
 20
2.68649568492453
 10
1.259105342172586
 20
2.68649568492453
 10
1.305345815304752
 20
2.68649568492453
 10
1.335667437030762
 20
2.655416022655369
 10
1.350828247893767
 20
2.609933590066352
  0
LWPOLYLINE
  5
3DD
100
AcDbEntity
  8
USP-GEO
100
AcDbPolyline
 90
        2
 70
   128
 43
0.0
 10
1.593401221701851
 20
2.306717372806248
 10
1.578240410838846
 20
2.473486292299305
  0
LWPOLYLINE
  5
3DE
100
AcDbEntity
  8
USP-GEO
100
AcDbPolyline
 90
        3
 70
   128
 43
0.0
 10
1.593401221701851
 20
2.306717372806248
 10
1.578240410838846
 20
2.473486292299305
 10
1.593401221701851
 20
2.306717372806248
  0
LWPOLYLINE
  5
3DF
100
AcDbEntity
  8
USP-GEO
100
AcDbPolyline
 90
        2
 70
   128
 43
0.0
 10
1.654044465153872
 20
2.13994845331319
 10
1.593401221701851
 20
2.306717372806248
  0
LWPOLYLINE
  5
3E0
100
AcDbEntity
  8
USP-GEO
100
AcDbPolyline
 90
        2
 70
   128
 43
0.0
 10
1.21362290958357
 20
2.929068658732614
 10
1.259105342172586
 20
2.944229469595619
  0
LWPOLYLINE
  5
3E1
100
AcDbEntity
  8
USP-GEO
100
AcDbPolyline
 90
        2
 70
   128
 43
0.0
 10
1.18330128785756
 20
2.807782171828572
 10
1.168140476994554
 20
2.853264604417587
  0
LWPOLYLINE
  5
3E2
100
AcDbEntity
  8
USP-GEO
100
AcDbPolyline
 90
        2
 70
   128
 43
0.0
 10
1.21362290958357
 20
2.777460550102562
 10
1.18330128785756
 20
2.807782171828572
  0
LWPOLYLINE
  5
3E3
100
AcDbEntity
  8
USP-GEO
100
AcDbPolyline
 90
        3
 70
   128
 43
0.0
 10
1.168140476994554
 20
2.853264604417587
 10
1.18330128785756
 20
2.898747037006604
 10
1.21362290958357
 20
2.929068658732614
  0
LWPOLYLINE
  5
3E4
100
AcDbEntity
  8
USP-GEO
100
AcDbPolyline
 90
        2
 70
   128
 43
0.0
 10
1.259105342172586
 20
4.522469880434465
 10
1.21362290958357
 20
4.522469880434465
  0
LWPOLYLINE
  5
3E5
100
AcDbEntity
  8
USP-GEO
100
AcDbPolyline
 90
        9
 70
   128
 43
0.0
 10
1.259105342172586
 20
4.522469880434465
 10
1.305345815304752
 20
4.522469880434465
 10
1.335667437030762
 20
4.567952313023482
 10
1.350828247893767
 20
4.598273934749492
 10
1.335667437030762
 20
4.643756367338507
 10
1.305345815304752
 20
4.689238799927524
 10
1.259105342172586
 20
4.689238799927524
 10
1.21362290958357
 20
4.689238799927524
 10
1.18330128785756
 20
4.643756367338507
  0
LWPOLYLINE
  5
3E6
100
AcDbEntity
  8
USP-GEO
100
AcDbPolyline
 90
       12
 70
   129
 43
0.0
 10
1.335667437030762
 20
4.310218528352391
 10
1.305345815304752
 20
4.279138866083231
 10
1.259105342172586
 20
4.263978055220226
 10
1.21362290958357
 20
4.279138866083231
 10
1.18330128785756
 20
4.310218528352391
 10
1.168140476994554
 20
4.355700960941408
 10
1.18330128785756
 20
4.401183393530423
 10
1.21362290958357
 20
4.431505015256433
 10
1.259105342172586
 20
4.44666582611944
 10
1.305345815304752
 20
4.431505015256433
 10
1.335667437030762
 20
4.401183393530423
 10
1.350828247893767
 20
4.355700960941408
  0
LWPOLYLINE
  5
3E7
100
AcDbEntity
  8
USP-GEO
100
AcDbPolyline
 90
        3
 70
   128
 43
0.0
 10
1.21362290958357
 20
4.431505015256433
 10
1.259105342172586
 20
4.44666582611944
 10
1.21362290958357
 20
4.431505015256433
  0
LWPOLYLINE
  5
3E8
100
AcDbEntity
  8
USP-GEO
100
AcDbPolyline
 90
        3
 70
   128
 43
0.0
 10
1.18330128785756
 20
4.567952313023482
 10
1.168140476994554
 20
4.598273934749492
 10
1.18330128785756
 20
4.643756367338507
  0
LWPOLYLINE
  5
3E9
100
AcDbEntity
  8
USP-GEO
100
AcDbPolyline
 90
        2
 70
   128
 43
0.0
 10
1.21362290958357
 20
4.522469880434465
 10
1.18330128785756
 20
4.567952313023482
  0
LWPOLYLINE
  5
3EA
100
AcDbEntity
  8
USP-GEO
100
AcDbPolyline
 90
        3
 70
   128
 43
0.0
 10
1.259105342172586
 20
4.44666582611944
 10
1.305345815304752
 20
4.431505015256433
 10
1.259105342172586
 20
4.44666582611944
  0
LWPOLYLINE
  5
3EB
100
AcDbEntity
  8
USP-GEO
100
AcDbPolyline
 90
        3
 70
   128
 43
0.0
 10
1.578240410838846
 20
4.53763069129747
 10
1.578240410838846
 20
4.567952313023482
 10
1.578240410838846
 20
4.53763069129747
  0
LWPOLYLINE
  5
3EC
100
AcDbEntity
  8
USP-GEO
100
AcDbPolyline
 90
        3
 70
   128
 43
0.0
 10
1.547918789112836
 20
4.628595556475502
 10
1.563079599975841
 20
4.598273934749492
 10
1.547918789112836
 20
4.628595556475502
  0
LWPOLYLINE
  5
3ED
100
AcDbEntity
  8
USP-GEO
100
AcDbPolyline
 90
        2
 70
   129
 43
0.0
 10
1.547918789112836
 20
6.510052184574455
 10
1.107497233542533
 20
6.995956172733773
  0
LWPOLYLINE
  5
3EE
100
AcDbEntity
  8
USP-GEO
100
AcDbPolyline
 90
        2
 70
   129
 43
0.0
 10
1.547918789112836
 20
6.510052184574455
 10
1.107497233542533
 20
6.995956172733773
  0
LWPOLYLINE
  5
3EF
100
AcDbEntity
  8
USP-GEO
100
AcDbPolyline
 90
        6
 70
   128
 43
0.0
 10
1.092336422679528
 20
5.569323870524979
 10
1.107497233542533
 20
5.599645492250989
 10
1.547918789112836
 20
6.085549480410307
 10
1.563079599975841
 20
6.115871102136317
 10
1.578240410838846
 20
6.146192723862329
 10
1.578240410838846
 20
6.176514345588339
  0
LWPOLYLINE
  5
3F0
100
AcDbEntity
  8
USP-GEO
100
AcDbPolyline
 90
        2
 70
   128
 43
0.0
 10
1.547918789112836
 20
6.085549480410307
 10
1.107497233542533
 20
5.599645492250989
  0
LWPOLYLINE
  5
3F1
100
AcDbEntity
  8
USP-GEO
100
AcDbPolyline
 90
        2
 70
   129
 43
0.0
 10
1.547918789112836
 20
6.085549480410307
 10
1.107497233542533
 20
5.599645492250989
  0
LWPOLYLINE
  5
3F2
100
AcDbEntity
  8
USP-GEO
100
AcDbPolyline
 90
        2
 70
   128
 43
0.0
 10
1.547918789112836
 20
6.085549480410307
 10
1.107497233542533
 20
5.599645492250989
  0
LWPOLYLINE
  5
3F3
100
AcDbEntity
  8
USP-GEO
100
AcDbPolyline
 90
        2
 70
   128
 43
0.0
 10
1.107497233542533
 20
5.114499544634821
 10
1.092336422679528
 20
5.144821166360831
  0
LWPOLYLINE
  5
3F4
100
AcDbEntity
  8
USP-GEO
100
AcDbPolyline
 90
        3
 70
   128
 43
0.0
 10
1.092336422679528
 20
5.569323870524979
 10
1.107497233542533
 20
5.599645492250989
 10
1.092336422679528
 20
5.569323870524979
  0
LWPOLYLINE
  5
3F5
100
AcDbEntity
  8
USP-GEO
100
AcDbPolyline
 90
       12
 70
   128
 43
0.0
 10
1.168140476994554
 20
6.358444075944402
 10
1.18330128785756
 20
6.403926508533418
 10
1.21362290958357
 20
6.434248130259428
 10
1.259105342172586
 20
6.449408941122434
 10
1.305345815304752
 20
6.434248130259428
 10
1.335667437030762
 20
6.403926508533418
 10
1.350828247893767
 20
6.358444075944402
 10
1.335667437030762
 20
6.312961643355386
 10
1.305345815304752
 20
6.282640021629376
 10
1.259105342172586
 20
6.267479210766371
 10
1.21362290958357
 20
6.282640021629376
 10
1.18330128785756
 20
6.312961643355386
  0
LWPOLYLINE
  5
3F6
100
AcDbEntity
  8
USP-GEO
100
AcDbPolyline
 90
        3
 70
   128
 43
0.0
 10
1.21362290958357
 20
6.282640021629376
 10
1.259105342172586
 20
6.267479210766371
 10
1.21362290958357
 20
6.282640021629376
  0
LWPOLYLINE
  5
3F7
100
AcDbEntity
  8
USP-GEO
100
AcDbPolyline
 90
       15
 70
   129
 43
0.0
 10
1.305345815304752
 20
6.191675156451344
 10
1.335667437030762
 20
6.146192723862329
 10
1.350828247893767
 20
6.100710291273312
 10
1.335667437030762
 20
6.055227858684297
 10
1.305345815304752
 20
6.024906236958287
 10
1.259105342172586
 20
6.009745426095282
 10
1.305345815304752
 20
6.024906236958287
 10
1.305345815304752
 20
6.024906236958287
 10
1.259105342172586
 20
6.009745426095282
 10
1.21362290958357
 20
6.024906236958287
 10
1.18330128785756
 20
6.055227858684297
 10
1.168140476994554
 20
6.100710291273312
 10
1.18330128785756
 20
6.146192723862329
 10
1.21362290958357
 20
6.191675156451344
 10
1.259105342172586
 20
6.191675156451344
  0
LWPOLYLINE
  5
3F8
100
AcDbEntity
  8
USP-GEO
100
AcDbPolyline
 90
        2
 70
   128
 43
0.0
 10
1.18330128785756
 20
6.312961643355386
 10
1.168140476994554
 20
6.358444075944402
  0
LWPOLYLINE
  5
3F9
100
AcDbEntity
  8
USP-GEO
100
AcDbPolyline
 90
        3
 70
   128
 43
0.0
 10
1.259105342172586
 20
6.267479210766371
 10
1.305345815304752
 20
6.282640021629376
 10
1.259105342172586
 20
6.267479210766371
  0
LWPOLYLINE
  5
3FA
100
AcDbEntity
  8
USP-GEO
100
AcDbPolyline
 90
        2
 70
   128
 43
0.0
 10
1.578240410838846
 20
6.176514345588339
 10
1.578240410838846
 20
6.419087319396423
  0
LWPOLYLINE
  5
3FB
100
AcDbEntity
  8
USP-GEO
100
AcDbPolyline
 90
        3
 70
   128
 43
0.0
 10
1.578240410838846
 20
6.146192723862329
 10
1.578240410838846
 20
6.176514345588339
 10
1.578240410838846
 20
6.146192723862329
  0
LWPOLYLINE
  5
3FC
100
AcDbEntity
  8
USP-GEO
100
AcDbPolyline
 90
        2
 70
   129
 43
0.0
 10
1.578240410838846
 20
6.176514345588339
 10
1.578240410838846
 20
6.419087319396423
  0
LWPOLYLINE
  5
3FD
100
AcDbEntity
  8
USP-GEO
100
AcDbPolyline
 90
        3
 70
   128
 43
0.0
 10
1.563079599975841
 20
6.479730562848444
 10
1.547918789112836
 20
6.510052184574455
 10
1.563079599975841
 20
6.479730562848444
  0
LWPOLYLINE
  5
3FE
100
AcDbEntity
  8
USP-GEO
100
AcDbPolyline
 90
        3
 70
   128
 43
0.0
 10
1.578240410838846
 20
6.449408941122434
 10
1.578240410838846
 20
6.419087319396423
 10
1.578240410838846
 20
6.449408941122434
  0
LWPOLYLINE
  5
3FF
100
AcDbEntity
  8
USP-GEO
100
AcDbPolyline
 90
        2
 70
   129
 43
0.0
 10
1.578240410838846
 20
6.176514345588339
 10
1.578240410838846
 20
6.419087319396423
  0
LWPOLYLINE
  5
400
100
AcDbEntity
  8
USP-GEO
100
AcDbPolyline
 90
        3
 70
   128
 43
0.0
 10
1.563079599975841
 20
6.115871102136317
 10
1.547918789112836
 20
6.085549480410307
 10
1.563079599975841
 20
6.115871102136317
  0
LWPOLYLINE
  5
401
100
AcDbEntity
  8
USP-GEO
100
AcDbPolyline
 90
        3
 70
   128
 43
0.0
 10
1.578240410838846
 20
6.176514345588339
 10
1.578240410838846
 20
6.146192723862329
 10
1.578240410838846
 20
6.176514345588339
  0
LWPOLYLINE
  5
402
100
AcDbEntity
  8
USP-GEO
100
AcDbPolyline
 90
        3
 70
   128
 43
0.0
 10
1.092336422679528
 20
7.026277794459783
 10
1.107497233542533
 20
6.995956172733773
 10
1.092336422679528
 20
7.026277794459783
  0
LWPOLYLINE
  5
403
100
AcDbEntity
  8
USP-GEO
100
AcDbPolyline
 90
        2
 70
   129
 43
0.0
 10
3.201205213723558
 20
0.2122513520820721
 10
3.201205213723558
 20
0.0
  0
LWPOLYLINE
  5
404
100
AcDbEntity
  8
USP-GEO
100
AcDbPolyline
 90
        2
 70
   129
 43
0.0
 10
3.110240348545526
 20
0.0
 10
3.110240348545526
 20
0.0758040543150251
  0
LWPOLYLINE
  5
405
100
AcDbEntity
  8
USP-GEO
100
AcDbPolyline
 90
        2
 70
   129
 43
0.0
 10
3.201205213723558
 20
0.0
 10
3.201205213723558
 20
0.0758040543150251
  0
LWPOLYLINE
  5
406
100
AcDbEntity
  8
USP-GEO
100
AcDbPolyline
 90
        2
 70
   129
 43
0.0
 10
3.110240348545526
 20
0.0
 10
3.110240348545526
 20
0.0758040543150251
  0
LWPOLYLINE
  5
407
100
AcDbEntity
  8
USP-GEO
100
AcDbPolyline
 90
        8
 70
   129
 43
0.0
 10
3.201205213723558
 20
0.0
 10
3.201205213723558
 20
0.0758040543150251
 10
3.155722781134543
 20
0.0758040543150251
 10
3.125401159408533
 20
0.0758040543150251
 10
3.110240348545526
 20
0.0758040543150251
 10
3.110240348545526
 20
0.0
 10
3.125401159408533
 20
0.0
 10
3.155722781134543
 20
0.0
  0
LWPOLYLINE
  5
408
100
AcDbEntity
  8
USP-GEO
100
AcDbPolyline
 90
        4
 70
   128
 43
0.0
 10
3.201205213723558
 20
0.0
 10
3.201205213723558
 20
0.2122513520820721
 10
3.201205213723558
 20
0.0758040543150251
 10
3.201205213723558
 20
0.0
  0
LWPOLYLINE
  5
409
100
AcDbEntity
  8
USP-GEO
100
AcDbPolyline
 90
        3
 70
   128
 43
0.0
 10
3.186044402860553
 20
0.2736526360772444
 10
3.170883591997548
 20
0.3039742578032545
 10
3.186044402860553
 20
0.2736526360772444
  0
LWPOLYLINE
  5
40A
100
AcDbEntity
  8
USP-GEO
100
AcDbPolyline
 90
        5
 70
   128
 43
0.0
 10
3.110240348545526
 20
0.0758040543150251
 10
3.125401159408533
 20
0.0758040543150251
 10
3.110240348545526
 20
0.0758040543150251
 10
3.125401159408533
 20
0.0758040543150251
 10
3.110240348545526
 20
0.0758040543150251
  0
LWPOLYLINE
  5
40B
100
AcDbEntity
  8
USP-GEO
100
AcDbPolyline
 90
        5
 70
   128
 43
0.0
 10
3.155722781134543
 20
0.0758040543150251
 10
3.125401159408533
 20
0.0758040543150251
 10
3.155722781134543
 20
0.0758040543150251
 10
3.125401159408533
 20
0.0758040543150251
 10
3.155722781134543
 20
0.0758040543150251
  0
LWPOLYLINE
  5
40C
100
AcDbEntity
  8
USP-GEO
100
AcDbPolyline
 90
        5
 70
   128
 43
0.0
 10
3.201205213723558
 20
0.0758040543150251
 10
3.155722781134543
 20
0.0758040543150251
 10
3.201205213723558
 20
0.0758040543150251
 10
3.155722781134543
 20
0.0758040543150251
 10
3.201205213723558
 20
0.0758040543150251
  0
LWPOLYLINE
  5
40D
100
AcDbEntity
  8
USP-GEO
100
AcDbPolyline
 90
        4
 70
   128
 43
0.0
 10
3.201205213723558
 20
0.2122513520820721
 10
3.201205213723558
 20
0.0758040543150251
 10
3.201205213723558
 20
0.0
 10
3.201205213723558
 20
0.2122513520820721
  0
LWPOLYLINE
  5
40E
100
AcDbEntity
  8
USP-GEO
100
AcDbPolyline
 90
        5
 70
   128
 43
0.0
 10
3.125401159408533
 20
0.0
 10
3.110240348545526
 20
0.0
 10
3.125401159408533
 20
0.0
 10
3.110240348545526
 20
0.0
 10
3.125401159408533
 20
0.0
  0
LWPOLYLINE
  5
40F
100
AcDbEntity
  8
USP-GEO
100
AcDbPolyline
 90
        8
 70
   129
 43
0.0
 10
3.201205213723558
 20
0.0
 10
3.155722781134543
 20
0.0
 10
3.201205213723558
 20
0.0
 10
3.155722781134543
 20
0.0
 10
3.125401159408533
 20
0.0
 10
3.155722781134543
 20
0.0
 10
3.125401159408533
 20
0.0
 10
3.155722781134543
 20
0.0
  0
LWPOLYLINE
  5
410
100
AcDbEntity
  8
USP-GEO
100
AcDbPolyline
 90
        3
 70
   128
 43
0.0
 10
3.201205213723558
 20
0.242572973808084
 10
3.186044402860553
 20
0.2736526360772444
 10
3.201205213723558
 20
0.242572973808084
  0
LWPOLYLINE
  5
411
100
AcDbEntity
  8
USP-GEO
100
AcDbPolyline
 90
        3
 70
   128
 43
0.0
 10
3.201205213723558
 20
0.242572973808084
 10
3.201205213723558
 20
0.2122513520820721
 10
3.201205213723558
 20
0.242572973808084
  0
ENDBLK
  5
413
100
AcDbEntity
  8
0
100
AcDbBlockEnd
  0
ENDSEC
  0
SECTION
  2
ENTITIES
  0
INSERT
  5
3
100
AcDbEntity
  8
USP
100
AcDbBlockReference
  2
THD28-2_T
 10
7.030258404802761
 20
11.98784897598546
 30
0.0
  0
INSERT
  5
133
100
AcDbEntity
  8
USP
100
AcDbBlockReference
  2
THD28-2_F
 10
7.030258404802761
 20
0.8946836675245251
 30
0.0
  0
INSERT
  5
299
100
AcDbEntity
  8
USP
100
AcDbBlockReference
  2
THD28-2_S
 10
0.9924654786109199
 20
0.8946836675245251
 30
0.0
  0
ENDSEC
  0
SECTION
  2
OBJECTS
  0
DICTIONARY
  5
42C
102
{ACAD_XDICTIONARY
360
42D
102
}
100
AcDbDictionary
  3
ACAD_GROUP
350
42A
  3
ACAD_MLINESTYLE
350
42B
  0
DICTIONARY
  5
9
100
AcDbDictionary
280
     1
  3
ACAD_XREC_ROUNDTRIP
360
A
  0
DICTIONARY
  5
12
100
AcDbDictionary
280
     1
  3
ACAD_XREC_ROUNDTRIP
360
13
  0
DICTIONARY
  5
414
100
AcDbDictionary
280
     1
  3
ACAD_LAYOUTSELFREF
360
415
  0
DICTIONARY
  5
419
100
AcDbDictionary
280
     1
  3
ACAD_LAYOUTSELFREF
360
41A
  0
DICTIONARY
  5
42D
100
AcDbDictionary
280
     1
  3
ACAD_XREC_ROUNDTRIP
360
42E
  0
DICTIONARY
  5
42A
102
{ACAD_REACTORS
330
42C
102
}
100
AcDbDictionary
  0
DICTIONARY
  5
42B
102
{ACAD_REACTORS
330
42C
102
}
100
AcDbDictionary
  3
STANDARD
350
42F
  0
XRECORD
  5
A
102
{ACAD_REACTORS
330
9
102
}
100
AcDbXrecord
102
EXTNAMES
  1
USP-GEO
  2
USP-Geo
  0
XRECORD
  5
13
102
{ACAD_REACTORS
330
12
102
}
100
AcDbXrecord
102
EXTNAMES
  1
USP-TXT
  2
USP-Txt
  0
XRECORD
  5
415
102
{ACAD_REACTORS
330
414
102
}
100
AcDbXrecord
340
18
  0
XRECORD
  5
41A
102
{ACAD_REACTORS
330
419
102
}
100
AcDbXrecord
340
15
  0
XRECORD
  5
42E
102
{ACAD_REACTORS
330
42D
102
}
100
AcDbXrecord
102
EXTNAMES
  1
ACDBVARIABLEDICTIONARY
  2
AcDbVariableDictionary
  0
MLINESTYLE
  5
42F
102
{ACAD_REACTORS
330
42B
102
}
100
AcDbMlineStyle
  2
STANDARD
 70
     0
  3

 62
     0
 51
90.0
 52
90.0
 71
     2
 49
0.5
 62
   256
  6
BYLAYER
 49
-0.5
 62
   256
  6
BYLAYER
  0
ENDSEC
  0
EOF
