  0
SECTION
  2
HEADER
  9
$ACADVER
  1
AC1014
  9
$ACADMAINTVER
 70
     9
  9
$DWGCODEPAGE
  3
ANSI_1252
  9
$INSBASE
 10
0.0
 20
0.0
 30
0.0
  9
$EXTMIN
 10
-0.047749254137913
 20
0.0028642784089854
 30
0.0
  9
$EXTMAX
 10
16.70427615350574
 20
20.00928916672861
 30
0.0
  9
$LIMMIN
 10
0.0
 20
0.0
  9
$LIMMAX
 10
12.0
 20
9.0
  9
$ORTHOMODE
 70
     1
  9
$REGENMODE
 70
     1
  9
$FILLMODE
 70
     1
  9
$QTEXTMODE
 70
     0
  9
$MIRRTEXT
 70
     0
  9
$DRAGMODE
 70
     2
  9
$LTSCALE
 40
1.5
  9
$OSMODE
 70
     0
  9
$ATTMODE
 70
     1
  9
$TEXTSIZE
 40
0.75
  9
$TRACEWID
 40
0.05
  9
$TEXTSTYLE
  7
STANDARD
  9
$CLAYER
  8
USP
  9
$CELTYPE
  6
BYLAYER
  9
$CECOLOR
 62
   256
  9
$CELTSCALE
 40
1.0
  9
$DELOBJ
 70
     1
  9
$DISPSILH
 70
     1
  9
$DIMSCALE
 40
7.0
  9
$DIMASZ
 40
0.125
  9
$DIMEXO
 40
0.0625
  9
$DIMDLI
 40
0.37890625
  9
$DIMRND
 40
0.0
  9
$DIMDLE
 40
0.0
  9
$DIMEXE
 40
0.09375
  9
$DIMTP
 40
0.0
  9
$DIMTM
 40
0.0
  9
$DIMTXT
 40
0.109375
  9
$DIMCEN
 40
0.0
  9
$DIMTSZ
 40
0.0
  9
$DIMTOL
 70
     0
  9
$DIMLIM
 70
     0
  9
$DIMTIH
 70
     1
  9
$DIMTOH
 70
     1
  9
$DIMSE1
 70
     0
  9
$DIMSE2
 70
     0
  9
$DIMTAD
 70
     0
  9
$DIMZIN
 70
     8
  9
$DIMBLK
  1

  9
$DIMASO
 70
     1
  9
$DIMSHO
 70
     1
  9
$DIMPOST
  1

  9
$DIMAPOST
  1

  9
$DIMALT
 70
     0
  9
$DIMALTD
 70
     2
  9
$DIMALTF
 40
25.4
  9
$DIMLFAC
 40
1.0
  9
$DIMTOFL
 70
     0
  9
$DIMTVP
 40
0.0
  9
$DIMTIX
 70
     0
  9
$DIMSOXD
 70
     0
  9
$DIMSAH
 70
     0
  9
$DIMBLK1
  1

  9
$DIMBLK2
  1

  9
$DIMSTYLE
  2
STANDARD
  9
$DIMCLRD
 70
     0
  9
$DIMCLRE
 70
     0
  9
$DIMCLRT
 70
   256
  9
$DIMTFAC
 40
1.0
  9
$DIMGAP
 40
0.08984375
  9
$DIMJUST
 70
     0
  9
$DIMSD1
 70
     0
  9
$DIMSD2
 70
     0
  9
$DIMTOLJ
 70
     1
  9
$DIMTZIN
 70
     0
  9
$DIMALTZ
 70
     0
  9
$DIMALTTZ
 70
     0
  9
$DIMFIT
 70
     3
  9
$DIMUPT
 70
     1
  9
$DIMUNIT
 70
     7
  9
$DIMDEC
 70
     4
  9
$DIMTDEC
 70
     4
  9
$DIMALTU
 70
     2
  9
$DIMALTTD
 70
     2
  9
$DIMTXSTY
  7
STANDARD
  9
$DIMAUNIT
 70
     0
  9
$LUNITS
 70
     5
  9
$LUPREC
 70
     6
  9
$SKETCHINC
 40
0.1
  9
$FILLETRAD
 40
0.0
  9
$AUNITS
 70
     0
  9
$AUPREC
 70
     1
  9
$MENU
  1
CUSTOM
  9
$ELEVATION
 40
0.0
  9
$PELEVATION
 40
0.0
  9
$THICKNESS
 40
0.0
  9
$LIMCHECK
 70
     0
  9
$BLIPMODE
 70
     0
  9
$CHAMFERA
 40
0.0
  9
$CHAMFERB
 40
0.0
  9
$CHAMFERC
 40
0.0
  9
$CHAMFERD
 40
0.0
  9
$SKPOLY
 70
     0
  9
$TDCREATE
 40
2451263.663231366
  9
$TDUPDATE
 40
2452768.687734004
  9
$TDINDWG
 40
0.4460282176
  9
$TDUSRTIMER
 40
0.4460282176
  9
$USRTIMER
 70
     1
  9
$ANGBASE
 50
0.0
  9
$ANGDIR
 70
     0
  9
$PDMODE
 70
     0
  9
$PDSIZE
 40
0.0
  9
$PLINEWID
 40
0.0
  9
$COORDS
 70
     2
  9
$SPLFRAME
 70
     0
  9
$SPLINETYPE
 70
     6
  9
$SPLINESEGS
 70
     8
  9
$ATTDIA
 70
     0
  9
$ATTREQ
 70
     0
  9
$HANDLING
 70
     1
  9
$HANDSEED
  5
1A7
  9
$SURFTAB1
 70
     6
  9
$SURFTAB2
 70
     6
  9
$SURFTYPE
 70
     6
  9
$SURFU
 70
     6
  9
$SURFV
 70
     6
  9
$UCSNAME
  2

  9
$UCSORG
 10
0.0
 20
0.0
 30
0.0
  9
$UCSXDIR
 10
1.0
 20
0.0
 30
0.0
  9
$UCSYDIR
 10
0.0
 20
1.0
 30
0.0
  9
$PUCSNAME
  2

  9
$PUCSORG
 10
0.0
 20
0.0
 30
0.0
  9
$PUCSXDIR
 10
1.0
 20
0.0
 30
0.0
  9
$PUCSYDIR
 10
0.0
 20
1.0
 30
0.0
  9
$USERI1
 70
     0
  9
$USERI2
 70
     0
  9
$USERI3
 70
     0
  9
$USERI4
 70
     0
  9
$USERI5
 70
     0
  9
$USERR1
 40
0.0
  9
$USERR2
 40
0.0
  9
$USERR3
 40
0.0
  9
$USERR4
 40
0.0
  9
$USERR5
 40
0.0
  9
$WORLDVIEW
 70
     1
  9
$SHADEDGE
 70
     3
  9
$SHADEDIF
 70
    70
  9
$TILEMODE
 70
     1
  9
$MAXACTVP
 70
    16
  9
$PINSBASE
 10
0.0
 20
0.0
 30
0.0
  9
$PLIMCHECK
 70
     0
  9
$PEXTMIN
 10
1.000000000000000E+20
 20
1.000000000000000E+20
 30
1.000000000000000E+20
  9
$PEXTMAX
 10
-1.000000000000000E+20
 20
-1.000000000000000E+20
 30
-1.000000000000000E+20
  9
$PLIMMIN
 10
0.0
 20
0.0
  9
$PLIMMAX
 10
12.0
 20
9.0
  9
$UNITMODE
 70
     0
  9
$VISRETAIN
 70
     0
  9
$PLINEGEN
 70
     0
  9
$PSLTSCALE
 70
     0
  9
$TREEDEPTH
 70
  3020
  9
$PICKSTYLE
 70
     0
  9
$CMLSTYLE
  2
STANDARD
  9
$CMLJUST
 70
     0
  9
$CMLSCALE
 40
1.0
  9
$PROXYGRAPHICS
 70
     1
  9
$MEASUREMENT
 70
     0
  0
ENDSEC
  0
SECTION
  2
CLASSES
  0
CLASS
  1
ACDBDICTIONARYWDFLT
  2
AcDbDictionaryWithDefault
  3
AutoCAD 2000
 90
        0
280
     0
281
     0
  0
CLASS
  1
ACDBPLACEHOLDER
  2
AcDbPlaceHolder
  3
AutoCAD 2000
 90
        0
280
     0
281
     0
  0
CLASS
  1
LAYOUT
  2
AcDbLayout
  3
AutoCAD 2000
 90
        0
280
     0
281
     0
  0
CLASS
  1
DICTIONARYVAR
  2
AcDbDictionaryVar
  3
"AutoCAD"
 90
        0
280
     0
281
     0
  0
CLASS
  1
LONG_TRANSACTION
  2
AcDbLongTransaction
  3
AutoCAD 2000
 90
        0
280
     0
281
     0
  0
CLASS
  1
LWPOLYLINE
  2
AcDbPolyline
  3
"AutoCAD"
 90
        0
280
     0
281
     1
  0
CLASS
  1
HATCH
  2
AcDbHatch
  3
"ACAD_SEDONA"
 90
        0
280
     0
281
     1
  0
CLASS
  1
XRECORD
  2
AcDbXrecord
  3
"<Built In>"
 90
        0
280
     0
281
     0
  0
CLASS
  1
LONG_TRANSACTION
  2
AcDbLongTransaction
  3
AutoCAD 2000
 90
        0
280
     0
281
     0
  0
CLASS
  1
LWPOLYLINE
  2
AcDbPolyline
  3
"AutoCAD"
 90
        0
280
     0
281
     1
  0
CLASS
  1
HATCH
  2
AcDbHatch
  3
"ACAD_SEDONA"
 90
        0
280
     0
281
     1
  0
CLASS
  1
XRECORD
  2
AcDbXrecord
  3
"<Built In>"
 90
        0
280
     0
281
     0
  0
ENDSEC
  0
SECTION
  2
TABLES
  0
TABLE
  2
VPORT
  5
197
100
AcDbSymbolTable
 70
     1
  0
VPORT
  5
198
100
AcDbSymbolTableRecord
100
AcDbViewportTableRecord
  2
*ACTIVE
 70
     0
 10
0.0
 20
0.0
 11
1.0
 21
1.0
 12
-13.49266547706559
 22
21.27671652470599
 13
0.0
 23
0.0
 14
1.0
 24
1.0
 15
0.0
 25
0.0
 16
0.0
 26
0.0
 36
1.0
 17
23.09603071721725
 27
-10.27010416511325
 37
-10.44050274849355
 40
30.29353852741323
 41
1.457627118644067
 42
50.0
 43
10.55307667737539
 44
10.55307667737539
 50
0.0
 51
0.0
 71
     0
 72
   100
 73
     1
 74
     1
 75
     0
 76
     0
 77
     0
 78
     0
  0
ENDTAB
  0
TABLE
  2
LTYPE
  5
192
100
AcDbSymbolTable
 70
     1
  0
LTYPE
  5
193
100
AcDbSymbolTableRecord
100
AcDbLinetypeTableRecord
  2
BYBLOCK
 70
     0
  3

 72
    65
 73
     0
 40
0.0
  0
LTYPE
  5
194
100
AcDbSymbolTableRecord
100
AcDbLinetypeTableRecord
  2
BYLAYER
 70
     0
  3

 72
    65
 73
     0
 40
0.0
  0
LTYPE
  5
5
100
AcDbSymbolTableRecord
100
AcDbLinetypeTableRecord
  2
CONTINUOUS
 70
     0
  3
Solid line
 72
    65
 73
     0
 40
0.0
  0
ENDTAB
  0
TABLE
  2
LAYER
  5
190
100
AcDbSymbolTable
 70
     4
  0
LAYER
  5
2B
100
AcDbSymbolTableRecord
100
AcDbLayerTableRecord
  2
0
 70
     0
 62
     7
  6
CONTINUOUS
  0
LAYER
  5
8
102
{ACAD_XDICTIONARY
360
9
102
}
100
AcDbSymbolTableRecord
100
AcDbLayerTableRecord
  2
USP-GEO
 70
     0
 62
     7
  6
CONTINUOUS
  0
LAYER
  5
C
102
{ACAD_XDICTIONARY
360
D
102
}
100
AcDbSymbolTableRecord
100
AcDbLayerTableRecord
  2
USP-TXT
 70
     0
 62
     7
  6
CONTINUOUS
  0
LAYER
  5
4
100
AcDbSymbolTableRecord
100
AcDbLayerTableRecord
  2
USP
 70
     0
 62
     7
  6
CONTINUOUS
  0
ENDTAB
  0
TABLE
  2
STYLE
  5
191
100
AcDbSymbolTable
 70
     1
  0
STYLE
  5
F
100
AcDbSymbolTableRecord
100
AcDbTextStyleTableRecord
  2
STANDARD
 70
     0
 40
0.0
 41
1.0
 50
0.0
 71
     0
 42
0.75
  3
txt
  4

  0
ENDTAB
  0
TABLE
  2
VIEW
  5
195
100
AcDbSymbolTable
 70
     0
  0
ENDTAB
  0
TABLE
  2
UCS
  5
196
100
AcDbSymbolTable
 70
     0
  0
ENDTAB
  0
TABLE
  2
APPID
  5
199
100
AcDbSymbolTable
 70
     1
  0
APPID
  5
19A
100
AcDbSymbolTableRecord
100
AcDbRegAppTableRecord
  2
ACAD
 70
     0
  0
ENDTAB
  0
TABLE
  2
DIMSTYLE
  5
19B
100
AcDbSymbolTable
 70
     1
  0
DIMSTYLE
105
1A3
100
AcDbSymbolTableRecord
100
AcDbDimStyleTableRecord
  2
STANDARD
 70
     0
  3

  4

  5

  6

  7

 40
1.0
 41
0.18
 42
0.0625
 43
0.38
 44
0.18
 45
0.0
 46
0.0
 47
0.0
 48
0.0
140
0.18
141
0.09
142
0.0
143
25.4
144
1.0
145
0.0
146
1.0
147
0.09
 71
     0
 72
     0
 73
     1
 74
     1
 75
     0
 76
     0
 77
     0
 78
     0
170
     0
171
     2
172
     0
173
     0
174
     0
175
     0
176
     0
177
     0
178
     0
270
     2
271
     4
272
     4
273
     2
274
     2
340
F
275
     0
280
     0
281
     0
282
     0
283
     1
284
     0
285
     0
286
     0
287
     3
288
     0
  0
ENDTAB
  0
TABLE
  2
BLOCK_RECORD
  5
1
100
AcDbSymbolTable
 70
     3
  0
BLOCK_RECORD
  5
2
102
{ACAD_XDICTIONARY
360
187
102
}
100
AcDbSymbolTableRecord
100
AcDbBlockTableRecord
  2
*MODEL_SPACE
  0
BLOCK_RECORD
  5
18B
102
{ACAD_XDICTIONARY
360
18C
102
}
100
AcDbSymbolTableRecord
100
AcDbBlockTableRecord
  2
*PAPER_SPACE
  0
BLOCK_RECORD
  5
6
100
AcDbSymbolTableRecord
100
AcDbBlockTableRecord
  2
THDH410_T
  0
BLOCK_RECORD
  5
2E
100
AcDbSymbolTableRecord
100
AcDbBlockTableRecord
  2
THDH410_F
  0
BLOCK_RECORD
  5
127
100
AcDbSymbolTableRecord
100
AcDbBlockTableRecord
  2
THDH410_S
  0
ENDTAB
  0
ENDSEC
  0
SECTION
  2
BLOCKS
  0
BLOCK
  5
189
100
AcDbEntity
  8
0
100
AcDbBlockBegin
  2
*MODEL_SPACE
 70
     0
 10
0.0
 20
0.0
 30
0.0
  3
*MODEL_SPACE
  1

  0
ENDBLK
  5
18A
100
AcDbEntity
  8
0
100
AcDbBlockEnd
  0
BLOCK
  5
18E
100
AcDbEntity
 67
     1
  8
0
100
AcDbBlockBegin
  2
*PAPER_SPACE
 70
     0
 10
0.0
 20
0.0
 30
0.0
  3
*PAPER_SPACE
  1

  0
ENDBLK
  5
18F
100
AcDbEntity
 67
     1
  8
0
100
AcDbBlockEnd
  0
BLOCK
  5
2A
100
AcDbEntity
  8
0
100
AcDbBlockBegin
  2
THDH410_T
 70
     0
 10
0.0
 20
0.0
 30
0.0
  3
THDH410_T
  1

  0
LWPOLYLINE
  5
7
100
AcDbEntity
  8
USP-GEO
100
AcDbPolyline
 90
       53
 70
   128
 43
0.0
 10
2.497807932553762
 20
3.157700435918286
 10
2.437908461749117
 20
3.117767455381855
 10
2.298143029871607
 20
2.997968513772562
 10
2.258210049335175
 20
2.818270101358621
 10
2.298143029871607
 20
2.637573364431272
 10
2.318109520139824
 20
2.617606874163055
 10
2.338076010408038
 20
2.597640383894841
 10
2.358042500676255
 20
2.577673893626624
 10
2.397975481212686
 20
2.537740913090193
 10
2.4179419714809
 20
2.517774422821979
 10
2.437908461749117
 20
2.497807932553762
 10
2.497807932553762
 20
2.477841442285548
 10
2.497807932553762
 20
2.358042500676255
 10
2.497807932553762
 20
2.278176539603393
 10
2.497807932553762
 20
2.238243559066958
 10
2.497807932553762
 20
2.278176539603393
 10
2.497807932553762
 20
2.358042500676255
 10
2.497807932553762
 20
2.477841442285548
 10
2.497807932553762
 20
2.55770740335841
 10
2.497807932553762
 20
2.597640383894841
 10
2.497807932553762
 20
2.617606874163055
 10
2.617606874163055
 20
2.617606874163055
 10
2.617606874163055
 20
4.216922744647117
 10
0.0
 20
4.216922744647117
 10
0.0
 20
4.117090293306041
 10
0.0
 20
4.216922744647117
 10
2.617606874163055
 20
4.216922744647117
 10
2.617606874163055
 20
2.617606874163055
 10
2.617606874163055
 20
2.597640383894841
 10
2.617606874163055
 20
2.55770740335841
 10
2.617606874163055
 20
2.477841442285548
 10
2.617606874163055
 20
2.358042500676255
 10
2.617606874163055
 20
2.278176539603393
 10
2.617606874163055
 20
2.238243559066958
 10
2.617606874163055
 20
2.178344088262313
 10
2.617606874163055
 20
2.238243559066958
 10
2.497807932553762
 20
2.238243559066958
 10
2.617606874163055
 20
2.238243559066958
 10
2.617606874163055
 20
2.278176539603393
 10
2.617606874163055
 20
2.358042500676255
 10
2.617606874163055
 20
2.477841442285548
 10
2.617606874163055
 20
2.55770740335841
 10
2.617606874163055
 20
2.597640383894841
 10
2.617606874163055
 20
2.617606874163055
 10
2.497807932553762
 20
2.617606874163055
 10
2.497807932553762
 20
4.117090293306041
 10
0.0
 20
4.117090293306041
 10
2.497807932553762
 20
4.117090293306041
 10
2.497807932553762
 20
2.617606874163055
 10
2.497807932553762
 20
2.597640383894841
 10
2.497807932553762
 20
2.55770740335841
 10
2.497807932553762
 20
2.477841442285548
 10
2.617606874163055
 20
2.477841442285548
  0
TEXT
  5
B
100
AcDbEntity
  8
USP-TXT
100
AcDbText
 10
1.817933072815864
 20
-2.076814955382623
 30
0.0
 40
0.296875
  1
THDH410 - TOP VIEW
 72
     1
 11
4.415589322815863
 21
-2.076814955382623
 31
0.0
100
AcDbText
  0
LWPOLYLINE
  5
10
100
AcDbEntity
  8
USP-GEO
100
AcDbPolyline
 90
       18
 70
   128
 43
0.0
 10
6.233538261736889
 20
3.997291351696748
 10
5.294114894617347
 20
3.997291351696748
 10
5.294114894617347
 20
3.957358371160317
 10
5.274148404349134
 20
3.9373918808921
 10
5.234215423812702
 20
3.9373918808921
 10
4.994617540594113
 20
3.9373918808921
 10
4.954684560057682
 20
3.9373918808921
 10
4.934718069789468
 20
3.957358371160317
 10
4.914751579521251
 20
3.997291351696748
 10
3.916427066110475
 20
3.997291351696748
 10
3.916427066110475
 20
3.957358371160317
 10
3.896460575842262
 20
3.9373918808921
 10
3.856527595305831
 20
3.9373918808921
 10
3.615931387573834
 20
3.9373918808921
 10
3.575998407037403
 20
3.9373918808921
 10
3.556031916769185
 20
3.957358371160317
 10
3.556031916769185
 20
3.997291351696748
 10
2.617606874163055
 20
3.997291351696748
  0
LWPOLYLINE
  5
11
100
AcDbEntity
  8
USP-GEO
100
AcDbPolyline
 90
       58
 70
   128
 43
0.0
 10
5.294114894617347
 20
0.0
 10
6.233538261736889
 20
0.0
 10
6.333370713077965
 20
0.0
 10
6.333370713077965
 20
0.0199664902682155
 10
6.333370713077965
 20
0.079865961072862
 10
6.333370713077965
 20
0.1996649026821551
 10
6.333370713077965
 20
1.719114812093355
 10
6.333370713077965
 20
1.998645675848372
 10
6.333370713077965
 20
2.178344088262313
 10
6.333370713077965
 20
2.238243559066958
 10
6.333370713077965
 20
2.278176539603393
 10
6.333370713077965
 20
2.358042500676255
 10
6.333370713077965
 20
2.477841442285548
 10
6.333370713077965
 20
2.55770740335841
 10
6.333370713077965
 20
2.597640383894841
 10
6.333370713077965
 20
2.617606874163055
 10
6.333370713077965
 20
4.117090293306041
 10
8.851145135899944
 20
4.117090293306041
 10
8.851145135899944
 20
4.216922744647117
 10
6.233538261736889
 20
4.216922744647117
 10
6.233538261736889
 20
2.617606874163055
 10
6.333370713077965
 20
2.617606874163055
 10
6.333370713077965
 20
4.117090293306041
 10
8.851145135899944
 20
4.117090293306041
 10
8.851145135899944
 20
4.216922744647117
 10
6.233538261736889
 20
4.216922744647117
 10
6.233538261736889
 20
2.617606874163055
 10
6.233538261736889
 20
2.597640383894841
 10
6.233538261736889
 20
2.55770740335841
 10
6.233538261736889
 20
2.477841442285548
 10
6.233538261736889
 20
2.358042500676255
 10
6.233538261736889
 20
2.278176539603393
 10
6.233538261736889
 20
2.238243559066958
 10
6.233538261736889
 20
2.178344088262313
 10
6.233538261736889
 20
1.998645675848372
 10
6.233538261736889
 20
1.719114812093355
 10
6.233538261736889
 20
0.1996649026821551
 10
6.233538261736889
 20
0.079865961072862
 10
6.233538261736889
 20
0.0199664902682155
 10
6.233538261736889
 20
0.0
 10
5.294114894617347
 20
0.0
 10
5.294114894617347
 20
0.0199664902682155
 10
5.274148404349134
 20
0.039932980536431
 10
5.234215423812702
 20
0.0598994708046465
 10
4.994617540594113
 20
0.0598994708046465
 10
4.954684560057682
 20
0.039932980536431
 10
4.934718069789468
 20
0.0199664902682155
 10
4.914751579521251
 20
0.0
 10
3.916427066110475
 20
0.0
 10
3.916427066110475
 20
0.0199664902682155
 10
3.896460575842262
 20
0.039932980536431
 10
3.856527595305831
 20
0.0598994708046465
 10
3.615931387573834
 20
0.0598994708046465
 10
3.575998407037403
 20
0.039932980536431
 10
3.556031916769185
 20
0.0199664902682155
 10
3.556031916769185
 20
0.0
 10
2.617606874163055
 20
0.0
 10
2.618605198676466
 20
0.0
  0
LWPOLYLINE
  5
12
100
AcDbEntity
  8
USP-GEO
100
AcDbPolyline
 90
        2
 70
   128
 43
0.0
 10
6.233538261736889
 20
3.997291351696748
 10
5.294114894617347
 20
3.997291351696748
  0
LWPOLYLINE
  5
13
100
AcDbEntity
  8
USP-GEO
100
AcDbPolyline
 90
        8
 70
   129
 43
0.0
 10
2.497807932553762
 20
0.1996649026821551
 10
2.497807932553762
 20
1.719114812093355
 10
2.497807932553762
 20
1.998645675848372
 10
2.497807932553762
 20
2.178344088262313
 10
2.497807932553762
 20
2.238243559066958
 10
2.497807932553762
 20
2.178344088262313
 10
2.497807932553762
 20
1.998645675848372
 10
2.497807932553762
 20
1.719114812093355
  0
LWPOLYLINE
  5
14
100
AcDbEntity
  8
USP-GEO
100
AcDbPolyline
 90
        9
 70
   128
 43
0.0
 10
2.617606874163055
 20
0.0
 10
2.617606874163055
 20
0.0199664902682155
 10
2.617606874163055
 20
0.079865961072862
 10
2.617606874163055
 20
0.1996649026821551
 10
2.617606874163055
 20
1.719114812093355
 10
2.617606874163055
 20
1.998645675848372
 10
2.617606874163055
 20
2.178344088262313
 10
2.617606874163055
 20
1.998645675848372
 10
2.617606874163055
 20
1.719114812093355
  0
LWPOLYLINE
  5
15
100
AcDbEntity
  8
USP-GEO
100
AcDbPolyline
 90
       11
 70
   128
 43
0.0
 10
2.617606874163055
 20
0.1996649026821551
 10
2.497807932553762
 20
0.1996649026821551
 10
2.497807932553762
 20
0.079865961072862
 10
2.497807932553762
 20
0.0199664902682155
 10
2.497807932553762
 20
0.0
 10
2.617606874163055
 20
0.0
 10
2.617606874163055
 20
0.0199664902682155
 10
2.617606874163055
 20
0.079865961072862
 10
2.617606874163055
 20
0.1996649026821551
 10
2.617606874163055
 20
1.719114812093355
 10
2.497807932553762
 20
1.719114812093355
  0
LWPOLYLINE
  5
16
100
AcDbEntity
  8
USP-GEO
100
AcDbPolyline
 90
        6
 70
   128
 43
0.0
 10
2.497807932553762
 20
0.1996649026821551
 10
2.497807932553762
 20
0.079865961072862
 10
2.497807932553762
 20
0.0199664902682155
 10
2.497807932553762
 20
0.0
 10
2.617606874163055
 20
0.0
 10
3.556031916769185
 20
0.0
  0
LWPOLYLINE
  5
17
100
AcDbEntity
  8
USP-GEO
100
AcDbPolyline
 90
        2
 70
   128
 43
0.0
 10
3.916427066110475
 20
0.0
 10
4.914751579521251
 20
0.0
  0
LWPOLYLINE
  5
18
100
AcDbEntity
  8
USP-GEO
100
AcDbPolyline
 90
        3
 70
   128
 43
0.0
 10
3.575998407037403
 20
0.039932980536431
 10
3.615931387573834
 20
0.0598994708046465
 10
3.856527595305831
 20
0.0598994708046465
  0
LWPOLYLINE
  5
19
100
AcDbEntity
  8
USP-GEO
100
AcDbPolyline
 90
        3
 70
   128
 43
0.0
 10
4.954684560057682
 20
0.039932980536431
 10
4.994617540594113
 20
0.0598994708046465
 10
5.234215423812702
 20
0.0598994708046465
  0
LWPOLYLINE
  5
1A
100
AcDbEntity
  8
USP-GEO
100
AcDbPolyline
 90
        3
 70
   128
 43
0.0
 10
3.556031916769185
 20
3.997291351696748
 10
2.617606874163055
 20
3.997291351696748
 10
2.618605198676466
 20
3.997291351696748
  0
LWPOLYLINE
  5
1B
100
AcDbEntity
  8
USP-GEO
100
AcDbPolyline
 90
        2
 70
   128
 43
0.0
 10
2.318109520139824
 20
2.617606874163055
 10
2.319107844653235
 20
2.617606874163055
  0
LWPOLYLINE
  5
1C
100
AcDbEntity
  8
USP-GEO
100
AcDbPolyline
 90
        2
 70
   128
 43
0.0
 10
2.4179419714809
 20
2.517774422821979
 10
2.41894029599431
 20
2.517774422821979
  0
LWPOLYLINE
  5
1D
100
AcDbEntity
  8
USP-GEO
100
AcDbPolyline
 90
        2
 70
   129
 43
0.0
 10
2.618605198676466
 20
3.997291351696748
 10
2.617606874163055
 20
3.997291351696748
  0
LWPOLYLINE
  5
1E
100
AcDbEntity
  8
USP-GEO
100
AcDbPolyline
 90
        3
 70
   128
 43
0.0
 10
4.934718069789468
 20
3.957358371160317
 10
4.914751579521251
 20
3.997291351696748
 10
3.916427066110475
 20
3.997291351696748
  0
LWPOLYLINE
  5
1F
100
AcDbEntity
  8
USP-GEO
100
AcDbPolyline
 90
        3
 70
   128
 43
0.0
 10
3.896460575842262
 20
3.9373918808921
 10
3.856527595305831
 20
3.9373918808921
 10
3.615931387573834
 20
3.9373918808921
  0
LWPOLYLINE
  5
20
100
AcDbEntity
  8
USP-GEO
100
AcDbPolyline
 90
        2
 70
   128
 43
0.0
 10
5.234215423812702
 20
3.9373918808921
 10
4.994617540594113
 20
3.9373918808921
  0
LWPOLYLINE
  5
21
100
AcDbEntity
  8
USP-GEO
100
AcDbPolyline
 90
        4
 70
   129
 43
0.0
 10
6.233538261736889
 20
1.719114812093355
 10
6.233538261736889
 20
0.1996649026821551
 10
6.333370713077965
 20
0.1996649026821551
 10
6.333370713077965
 20
1.719114812093355
  0
LWPOLYLINE
  5
22
100
AcDbEntity
  8
USP-GEO
100
AcDbPolyline
 90
        8
 70
   128
 43
0.0
 10
6.233538261736889
 20
0.1996649026821551
 10
6.233538261736889
 20
0.079865961072862
 10
6.233538261736889
 20
0.0199664902682155
 10
6.233538261736889
 20
0.0
 10
6.333370713077965
 20
0.0
 10
6.333370713077965
 20
0.0199664902682155
 10
6.333370713077965
 20
0.079865961072862
 10
6.333370713077965
 20
0.1996649026821551
  0
LWPOLYLINE
  5
23
100
AcDbEntity
  8
USP-GEO
100
AcDbPolyline
 90
        2
 70
   129
 43
0.0
 10
6.2345365862503
 20
0.0
 10
6.233538261736889
 20
0.0
  0
LWPOLYLINE
  5
24
100
AcDbEntity
  8
USP-GEO
100
AcDbPolyline
 90
        8
 70
   128
 43
0.0
 10
6.333370713077965
 20
1.719114812093355
 10
6.333370713077965
 20
1.998645675848372
 10
6.333370713077965
 20
2.178344088262313
 10
6.333370713077965
 20
2.238243559066958
 10
6.233538261736889
 20
2.238243559066958
 10
6.233538261736889
 20
2.178344088262313
 10
6.233538261736889
 20
1.998645675848372
 10
6.233538261736889
 20
1.719114812093355
  0
LWPOLYLINE
  5
25
100
AcDbEntity
  8
USP-GEO
100
AcDbPolyline
 90
       10
 70
   128
 43
0.0
 10
6.433203164419044
 20
2.517774422821979
 10
6.413236674150827
 20
2.497807932553762
 10
6.333370713077965
 20
2.477841442285548
 10
6.333370713077965
 20
2.55770740335841
 10
6.333370713077965
 20
2.597640383894841
 10
6.333370713077965
 20
2.617606874163055
 10
6.233538261736889
 20
2.617606874163055
 10
6.233538261736889
 20
2.597640383894841
 10
6.233538261736889
 20
2.55770740335841
 10
6.233538261736889
 20
2.477841442285548
  0
LWPOLYLINE
  5
26
100
AcDbEntity
  8
USP-GEO
100
AcDbPolyline
 90
        6
 70
   128
 43
0.0
 10
6.333370713077965
 20
3.157700435918286
 10
6.413236674150827
 20
3.117767455381855
 10
6.53303561576012
 20
2.997968513772562
 10
6.592935086564768
 20
2.818270101358621
 10
6.53303561576012
 20
2.637573364431272
 10
6.53303561576012
 20
2.617606874163055
  0
LWPOLYLINE
  5
27
100
AcDbEntity
  8
USP-GEO
100
AcDbPolyline
 90
        8
 70
   129
 43
0.0
 10
6.233538261736889
 20
2.238243559066958
 10
6.333370713077965
 20
2.238243559066958
 10
6.333370713077965
 20
2.278176539603393
 10
6.333370713077965
 20
2.358042500676255
 10
6.333370713077965
 20
2.477841442285548
 10
6.233538261736889
 20
2.477841442285548
 10
6.233538261736889
 20
2.358042500676255
 10
6.233538261736889
 20
2.278176539603393
  0
LWPOLYLINE
  5
28
100
AcDbEntity
  8
USP-GEO
100
AcDbPolyline
 90
        7
 70
   128
 43
0.0
 10
6.434201488932455
 20
2.517774422821979
 10
6.433203164419044
 20
2.517774422821979
 10
6.453169654687258
 20
2.537740913090193
 10
6.473136144955475
 20
2.577673893626624
 10
6.513069125491906
 20
2.597640383894841
 10
6.53303561576012
 20
2.617606874163055
 10
6.534033940273531
 20
2.617606874163055
  0
LWPOLYLINE
  5
29
100
AcDbEntity
  8
USP-GEO
100
AcDbPolyline
 90
        2
 70
   129
 43
0.0
 10
6.2345365862503
 20
3.997291351696748
 10
6.233538261736889
 20
3.997291351696748
  0
ENDBLK
  5
2C
100
AcDbEntity
  8
0
100
AcDbBlockEnd
  0
BLOCK
  5
124
100
AcDbEntity
  8
0
100
AcDbBlockBegin
  2
THDH410_F
 70
     0
 10
0.0
 20
0.0
 30
0.0
  3
THDH410_F
  1

  0
LWPOLYLINE
  5
2F
100
AcDbEntity
  8
USP-GEO
100
AcDbPolyline
 90
       47
 70
   128
 43
0.0
 10
2.617606874163055
 20
0.0998324513410758
 10
2.617606874163055
 20
0.2795308637550171
 10
2.617606874163055
 20
0.459229276168955
 10
2.617606874163055
 20
0.618961198314679
 10
2.617606874163055
 20
2.278176539603389
 10
2.617606874163055
 20
2.677506344967701
 10
2.617606874163055
 20
3.137733945650069
 10
2.617606874163055
 20
3.636896202355456
 10
2.617606874163055
 20
4.416587647329274
 10
2.617606874163055
 20
4.576319569474998
 10
2.617606874163055
 20
4.716085001352507
 10
2.617606874163055
 20
4.8358839429618
 10
2.617606874163055
 20
4.915749904034662
 10
2.617606874163055
 20
4.995615865107524
 10
2.617606874163055
 20
5.096446640962012
 10
2.617606874163055
 20
5.41591048525346
 10
2.617606874163055
 20
5.515742936594538
 10
2.617606874163055
 20
5.615575387935615
 10
2.617606874163055
 20
5.675474858740262
 10
2.617606874163055
 20
5.795273800349555
 10
2.617606874163055
 20
5.935039232227065
 10
2.617606874163055
 20
6.094771154372789
 10
2.617606874163055
 20
6.295434381568355
 10
2.617606874163055
 20
6.455166303714079
 10
2.617606874163055
 20
6.594931735591588
 10
2.617606874163055
 20
6.714730677200881
 10
2.617606874163055
 20
6.774630148005527
 10
2.617606874163055
 20
6.874462599346605
 10
2.617606874163055
 20
6.974295050687683
 10
2.617606874163055
 20
7.294757219492542
 10
2.617606874163055
 20
7.394589670833619
 10
2.617606874163055
 20
7.494422122174697
 10
2.617606874163055
 20
7.554321592979343
 10
2.617606874163055
 20
7.674120534588636
 10
2.617606874163055
 20
7.813885966466147
 10
2.617606874163055
 20
7.973617888611871
 10
2.617606874163055
 20
8.173282791294026
 10
2.617606874163055
 20
8.334013037953161
 10
2.617606874163055
 20
8.473778469830669
 10
2.617606874163055
 20
8.593577411439962
 10
2.617606874163055
 20
8.653476882244609
 10
2.617606874163055
 20
8.753309333585686
 10
2.617606874163055
 20
8.853141784926764
 10
2.617606874163055
 20
9.172605629218212
 10
2.497807932553762
 20
9.172605629218212
 10
0.0
 20
9.172605629218212
 10
0.0
 20
8.853141784926764
  0
LWPOLYLINE
  5
30
100
AcDbEntity
  8
USP-GEO
100
AcDbPolyline
 90
       19
 70
   128
 43
0.0
 10
2.497807932553762
 20
9.172605629218212
 10
0.0
 20
9.172605629218212
 10
0.0
 20
8.853141784926764
 10
0.0199664902682155
 20
8.753309333585686
 10
0.079865961072862
 20
8.653476882244609
 10
0.1397654318775086
 20
8.593577411439962
 10
0.2795308637550171
 20
8.473778469830669
 10
0.3593968248278792
 20
8.334013037953161
 10
0.3793633150960947
 20
8.173282791294026
 10
0.3793633150960947
 20
7.973617888611871
 10
0.3593968248278792
 20
7.813885966466147
 10
0.2795308637550171
 20
7.674120534588636
 10
0.1397654318775086
 20
7.554321592979343
 10
0.079865961072862
 20
7.494422122174697
 10
0.0199664902682155
 20
7.394589670833619
 10
0.0
 20
7.294757219492542
 10
0.0
 20
6.974295050687683
 10
0.0199664902682155
 20
6.874462599346605
 10
0.079865961072862
 20
6.774630148005527
  0
LWPOLYLINE
  5
31
100
AcDbEntity
  8
USP-GEO
100
AcDbPolyline
 90
       10
 70
   128
 43
0.0
 10
0.079865961072862
 20
4.915749904034662
 10
0.1397654318775086
 20
4.8358839429618
 10
0.2795308637550171
 20
4.716085001352507
 10
0.3593968248278792
 20
4.576319569474998
 10
0.3793633150960947
 20
4.416587647329274
 10
0.3793633150960947
 20
3.636896202355456
 10
0.4392627859007412
 20
3.137733945650069
 10
0.6199595228280935
 20
2.677506344967701
 10
0.8994903865831105
 20
2.278176539603389
 10
2.298143029871607
 20
0.7587266301921894
  0
LWPOLYLINE
  5
32
100
AcDbEntity
  8
USP-GEO
100
AcDbPolyline
 90
        6
 70
   128
 43
0.0
 10
0.079865961072862
 20
5.615575387935615
 10
0.0199664902682155
 20
5.515742936594538
 10
0.0
 20
5.41591048525346
 10
0.0
 20
5.096446640962012
 10
0.0199664902682155
 20
4.995615865107524
 10
0.079865961072862
 20
4.915749904034662
  0
LWPOLYLINE
  5
33
100
AcDbEntity
  8
USP-GEO
100
AcDbPolyline
 90
       12
 70
   129
 43
0.0
 10
0.3993298053643102
 20
5.096446640962012
 10
0.3993298053643102
 20
5.056513660425581
 10
0.3593968248278792
 20
5.015582355375739
 10
0.3194638442914481
 20
5.015582355375739
 10
0.2795308637550171
 20
5.015582355375739
 10
0.2395978832185861
 20
5.056513660425581
 10
0.2196313929503706
 20
5.096446640962012
 10
0.2395978832185861
 20
5.136379621498443
 10
0.2795308637550171
 20
5.176312602034874
 10
0.3194638442914481
 20
5.19627909230309
 10
0.3593968248278792
 20
5.176312602034874
 10
0.3993298053643102
 20
5.136379621498443
  0
LWPOLYLINE
  5
34
100
AcDbEntity
  8
USP-GEO
100
AcDbPolyline
 90
        2
 70
   128
 43
0.0
 10
0.3793633150960947
 20
4.416587647329274
 10
0.3793633150960947
 20
3.636896202355456
  0
LWPOLYLINE
  5
35
100
AcDbEntity
  8
USP-GEO
100
AcDbPolyline
 90
       10
 70
   128
 43
0.0
 10
0.079865961072862
 20
6.774630148005527
 10
0.1397654318775086
 20
6.714730677200881
 10
0.2795308637550171
 20
6.594931735591588
 10
0.3593968248278792
 20
6.455166303714079
 10
0.3793633150960947
 20
6.295434381568355
 10
0.3793633150960947
 20
6.094771154372789
 10
0.3593968248278792
 20
5.935039232227065
 10
0.2795308637550171
 20
5.795273800349555
 10
0.1397654318775086
 20
5.675474858740262
 10
0.079865961072862
 20
5.615575387935615
  0
LWPOLYLINE
  5
36
100
AcDbEntity
  8
USP-GEO
100
AcDbPolyline
 90
        2
 70
   128
 43
0.0
 10
0.0
 20
5.41591048525346
 10
0.0
 20
5.096446640962012
  0
LWPOLYLINE
  5
37
100
AcDbEntity
  8
USP-GEO
100
AcDbPolyline
 90
        2
 70
   128
 43
0.0
 10
0.2795308637550171
 20
5.176312602034874
 10
0.3194638442914481
 20
5.19627909230309
  0
LWPOLYLINE
  5
38
100
AcDbEntity
  8
USP-GEO
100
AcDbPolyline
 90
        2
 70
   128
 43
0.0
 10
0.3793633150960947
 20
6.295434381568355
 10
0.3793633150960947
 20
6.094771154372789
  0
LWPOLYLINE
  5
39
100
AcDbEntity
  8
USP-GEO
100
AcDbPolyline
 90
        3
 70
   128
 43
0.0
 10
0.0199664902682155
 20
7.394589670833619
 10
0.0
 20
7.294757219492542
 10
0.0
 20
6.974295050687683
  0
LWPOLYLINE
  5
3A
100
AcDbEntity
  8
USP-GEO
100
AcDbPolyline
 90
       12
 70
   129
 43
0.0
 10
0.3993298053643102
 20
6.794596638273743
 10
0.3593968248278792
 20
6.774630148005527
 10
0.3194638442914481
 20
6.754663657737312
 10
0.2795308637550171
 20
6.774630148005527
 10
0.2395978832185861
 20
6.794596638273743
 10
0.2196313929503706
 20
6.85449610907839
 10
0.2395978832185861
 20
6.894429089614821
 10
0.2795308637550171
 20
6.934362070151252
 10
0.3194638442914481
 20
6.934362070151252
 10
0.3593968248278792
 20
6.934362070151252
 10
0.3993298053643102
 20
6.894429089614821
 10
0.3993298053643102
 20
6.85449610907839
  0
LWPOLYLINE
  5
3B
100
AcDbEntity
  8
USP-GEO
100
AcDbPolyline
 90
        2
 70
   128
 43
0.0
 10
0.3793633150960947
 20
8.173282791294026
 10
0.3793633150960947
 20
7.973617888611871
  0
LWPOLYLINE
  5
3C
100
AcDbEntity
  8
USP-GEO
100
AcDbPolyline
 90
       12
 70
   129
 43
0.0
 10
0.3993298053643102
 20
8.853141784926764
 10
0.3993298053643102
 20
8.813208804390333
 10
0.3593968248278792
 20
8.773275823853902
 10
0.3194638442914481
 20
8.753309333585686
 10
0.2795308637550171
 20
8.773275823853902
 10
0.2395978832185861
 20
8.813208804390333
 10
0.2196313929503706
 20
8.853141784926764
 10
0.2395978832185861
 20
8.893074765463195
 10
0.2795308637550171
 20
8.933007745999626
 10
0.3194638442914481
 20
8.933007745999626
 10
0.3593968248278792
 20
8.933007745999626
 10
0.3993298053643102
 20
8.893074765463195
  0
LWPOLYLINE
  5
3D
100
AcDbEntity
  8
USP-GEO
100
AcDbPolyline
 90
        2
 70
   128
 43
0.0
 10
0.2795308637550171
 20
8.773275823853902
 10
0.2395978832185861
 20
8.813208804390333
  0
LWPOLYLINE
  5
3E
100
AcDbEntity
  8
USP-GEO
100
AcDbPolyline
 90
       47
 70
   128
 43
0.0
 10
6.333370713077965
 20
9.172605629218212
 10
8.851145135899944
 20
9.172605629218212
 10
6.333370713077965
 20
9.172605629218212
 10
6.233538261736889
 20
9.172605629218212
 10
6.233538261736889
 20
8.853141784926764
 10
6.233538261736889
 20
8.753309333585686
 10
6.233538261736889
 20
8.653476882244609
 10
6.233538261736889
 20
8.593577411439962
 10
6.233538261736889
 20
8.473778469830669
 10
6.233538261736889
 20
8.334013037953161
 10
6.233538261736889
 20
8.173282791294026
 10
6.233538261736889
 20
7.973617888611871
 10
6.233538261736889
 20
7.813885966466147
 10
6.233538261736889
 20
7.674120534588636
 10
6.233538261736889
 20
7.554321592979343
 10
6.233538261736889
 20
7.494422122174697
 10
6.233538261736889
 20
7.394589670833619
 10
6.233538261736889
 20
7.294757219492542
 10
6.233538261736889
 20
6.974295050687683
 10
6.233538261736889
 20
6.874462599346605
 10
6.233538261736889
 20
6.774630148005527
 10
6.233538261736889
 20
6.714730677200881
 10
6.233538261736889
 20
6.594931735591588
 10
6.233538261736889
 20
6.455166303714079
 10
6.233538261736889
 20
6.295434381568355
 10
6.233538261736889
 20
6.094771154372789
 10
6.233538261736889
 20
5.935039232227065
 10
6.233538261736889
 20
5.795273800349555
 10
6.233538261736889
 20
5.675474858740262
 10
6.233538261736889
 20
5.615575387935615
 10
6.233538261736889
 20
5.515742936594538
 10
6.233538261736889
 20
5.41591048525346
 10
6.233538261736889
 20
5.096446640962012
 10
6.233538261736889
 20
4.995615865107524
 10
6.233538261736889
 20
4.915749904034662
 10
6.233538261736889
 20
4.8358839429618
 10
6.233538261736889
 20
4.716085001352507
 10
6.233538261736889
 20
4.576319569474998
 10
6.233538261736889
 20
4.416587647329274
 10
6.233538261736889
 20
3.636896202355456
 10
6.233538261736889
 20
3.137733945650069
 10
6.233538261736889
 20
2.677506344967701
 10
6.233538261736889
 20
2.278176539603389
 10
6.233538261736889
 20
0.618961198314679
 10
6.233538261736889
 20
0.459229276168955
 10
6.233538261736889
 20
0.2795308637550171
 10
6.233538261736889
 20
0.0998324513410758
  0
LWPOLYLINE
  5
3F
100
AcDbEntity
  8
USP-GEO
100
AcDbPolyline
 90
       15
 70
   128
 43
0.0
 10
8.490749986558654
 20
6.455166303714079
 10
8.570615947631516
 20
6.594931735591588
 10
8.690414889240809
 20
6.714730677200881
 10
8.770280850313671
 20
6.774630148005527
 10
8.831178645631727
 20
6.874462599346605
 10
8.851145135899944
 20
6.974295050687683
 10
8.851145135899944
 20
7.294757219492542
 10
8.831178645631727
 20
7.394589670833619
 10
8.770280850313671
 20
7.494422122174697
 10
8.690414889240809
 20
7.554321592979343
 10
8.570615947631516
 20
7.674120534588636
 10
8.490749986558654
 20
7.813885966466147
 10
8.470783496290437
 20
7.973617888611871
 10
8.470783496290437
 20
8.173282791294026
 10
8.490749986558654
 20
8.334013037953161
  0
LWPOLYLINE
  5
40
100
AcDbEntity
  8
USP-GEO
100
AcDbPolyline
 90
       61
 70
   128
 43
0.0
 10
6.233538261736889
 20
0.0998324513410758
 10
5.294114894617347
 20
0.0998324513410758
 10
5.274148404349134
 20
0.0998324513410758
 10
5.234215423812702
 20
0.0998324513410758
 10
4.994617540594113
 20
0.0998324513410758
 10
4.954684560057682
 20
0.0998324513410758
 10
4.934718069789468
 20
0.0998324513410758
 10
4.914751579521251
 20
0.0998324513410758
 10
3.916427066110475
 20
0.0998324513410758
 10
3.896460575842262
 20
0.0998324513410758
 10
3.856527595305831
 20
0.0998324513410758
 10
3.615931387573834
 20
0.0998324513410758
 10
3.575998407037403
 20
0.0998324513410758
 10
3.556031916769185
 20
0.0998324513410758
 10
2.617606874163055
 20
0.0998324513410758
 10
2.617606874163055
 20
0.0
 10
2.497807932553762
 20
0.0
 10
2.497807932553762
 20
0.0998324513410758
 10
2.497807932553762
 20
0.2795308637550171
 10
2.497807932553762
 20
0.459229276168955
 10
2.497807932553762
 20
0.618961198314679
 10
2.497807932553762
 20
2.278176539603389
 10
2.497807932553762
 20
2.677506344967701
 10
2.497807932553762
 20
3.137733945650069
 10
2.497807932553762
 20
3.636896202355456
 10
2.497807932553762
 20
4.416587647329274
 10
2.497807932553762
 20
4.576319569474998
 10
2.497807932553762
 20
4.716085001352507
 10
2.497807932553762
 20
4.8358839429618
 10
2.497807932553762
 20
4.915749904034662
 10
2.497807932553762
 20
4.995615865107524
 10
2.497807932553762
 20
5.096446640962012
 10
2.497807932553762
 20
5.41591048525346
 10
2.497807932553762
 20
5.515742936594538
 10
2.497807932553762
 20
5.615575387935615
 10
2.497807932553762
 20
5.675474858740262
 10
2.497807932553762
 20
5.795273800349555
 10
2.497807932553762
 20
5.935039232227065
 10
2.497807932553762
 20
6.094771154372789
 10
2.497807932553762
 20
6.295434381568355
 10
2.497807932553762
 20
6.455166303714079
 10
2.497807932553762
 20
6.594931735591588
 10
2.497807932553762
 20
6.714730677200881
 10
2.497807932553762
 20
6.774630148005527
 10
2.497807932553762
 20
6.874462599346605
 10
2.497807932553762
 20
6.974295050687683
 10
2.497807932553762
 20
7.294757219492542
 10
2.497807932553762
 20
7.394589670833619
 10
2.497807932553762
 20
7.494422122174697
 10
2.497807932553762
 20
7.554321592979343
 10
2.497807932553762
 20
7.674120534588636
 10
2.497807932553762
 20
7.813885966466147
 10
2.497807932553762
 20
7.973617888611871
 10
2.497807932553762
 20
8.173282791294026
 10
2.497807932553762
 20
8.334013037953161
 10
2.497807932553762
 20
8.473778469830669
 10
2.497807932553762
 20
8.593577411439962
 10
2.497807932553762
 20
8.653476882244609
 10
2.497807932553762
 20
8.753309333585686
 10
2.497807932553762
 20
8.853141784926764
 10
2.497807932553762
 20
9.172605629218212
  0
LWPOLYLINE
  5
41
100
AcDbEntity
  8
USP-GEO
100
AcDbPolyline
 90
       41
 70
   128
 43
0.0
 10
6.333370713077965
 20
0.618961198314679
 10
6.333370713077965
 20
2.278176539603389
 10
6.333370713077965
 20
2.677506344967701
 10
6.333370713077965
 20
3.137733945650069
 10
6.333370713077965
 20
3.636896202355456
 10
6.333370713077965
 20
4.416587647329274
 10
6.333370713077965
 20
4.576319569474998
 10
6.333370713077965
 20
4.716085001352507
 10
6.333370713077965
 20
4.8358839429618
 10
6.333370713077965
 20
4.915749904034662
 10
6.333370713077965
 20
4.995615865107524
 10
6.333370713077965
 20
5.096446640962012
 10
6.333370713077965
 20
5.41591048525346
 10
6.333370713077965
 20
5.515742936594538
 10
6.333370713077965
 20
5.615575387935615
 10
6.333370713077965
 20
5.675474858740262
 10
6.333370713077965
 20
5.795273800349555
 10
6.333370713077965
 20
5.935039232227065
 10
6.333370713077965
 20
6.094771154372789
 10
6.333370713077965
 20
6.295434381568355
 10
6.333370713077965
 20
6.455166303714079
 10
6.333370713077965
 20
6.594931735591588
 10
6.333370713077965
 20
6.714730677200881
 10
6.333370713077965
 20
6.774630148005527
 10
6.333370713077965
 20
6.874462599346605
 10
6.333370713077965
 20
6.974295050687683
 10
6.333370713077965
 20
7.294757219492542
 10
6.333370713077965
 20
7.394589670833619
 10
6.333370713077965
 20
7.494422122174697
 10
6.333370713077965
 20
7.554321592979343
 10
6.333370713077965
 20
7.674120534588636
 10
6.333370713077965
 20
7.813885966466147
 10
6.333370713077965
 20
7.973617888611871
 10
6.333370713077965
 20
8.173282791294026
 10
6.333370713077965
 20
8.334013037953161
 10
6.333370713077965
 20
8.473778469830669
 10
6.333370713077965
 20
8.593577411439962
 10
6.333370713077965
 20
8.653476882244609
 10
6.333370713077965
 20
8.753309333585686
 10
6.333370713077965
 20
8.853141784926764
 10
6.333370713077965
 20
9.172605629218212
  0
LWPOLYLINE
  5
42
100
AcDbEntity
  8
USP-GEO
100
AcDbPolyline
 90
        8
 70
   128
 43
0.0
 10
6.233538261736889
 20
8.593577411439962
 10
6.233538261736889
 20
8.473778469830669
 10
6.233538261736889
 20
8.334013037953161
 10
6.233538261736889
 20
8.173282791294026
 10
6.333370713077965
 20
8.173282791294026
 10
6.333370713077965
 20
8.334013037953161
 10
6.333370713077965
 20
8.473778469830669
 10
6.333370713077965
 20
8.593577411439962
  0
LWPOLYLINE
  5
43
100
AcDbEntity
  8
USP-GEO
100
AcDbPolyline
 90
       12
 70
   129
 43
0.0
 10
0.9793563476559725
 20
8.334013037953161
 10
0.9793563476559725
 20
8.29408005741673
 10
0.9793563476559725
 20
8.254147076880299
 10
0.9394233671195415
 20
8.213215771830457
 10
0.8994903865831105
 20
8.193249281562241
 10
0.8395909157784622
 20
8.213215771830457
 10
0.8196244255102484
 20
8.254147076880299
 10
0.7996579352420313
 20
8.29408005741673
 10
0.8196244255102484
 20
8.334013037953161
 10
0.8395909157784622
 20
8.373946018489592
 10
0.8994903865831105
 20
8.373946018489592
 10
0.9394233671195415
 20
8.373946018489592
  0
LWPOLYLINE
  5
44
100
AcDbEntity
  8
USP-GEO
100
AcDbPolyline
 90
        8
 70
   128
 43
0.0
 10
2.497807932553762
 20
8.173282791294026
 10
2.497807932553762
 20
8.334013037953161
 10
2.497807932553762
 20
8.473778469830669
 10
2.497807932553762
 20
8.593577411439962
 10
2.617606874163055
 20
8.593577411439962
 10
2.617606874163055
 20
8.473778469830669
 10
2.617606874163055
 20
8.334013037953161
 10
2.617606874163055
 20
8.173282791294026
  0
LWPOLYLINE
  5
45
100
AcDbEntity
  8
USP-GEO
100
AcDbPolyline
 90
       12
 70
   129
 43
0.0
 10
6.53303561576012
 20
8.234180586612083
 10
6.53303561576012
 20
8.193249281562241
 10
6.513069125491906
 20
8.15331630102581
 10
6.473136144955475
 20
8.15331630102581
 10
6.453169654687258
 20
8.15331630102581
 10
6.433203164419044
 20
8.193249281562241
 10
6.433203164419044
 20
8.234180586612083
 10
6.433203164419044
 20
8.274113567148514
 10
6.453169654687258
 20
8.29408005741673
 10
6.473136144955475
 20
8.314046547684945
 10
6.513069125491906
 20
8.29408005741673
 10
6.53303561576012
 20
8.274113567148514
  0
LWPOLYLINE
  5
46
100
AcDbEntity
  8
USP-GEO
100
AcDbPolyline
 90
        5
 70
   128
 43
0.0
 10
6.433203164419044
 20
8.274113567148514
 10
6.453169654687258
 20
8.274113567148514
 10
6.453169654687258
 20
8.234180586612083
 10
6.453169654687258
 20
8.193249281562241
 10
6.433203164419044
 20
8.173282791294026
  0
LWPOLYLINE
  5
47
100
AcDbEntity
  8
USP-GEO
100
AcDbPolyline
 90
        7
 70
   128
 43
0.0
 10
6.333370713077965
 20
7.893751927539009
 10
6.413236674150827
 20
7.913718417807224
 10
6.53303561576012
 20
8.053483849684733
 10
6.592935086564768
 20
8.234180586612083
 10
6.53303561576012
 20
8.413878999026023
 10
6.413236674150827
 20
8.533677940635316
 10
6.333370713077965
 20
8.573610921171747
  0
LWPOLYLINE
  5
48
100
AcDbEntity
  8
USP-GEO
100
AcDbPolyline
 90
        7
 70
   128
 43
0.0
 10
2.497807932553762
 20
8.373946018489592
 10
2.437908461749117
 20
8.353979528221376
 10
2.298143029871607
 20
8.213215771830457
 10
2.258210049335175
 20
8.033517359416517
 10
2.298143029871607
 20
7.873785437270793
 10
2.437908461749117
 20
7.734020005393283
 10
2.497807932553762
 20
7.694087024856852
  0
TEXT
  5
49
100
AcDbEntity
  8
USP-TXT
100
AcDbText
 10
1.521058072815864
 20
-1.780014246979089
 30
0.0
 40
0.296875
  1
THDH410 - FRONT VIEW
 72
     1
 11
4.415589322815863
 21
-1.780014246979089
 31
0.0
100
AcDbText
  0
LWPOLYLINE
  5
4A
100
AcDbEntity
  8
USP-GEO
100
AcDbPolyline
 90
        6
 70
   128
 43
0.0
 10
5.234215423812702
 20
0.0998324513410758
 10
5.234215423812702
 20
0.0
 10
5.274148404349134
 20
0.0
 10
5.294114894617347
 20
0.0
 10
6.233538261736889
 20
0.0
 10
6.233538261736889
 20
0.0998324513410758
  0
LWPOLYLINE
  5
4B
100
AcDbEntity
  8
USP-GEO
100
AcDbPolyline
 90
       10
 70
   128
 43
0.0
 10
6.233538261736889
 20
0.0998324513410758
 10
5.294114894617347
 20
0.0998324513410758
 10
5.274148404349134
 20
0.0998324513410758
 10
5.234215423812702
 20
0.0998324513410758
 10
4.994617540594113
 20
0.0998324513410758
 10
4.954684560057682
 20
0.0998324513410758
 10
4.934718069789468
 20
0.0998324513410758
 10
4.914751579521251
 20
0.0998324513410758
 10
3.916427066110475
 20
0.0998324513410758
 10
3.917425390623886
 20
0.0998324513410758
  0
LWPOLYLINE
  5
4C
100
AcDbEntity
  8
USP-GEO
100
AcDbPolyline
 90
       17
 70
   128
 43
0.0
 10
6.333370713077965
 20
0.0
 10
6.233538261736889
 20
0.0
 10
5.294114894617347
 20
0.0
 10
5.274148404349134
 20
0.0
 10
5.234215423812702
 20
0.0
 10
4.994617540594113
 20
0.0
 10
4.954684560057682
 20
0.0
 10
4.934718069789468
 20
0.0
 10
4.914751579521251
 20
0.0
 10
3.916427066110475
 20
0.0
 10
3.896460575842262
 20
0.0
 10
3.856527595305831
 20
0.0
 10
3.615931387573834
 20
0.0
 10
3.575998407037403
 20
0.0
 10
3.556031916769185
 20
0.0
 10
2.617606874163055
 20
0.0
 10
2.618605198676466
 20
0.0
  0
LWPOLYLINE
  5
4D
100
AcDbEntity
  8
USP-GEO
100
AcDbPolyline
 90
        2
 70
   128
 43
0.0
 10
0.8994903865831105
 20
2.278176539603389
 10
2.298143029871607
 20
0.7587266301921894
  0
LWPOLYLINE
  5
4E
100
AcDbEntity
  8
USP-GEO
100
AcDbPolyline
 90
        4
 70
   128
 43
0.0
 10
2.617606874163055
 20
0.618961198314679
 10
2.617606874163055
 20
2.278176539603389
 10
2.497807932553762
 20
2.278176539603389
 10
2.497807932553762
 20
0.618961198314679
  0
LWPOLYLINE
  5
4F
100
AcDbEntity
  8
USP-GEO
100
AcDbPolyline
 90
        7
 70
   128
 43
0.0
 10
2.497807932553762
 20
1.69814999731173
 10
2.437908461749117
 20
1.718116487579944
 10
2.298143029871607
 20
1.857881919457454
 10
2.258210049335175
 20
2.038578656384803
 10
2.298143029871607
 20
2.218277068798744
 10
2.437908461749117
 20
2.338076010408038
 10
2.497807932553762
 20
2.378008990944469
  0
LWPOLYLINE
  5
50
100
AcDbEntity
  8
USP-GEO
100
AcDbPolyline
 90
       12
 70
   129
 43
0.0
 10
2.397975481212686
 20
2.098478127189451
 10
2.4179419714809
 20
2.078511636921234
 10
2.4179419714809
 20
2.038578656384803
 10
2.4179419714809
 20
1.998645675848372
 10
2.397975481212686
 20
1.958712695311941
 10
2.358042500676255
 20
1.958712695311941
 10
2.338076010408038
 20
1.958712695311941
 10
2.318109520139824
 20
1.998645675848372
 10
2.318109520139824
 20
2.038578656384803
 10
2.318109520139824
 20
2.078511636921234
 10
2.338076010408038
 20
2.098478127189451
 10
2.358042500676255
 20
2.118444617457665
  0
LWPOLYLINE
  5
51
100
AcDbEntity
  8
USP-GEO
100
AcDbPolyline
 90
        4
 70
   128
 43
0.0
 10
2.617606874163055
 20
0.0998324513410758
 10
2.617606874163055
 20
0.0
 10
3.556031916769185
 20
0.0
 10
3.556031916769185
 20
0.0998324513410758
  0
LWPOLYLINE
  5
52
100
AcDbEntity
  8
USP-GEO
100
AcDbPolyline
 90
        9
 70
   128
 43
0.0
 10
4.914751579521251
 20
0.0
 10
3.916427066110475
 20
0.0
 10
3.916427066110475
 20
0.0998324513410758
 10
3.896460575842262
 20
0.0998324513410758
 10
3.856527595305831
 20
0.0998324513410758
 10
3.615931387573834
 20
0.0998324513410758
 10
3.575998407037403
 20
0.0998324513410758
 10
3.556031916769185
 20
0.0998324513410758
 10
2.617606874163055
 20
0.0998324513410758
  0
LWPOLYLINE
  5
53
100
AcDbEntity
  8
USP-GEO
100
AcDbPolyline
 90
        8
 70
   129
 43
0.0
 10
2.497807932553762
 20
0.459229276168955
 10
2.497807932553762
 20
0.2795308637550171
 10
2.497807932553762
 20
0.0998324513410758
 10
2.617606874163055
 20
0.0998324513410758
 10
2.617606874163055
 20
0.2795308637550171
 10
2.617606874163055
 20
0.459229276168955
 10
2.617606874163055
 20
0.618961198314679
 10
2.497807932553762
 20
0.618961198314679
  0
LWPOLYLINE
  5
54
100
AcDbEntity
  8
USP-GEO
100
AcDbPolyline
 90
        2
 70
   128
 43
0.0
 10
2.497807932553762
 20
0.0998324513410758
 10
2.497807932553762
 20
0.0
  0
LWPOLYLINE
  5
55
100
AcDbEntity
  8
USP-GEO
100
AcDbPolyline
 90
        2
 70
   129
 43
0.0
 10
2.618605198676466
 20
0.0
 10
2.617606874163055
 20
0.0
  0
LWPOLYLINE
  5
56
100
AcDbEntity
  8
USP-GEO
100
AcDbPolyline
 90
        2
 70
   128
 43
0.0
 10
2.497807932553762
 20
0.0
 10
2.617606874163055
 20
0.0
  0
LWPOLYLINE
  5
57
100
AcDbEntity
  8
USP-GEO
100
AcDbPolyline
 90
        2
 70
   129
 43
0.0
 10
2.618605198676466
 20
0.0998324513410758
 10
2.617606874163055
 20
0.0998324513410758
  0
LWPOLYLINE
  5
58
100
AcDbEntity
  8
USP-GEO
100
AcDbPolyline
 90
        2
 70
   128
 43
0.0
 10
2.497807932553762
 20
1.458552114093144
 10
2.4179419714809
 20
1.458552114093144
  0
LWPOLYLINE
  5
59
100
AcDbEntity
  8
USP-GEO
100
AcDbPolyline
 90
        8
 70
   128
 43
0.0
 10
2.497807932553762
 20
1.458552114093144
 10
2.4179419714809
 20
1.458552114093144
 10
2.378008990944469
 20
1.458552114093144
 10
2.338076010408038
 20
1.498485094629575
 10
2.338076010408038
 20
1.538418075166006
 10
2.338076010408038
 20
1.578351055702437
 10
2.378008990944469
 20
1.618284036238868
 10
2.4179419714809
 20
1.618284036238868
  0
LWPOLYLINE
  5
5A
100
AcDbEntity
  8
USP-GEO
100
AcDbPolyline
 90
        2
 70
   129
 43
0.0
 10
2.497807932553762
 20
1.618284036238868
 10
2.4179419714809
 20
1.618284036238868
  0
LWPOLYLINE
  5
5B
100
AcDbEntity
  8
USP-GEO
100
AcDbPolyline
 90
        4
 70
   128
 43
0.0
 10
2.497807932553762
 20
0.5191287469736033
 10
2.477841442285548
 20
0.539095237241817
 10
2.457874952017331
 20
0.579028217778248
 10
2.437908461749117
 20
0.5989947080464653
  0
LWPOLYLINE
  5
5C
100
AcDbEntity
  8
USP-GEO
100
AcDbPolyline
 90
        7
 70
   128
 43
0.0
 10
2.497807932553762
 20
0.579028217778248
 10
2.437908461749117
 20
0.5989947080464653
 10
2.298143029871607
 20
0.7387601399239721
 10
2.258210049335175
 20
0.9194568768513242
 10
2.298143029871607
 20
1.079188798997048
 10
2.437908461749117
 20
1.218954230874558
 10
2.497807932553762
 20
1.258887211410989
  0
LWPOLYLINE
  5
5D
100
AcDbEntity
  8
USP-GEO
100
AcDbPolyline
 90
        5
 70
   128
 43
0.0
 10
2.397975481212686
 20
0.8595574060466759
 10
2.397975481212686
 20
0.8795238963148932
 10
2.378008990944469
 20
0.9194568768513242
 10
2.397975481212686
 20
0.9394233671195379
 10
2.397975481212686
 20
0.9593898573877552
  0
LWPOLYLINE
  5
5E
100
AcDbEntity
  8
USP-GEO
100
AcDbPolyline
 90
       12
 70
   129
 43
0.0
 10
2.397975481212686
 20
0.979356347655969
 10
2.4179419714809
 20
0.9394233671195379
 10
2.4179419714809
 20
0.9194568768513242
 10
2.4179419714809
 20
0.8795238963148932
 10
2.397975481212686
 20
0.8395909157784622
 10
2.358042500676255
 20
0.8395909157784622
 10
2.338076010408038
 20
0.8395909157784622
 10
2.318109520139824
 20
0.8795238963148932
 10
2.318109520139824
 20
0.9194568768513242
 10
2.318109520139824
 20
0.9394233671195379
 10
2.338076010408038
 20
0.979356347655969
 10
2.358042500676255
 20
0.979356347655969
  0
LWPOLYLINE
  5
5F
100
AcDbEntity
  8
USP-GEO
100
AcDbPolyline
 90
        3
 70
   128
 43
0.0
 10
3.856527595305831
 20
0.0
 10
3.615931387573834
 20
0.0
 10
3.615931387573834
 20
0.0998324513410758
  0
LWPOLYLINE
  5
60
100
AcDbEntity
  8
USP-GEO
100
AcDbPolyline
 90
        4
 70
   128
 43
0.0
 10
3.615931387573834
 20
0.0
 10
3.575998407037403
 20
0.0
 10
3.556031916769185
 20
0.0
 10
3.557030241282596
 20
0.0
  0
LWPOLYLINE
  5
61
100
AcDbEntity
  8
USP-GEO
100
AcDbPolyline
 90
        5
 70
   128
 43
0.0
 10
3.856527595305831
 20
0.0998324513410758
 10
3.856527595305831
 20
0.0
 10
3.896460575842262
 20
0.0
 10
3.916427066110475
 20
0.0
 10
3.917425390623886
 20
0.0
  0
LWPOLYLINE
  5
62
100
AcDbEntity
  8
USP-GEO
100
AcDbPolyline
 90
        3
 70
   128
 43
0.0
 10
5.234215423812702
 20
0.0
 10
4.994617540594113
 20
0.0
 10
4.994617540594113
 20
0.0998324513410758
  0
LWPOLYLINE
  5
63
100
AcDbEntity
  8
USP-GEO
100
AcDbPolyline
 90
        5
 70
   128
 43
0.0
 10
4.994617540594113
 20
0.0
 10
4.954684560057682
 20
0.0
 10
4.934718069789468
 20
0.0
 10
4.914751579521251
 20
0.0
 10
4.914751579521251
 20
0.0998324513410758
  0
LWPOLYLINE
  5
64
100
AcDbEntity
  8
USP-GEO
100
AcDbPolyline
 90
        4
 70
   128
 43
0.0
 10
5.295113219130758
 20
0.0998324513410758
 10
5.294114894617347
 20
0.0998324513410758
 10
5.294114894617347
 20
0.0
 10
5.295113219130758
 20
0.0
  0
LWPOLYLINE
  5
65
100
AcDbEntity
  8
USP-GEO
100
AcDbPolyline
 90
        8
 70
   128
 43
0.0
 10
2.497807932553762
 20
5.015582355375739
 10
2.4179419714809
 20
5.015582355375739
 10
2.378008990944469
 20
5.035548845643955
 10
2.338076010408038
 20
5.056513660425581
 10
2.338076010408038
 20
5.096446640962012
 10
2.338076010408038
 20
5.136379621498443
 10
2.378008990944469
 20
5.176312602034874
 10
2.4179419714809
 20
5.19627909230309
  0
LWPOLYLINE
  5
66
100
AcDbEntity
  8
USP-GEO
100
AcDbPolyline
 90
        8
 70
   128
 43
0.0
 10
2.617606874163055
 20
4.8358839429618
 10
2.617606874163055
 20
4.915749904034662
 10
2.617606874163055
 20
4.995615865107524
 10
2.617606874163055
 20
5.096446640962012
 10
2.497807932553762
 20
5.096446640962012
 10
2.497807932553762
 20
4.995615865107524
 10
2.497807932553762
 20
4.915749904034662
 10
2.497807932553762
 20
4.8358839429618
  0
LWPOLYLINE
  5
67
100
AcDbEntity
  8
USP-GEO
100
AcDbPolyline
 90
       12
 70
   129
 43
0.0
 10
0.9793563476559725
 20
2.99796851377256
 10
0.9394233671195415
 20
2.958035533236129
 10
0.8994903865831105
 20
2.958035533236129
 10
0.8395909157784622
 20
2.958035533236129
 10
0.8196244255102484
 20
2.99796851377256
 10
0.7996579352420313
 20
3.037901494308991
 10
0.8196244255102484
 20
3.097800965113638
 10
0.8395909157784622
 20
3.117767455381853
 10
0.8994903865831105
 20
3.137733945650069
 10
0.9394233671195415
 20
3.117767455381853
 10
0.9793563476559725
 20
3.097800965113638
 10
0.9793563476559725
 20
3.037901494308991
  0
LWPOLYLINE
  5
68
100
AcDbEntity
  8
USP-GEO
100
AcDbPolyline
 90
        9
 70
   128
 43
0.0
 10
1.418619133556713
 20
2.238243559066958
 10
1.478518604361362
 20
2.238243559066958
 10
1.518451584897793
 20
2.238243559066958
 10
1.538418075166006
 20
2.198310578530527
 10
1.558384565434224
 20
2.158377597994096
 10
1.538418075166006
 20
2.118444617457665
 10
1.518451584897793
 20
2.078511636921234
 10
1.478518604361362
 20
2.05854514665302
 10
1.418619133556713
 20
2.078511636921234
  0
LWPOLYLINE
  5
69
100
AcDbEntity
  8
USP-GEO
100
AcDbPolyline
 90
        2
 70
   128
 43
0.0
 10
1.378686153020282
 20
2.158377597994096
 10
1.398652643288496
 20
2.198310578530527
  0
LWPOLYLINE
  5
6A
100
AcDbEntity
  8
USP-GEO
100
AcDbPolyline
 90
        5
 70
   128
 43
0.0
 10
1.418619133556713
 20
2.078511636921234
 10
1.398652643288496
 20
2.118444617457665
 10
1.378686153020282
 20
2.158377597994096
 10
1.398652643288496
 20
2.198310578530527
 10
1.418619133556713
 20
2.238243559066958
  0
LWPOLYLINE
  5
6B
100
AcDbEntity
  8
USP-GEO
100
AcDbPolyline
 90
        9
 70
   128
 43
0.0
 10
1.418619133556713
 20
3.477164280209732
 10
1.478518604361362
 20
3.497130770477948
 10
1.518451584897793
 20
3.477164280209732
 10
1.538418075166006
 20
3.457197789941517
 10
1.558384565434224
 20
3.39729831913687
 10
1.538418075166006
 20
3.357365338600439
 10
1.518451584897793
 20
3.317432358064008
 10
1.478518604361362
 20
3.317432358064008
 10
1.418619133556713
 20
3.317432358064008
  0
LWPOLYLINE
  5
6C
100
AcDbEntity
  8
USP-GEO
100
AcDbPolyline
 90
        5
 70
   128
 43
0.0
 10
1.418619133556713
 20
3.477164280209732
 10
1.398652643288496
 20
3.457197789941517
 10
1.378686153020282
 20
3.39729831913687
 10
1.398652643288496
 20
3.357365338600439
 10
1.418619133556713
 20
3.317432358064008
  0
LWPOLYLINE
  5
6D
100
AcDbEntity
  8
USP-GEO
100
AcDbPolyline
 90
        2
 70
   128
 43
0.0
 10
1.518451584897793
 20
3.317432358064008
 10
1.478518604361362
 20
3.317432358064008
  0
LWPOLYLINE
  5
6E
100
AcDbEntity
  8
USP-GEO
100
AcDbPolyline
 90
       12
 70
   129
 43
0.0
 10
0.9793563476559725
 20
4.25685572518355
 10
0.9394233671195415
 20
4.216922744647119
 10
0.8994903865831105
 20
4.196956254378903
 10
0.8395909157784622
 20
4.216922744647119
 10
0.8196244255102484
 20
4.25685572518355
 10
0.7996579352420313
 20
4.296788705719981
 10
0.8196244255102484
 20
4.336721686256412
 10
0.8395909157784622
 20
4.376654666792843
 10
0.8994903865831105
 20
4.376654666792843
 10
0.9394233671195415
 20
4.376654666792843
 10
0.9793563476559725
 20
4.336721686256412
 10
0.9793563476559725
 20
4.296788705719981
  0
LWPOLYLINE
  5
6F
100
AcDbEntity
  8
USP-GEO
100
AcDbPolyline
 90
        2
 70
   128
 43
0.0
 10
0.8395909157784622
 20
4.376654666792843
 10
0.8994903865831105
 20
4.376654666792843
  0
LWPOLYLINE
  5
70
100
AcDbEntity
  8
USP-GEO
100
AcDbPolyline
 90
        9
 70
   128
 43
0.0
 10
1.418619133556713
 20
4.736051491620722
 10
1.478518604361362
 20
4.736051491620722
 10
1.518451584897793
 20
4.736051491620722
 10
1.538418075166006
 20
4.696118511084291
 10
1.558384565434224
 20
4.65618553054786
 10
1.538418075166006
 20
4.616252550011429
 10
1.518451584897793
 20
4.576319569474998
 10
1.478518604361362
 20
4.556353079206783
 10
1.418619133556713
 20
4.576319569474998
  0
LWPOLYLINE
  5
71
100
AcDbEntity
  8
USP-GEO
100
AcDbPolyline
 90
        5
 70
   128
 43
0.0
 10
1.418619133556713
 20
4.736051491620722
 10
1.398652643288496
 20
4.696118511084291
 10
1.378686153020282
 20
4.65618553054786
 10
1.398652643288496
 20
4.616252550011429
 10
1.418619133556713
 20
4.576319569474998
  0
LWPOLYLINE
  5
72
100
AcDbEntity
  8
USP-GEO
100
AcDbPolyline
 90
        8
 70
   128
 43
0.0
 10
2.617606874163055
 20
2.278176539603389
 10
2.617606874163055
 20
2.677506344967701
 10
2.617606874163055
 20
3.137733945650069
 10
2.617606874163055
 20
3.636896202355456
 10
2.497807932553762
 20
3.636896202355456
 10
2.497807932553762
 20
3.137733945650069
 10
2.497807932553762
 20
2.677506344967701
 10
2.497807932553762
 20
2.278176539603389
  0
LWPOLYLINE
  5
73
100
AcDbEntity
  8
USP-GEO
100
AcDbPolyline
 90
        7
 70
   128
 43
0.0
 10
2.497807932553762
 20
2.81727177684521
 10
2.437908461749117
 20
2.857204757381641
 10
2.298143029871607
 20
2.978002023504345
 10
2.258210049335175
 20
3.157700435918284
 10
2.298143029871607
 20
3.337398848332224
 10
2.437908461749117
 20
3.477164280209732
 10
2.497807932553762
 20
3.497130770477948
  0
LWPOLYLINE
  5
74
100
AcDbEntity
  8
USP-GEO
100
AcDbPolyline
 90
        2
 70
   128
 43
0.0
 10
1.977680861066748
 20
2.697472835235917
 10
2.137412783212472
 20
2.697472835235917
  0
LWPOLYLINE
  5
75
100
AcDbEntity
  8
USP-GEO
100
AcDbPolyline
 90
        2
 70
   128
 43
0.0
 10
2.137412783212472
 20
2.517774422821977
 10
1.977680861066748
 20
2.517774422821977
  0
LWPOLYLINE
  5
76
100
AcDbEntity
  8
USP-GEO
100
AcDbPolyline
 90
       14
 70
   129
 43
0.0
 10
2.238243559066962
 20
2.617606874163055
 10
2.218277068798744
 20
2.577673893626624
 10
2.178344088262313
 20
2.537740913090193
 10
2.137412783212472
 20
2.517774422821977
 10
1.977680861066748
 20
2.517774422821977
 10
1.917781390262103
 20
2.537740913090193
 10
1.897814899993885
 20
2.577673893626624
 10
1.877848409725672
 20
2.617606874163055
 10
1.897814899993885
 20
2.657539854699486
 10
1.917781390262103
 20
2.677506344967701
 10
1.977680861066748
 20
2.697472835235917
 10
2.137412783212472
 20
2.697472835235917
 10
2.178344088262313
 20
2.677506344967701
 10
2.218277068798744
 20
2.657539854699486
  0
LWPOLYLINE
  5
77
100
AcDbEntity
  8
USP-GEO
100
AcDbPolyline
 90
        5
 70
   128
 43
0.0
 10
2.397975481212686
 20
1.978679185580158
 10
2.397975481212686
 20
1.998645675848372
 10
2.378008990944469
 20
2.038578656384803
 10
2.397975481212686
 20
2.078511636921234
 10
2.398973805726097
 20
2.078511636921234
  0
LWPOLYLINE
  5
78
100
AcDbEntity
  8
USP-GEO
100
AcDbPolyline
 90
        5
 70
   128
 43
0.0
 10
2.398973805726097
 20
3.117767455381853
 10
2.397975481212686
 20
3.117767455381853
 10
2.378008990944469
 20
3.157700435918284
 10
2.397975481212686
 20
3.197633416454715
 10
2.397975481212686
 20
3.217599906722931
  0
LWPOLYLINE
  5
79
100
AcDbEntity
  8
USP-GEO
100
AcDbPolyline
 90
       12
 70
   129
 43
0.0
 10
2.397975481212686
 20
3.237566396991146
 10
2.4179419714809
 20
3.197633416454715
 10
2.4179419714809
 20
3.157700435918284
 10
2.4179419714809
 20
3.117767455381853
 10
2.397975481212686
 20
3.097800965113638
 10
2.358042500676255
 20
3.077834474845422
 10
2.338076010408038
 20
3.097800965113638
 10
2.318109520139824
 20
3.117767455381853
 10
2.318109520139824
 20
3.157700435918284
 10
2.318109520139824
 20
3.197633416454715
 10
2.338076010408038
 20
3.237566396991146
 10
2.358042500676255
 20
3.237566396991146
  0
LWPOLYLINE
  5
7A
100
AcDbEntity
  8
USP-GEO
100
AcDbPolyline
 90
        4
 70
   128
 43
0.0
 10
2.338076010408038
 20
3.377331828868655
 10
2.338076010408038
 20
3.39729831913687
 10
2.378008990944469
 20
3.417264809405086
 10
2.397975481212686
 20
3.437231299673301
  0
LWPOLYLINE
  5
7B
100
AcDbEntity
  8
USP-GEO
100
AcDbPolyline
 90
        2
 70
   128
 43
0.0
 10
2.497807932553762
 20
5.015582355375739
 10
2.4179419714809
 20
5.015582355375739
  0
LWPOLYLINE
  5
7C
100
AcDbEntity
  8
USP-GEO
100
AcDbPolyline
 90
        7
 70
   128
 43
0.0
 10
2.497807932553762
 20
3.956360046646906
 10
2.437908461749117
 20
3.976326536915122
 10
2.298143029871607
 20
4.117090293306041
 10
2.258210049335175
 20
4.296788705719981
 10
2.298143029871607
 20
4.456520627865705
 10
2.437908461749117
 20
4.596286059743214
 10
2.497807932553762
 20
4.636219040279645
  0
LWPOLYLINE
  5
7D
100
AcDbEntity
  8
USP-GEO
100
AcDbPolyline
 90
       14
 70
   129
 43
0.0
 10
2.238243559066962
 20
4.356688176524627
 10
2.218277068798744
 20
4.396621157061058
 10
2.178344088262313
 20
4.436554137597489
 10
2.137412783212472
 20
4.456520627865705
 10
1.977680861066748
 20
4.456520627865705
 10
1.917781390262103
 20
4.436554137597489
 10
1.897814899993885
 20
4.396621157061058
 10
1.877848409725672
 20
4.356688176524627
 10
1.897814899993885
 20
4.316755195988196
 10
1.917781390262103
 20
4.296788705719981
 10
1.977680861066748
 20
4.276822215451765
 10
2.137412783212472
 20
4.276822215451765
 10
2.178344088262313
 20
4.296788705719981
 10
2.218277068798744
 20
4.316755195988196
  0
LWPOLYLINE
  5
7E
100
AcDbEntity
  8
USP-GEO
100
AcDbPolyline
 90
        5
 70
   128
 43
0.0
 10
2.397975481212686
 20
4.236889234915334
 10
2.397975481212686
 20
4.25685572518355
 10
2.378008990944469
 20
4.296788705719981
 10
2.397975481212686
 20
4.336721686256412
 10
2.398973805726097
 20
4.336721686256412
  0
LWPOLYLINE
  5
7F
100
AcDbEntity
  8
USP-GEO
100
AcDbPolyline
 90
       12
 70
   129
 43
0.0
 10
2.397975481212686
 20
4.356688176524627
 10
2.4179419714809
 20
4.336721686256412
 10
2.4179419714809
 20
4.296788705719981
 10
2.4179419714809
 20
4.25685572518355
 10
2.397975481212686
 20
4.216922744647119
 10
2.358042500676255
 20
4.216922744647119
 10
2.338076010408038
 20
4.216922744647119
 10
2.318109520139824
 20
4.25685572518355
 10
2.318109520139824
 20
4.296788705719981
 10
2.318109520139824
 20
4.336721686256412
 10
2.338076010408038
 20
4.356688176524627
 10
2.358042500676255
 20
4.356688176524627
  0
LWPOLYLINE
  5
80
100
AcDbEntity
  8
USP-GEO
100
AcDbPolyline
 90
        2
 70
   128
 43
0.0
 10
2.137412783212472
 20
4.276822215451765
 10
1.977680861066748
 20
4.276822215451765
  0
LWPOLYLINE
  5
81
100
AcDbEntity
  8
USP-GEO
100
AcDbPolyline
 90
        2
 70
   128
 43
0.0
 10
1.977680861066748
 20
4.456520627865705
 10
2.137412783212472
 20
4.456520627865705
  0
LWPOLYLINE
  5
82
100
AcDbEntity
  8
USP-GEO
100
AcDbPolyline
 90
        2
 70
   128
 43
0.0
 10
2.378008990944469
 20
5.035548845643955
 10
2.338076010408038
 20
5.056513660425581
  0
LWPOLYLINE
  5
83
100
AcDbEntity
  8
USP-GEO
100
AcDbPolyline
 90
        4
 70
   128
 43
0.0
 10
2.617606874163055
 20
3.636896202355456
 10
2.617606874163055
 20
4.416587647329274
 10
2.497807932553762
 20
4.416587647329274
 10
2.497807932553762
 20
3.636896202355456
  0
LWPOLYLINE
  5
84
100
AcDbEntity
  8
USP-GEO
100
AcDbPolyline
 90
        8
 70
   128
 43
0.0
 10
2.497807932553762
 20
4.416587647329274
 10
2.497807932553762
 20
4.576319569474998
 10
2.497807932553762
 20
4.716085001352507
 10
2.497807932553762
 20
4.8358839429618
 10
2.617606874163055
 20
4.8358839429618
 10
2.617606874163055
 20
4.716085001352507
 10
2.617606874163055
 20
4.576319569474998
 10
2.617606874163055
 20
4.416587647329274
  0
LWPOLYLINE
  5
85
100
AcDbEntity
  8
USP-GEO
100
AcDbPolyline
 90
       12
 70
   129
 43
0.0
 10
0.9793563476559725
 20
6.67479769666445
 10
0.9793563476559725
 20
6.634864716128019
 10
0.9394233671195415
 20
6.594931735591588
 10
0.8994903865831105
 20
6.574965245323372
 10
0.8395909157784622
 20
6.594931735591588
 10
0.8196244255102484
 20
6.634864716128019
 10
0.7996579352420313
 20
6.67479769666445
 10
0.8196244255102484
 20
6.714730677200881
 10
0.8395909157784622
 20
6.754663657737312
 10
0.8994903865831105
 20
6.754663657737312
 10
0.9394233671195415
 20
6.754663657737312
 10
0.9793563476559725
 20
6.714730677200881
  0
LWPOLYLINE
  5
86
100
AcDbEntity
  8
USP-GEO
100
AcDbPolyline
 90
       12
 70
   129
 43
0.0
 10
0.9793563476559725
 20
5.635541878203831
 10
0.9793563476559725
 20
5.575642407399184
 10
0.9394233671195415
 20
5.555675917130969
 10
0.8994903865831105
 20
5.535709426862753
 10
0.8395909157784622
 20
5.555675917130969
 10
0.8196244255102484
 20
5.575642407399184
 10
0.7996579352420313
 20
5.635541878203831
 10
0.8196244255102484
 20
5.675474858740262
 10
0.8395909157784622
 20
5.715407839276693
 10
0.8994903865831105
 20
5.715407839276693
 10
0.9394233671195415
 20
5.715407839276693
 10
0.9793563476559725
 20
5.675474858740262
  0
LWPOLYLINE
  5
87
100
AcDbEntity
  8
USP-GEO
100
AcDbPolyline
 90
        2
 70
   128
 43
0.0
 10
0.9394233671195415
 20
5.715407839276693
 10
0.9793563476559725
 20
5.675474858740262
  0
LWPOLYLINE
  5
88
100
AcDbEntity
  8
USP-GEO
100
AcDbPolyline
 90
        4
 70
   128
 43
0.0
 10
1.418619133556713
 20
5.835206780885988
 10
1.398652643288496
 20
5.855173271154203
 10
1.378686153020282
 20
5.91507274195885
 10
1.398652643288496
 20
5.955005722495281
  0
LWPOLYLINE
  5
89
100
AcDbEntity
  8
USP-GEO
100
AcDbPolyline
 90
        9
 70
   128
 43
0.0
 10
1.418619133556713
 20
5.974972212763496
 10
1.478518604361362
 20
5.994938703031712
 10
1.518451584897793
 20
5.974972212763496
 10
1.538418075166006
 20
5.955005722495281
 10
1.558384565434224
 20
5.91507274195885
 10
1.538418075166006
 20
5.855173271154203
 10
1.518451584897793
 20
5.835206780885988
 10
1.478518604361362
 20
5.81524029061777
 10
1.418619133556713
 20
5.835206780885988
  0
LWPOLYLINE
  5
8A
100
AcDbEntity
  8
USP-GEO
100
AcDbPolyline
 90
        2
 70
   128
 43
0.0
 10
1.418619133556713
 20
5.835206780885988
 10
1.398652643288496
 20
5.855173271154203
  0
LWPOLYLINE
  5
8B
100
AcDbEntity
  8
USP-GEO
100
AcDbPolyline
 90
        2
 70
   128
 43
0.0
 10
1.398652643288496
 20
5.955005722495281
 10
1.418619133556713
 20
5.974972212763496
  0
LWPOLYLINE
  5
8C
100
AcDbEntity
  8
USP-GEO
100
AcDbPolyline
 90
       11
 70
   128
 43
0.0
 10
1.398652643288496
 20
6.894429089614821
 10
1.418619133556713
 20
6.934362070151252
 10
1.478518604361362
 20
6.954328560419467
 10
1.518451584897793
 20
6.934362070151252
 10
1.538418075166006
 20
6.894429089614821
 10
1.558384565434224
 20
6.85449610907839
 10
1.538418075166006
 20
6.814563128541959
 10
1.518451584897793
 20
6.774630148005527
 10
1.478518604361362
 20
6.774630148005527
 10
1.418619133556713
 20
6.774630148005527
 10
1.398652643288496
 20
6.814563128541959
  0
LWPOLYLINE
  5
8D
100
AcDbEntity
  8
USP-GEO
100
AcDbPolyline
 90
        3
 70
   128
 43
0.0
 10
1.398652643288496
 20
6.814563128541959
 10
1.378686153020282
 20
6.85449610907839
 10
1.398652643288496
 20
6.894429089614821
  0
LWPOLYLINE
  5
8E
100
AcDbEntity
  8
USP-GEO
100
AcDbPolyline
 90
        5
 70
   128
 43
0.0
 10
1.398652643288496
 20
7.674120534588636
 10
1.378686153020282
 20
7.734020005393283
 10
1.398652643288496
 20
7.773952985929716
 10
1.418619133556713
 20
7.793919476197931
 10
1.478518604361362
 20
7.813885966466147
  0
LWPOLYLINE
  5
8F
100
AcDbEntity
  8
USP-GEO
100
AcDbPolyline
 90
        9
 70
   128
 43
0.0
 10
1.478518604361362
 20
7.813885966466147
 10
1.518451584897793
 20
7.793919476197931
 10
1.538418075166006
 20
7.773952985929716
 10
1.558384565434224
 20
7.734020005393283
 10
1.538418075166006
 20
7.674120534588636
 10
1.518451584897793
 20
7.654154044320421
 10
1.478518604361362
 20
7.634187554052205
 10
1.418619133556713
 20
7.654154044320421
 10
1.398652643288496
 20
7.674120534588636
  0
LWPOLYLINE
  5
90
100
AcDbEntity
  8
USP-GEO
100
AcDbPolyline
 90
        2
 70
   128
 43
0.0
 10
1.518451584897793
 20
7.654154044320421
 10
1.478518604361362
 20
7.634187554052205
  0
LWPOLYLINE
  5
91
100
AcDbEntity
  8
USP-GEO
100
AcDbPolyline
 90
        8
 70
   128
 43
0.0
 10
2.617606874163055
 20
6.295434381568355
 10
2.617606874163055
 20
6.455166303714079
 10
2.617606874163055
 20
6.594931735591588
 10
2.617606874163055
 20
6.714730677200881
 10
2.497807932553762
 20
6.714730677200881
 10
2.497807932553762
 20
6.594931735591588
 10
2.497807932553762
 20
6.455166303714079
 10
2.497807932553762
 20
6.295434381568355
  0
LWPOLYLINE
  5
92
100
AcDbEntity
  8
USP-GEO
100
AcDbPolyline
 90
        2
 70
   129
 43
0.0
 10
2.497807932553762
 20
5.19627909230309
 10
2.4179419714809
 20
5.19627909230309
  0
LWPOLYLINE
  5
93
100
AcDbEntity
  8
USP-GEO
100
AcDbPolyline
 90
        7
 70
   128
 43
0.0
 10
2.497807932553762
 20
5.835206780885988
 10
2.437908461749117
 20
5.855173271154203
 10
2.298143029871607
 20
5.994938703031712
 10
2.258210049335175
 20
6.155668949690847
 10
2.298143029871607
 20
6.335367362104786
 10
2.437908461749117
 20
6.475132793982295
 10
2.497807932553762
 20
6.49509928425051
  0
LWPOLYLINE
  5
94
100
AcDbEntity
  8
USP-GEO
100
AcDbPolyline
 90
        2
 70
   128
 43
0.0
 10
1.977680861066748
 20
6.195601930227278
 10
2.137412783212472
 20
6.195601930227278
  0
LWPOLYLINE
  5
95
100
AcDbEntity
  8
USP-GEO
100
AcDbPolyline
 90
        2
 70
   128
 43
0.0
 10
2.137412783212472
 20
6.034871683568143
 10
1.977680861066748
 20
6.034871683568143
  0
LWPOLYLINE
  5
96
100
AcDbEntity
  8
USP-GEO
100
AcDbPolyline
 90
       14
 70
   129
 43
0.0
 10
2.238243559066962
 20
6.115735969154416
 10
2.218277068798744
 20
6.155668949690847
 10
2.178344088262313
 20
6.195601930227278
 10
2.137412783212472
 20
6.195601930227278
 10
1.977680861066748
 20
6.195601930227278
 10
1.917781390262103
 20
6.195601930227278
 10
1.897814899993885
 20
6.155668949690847
 10
1.877848409725672
 20
6.115735969154416
 10
1.897814899993885
 20
6.074804664104574
 10
1.917781390262103
 20
6.034871683568143
 10
1.977680861066748
 20
6.034871683568143
 10
2.137412783212472
 20
6.034871683568143
 10
2.178344088262313
 20
6.034871683568143
 10
2.218277068798744
 20
6.074804664104574
  0
LWPOLYLINE
  5
97
100
AcDbEntity
  8
USP-GEO
100
AcDbPolyline
 90
        5
 70
   128
 43
0.0
 10
2.397975481212686
 20
6.115735969154416
 10
2.397975481212686
 20
6.135702459422631
 10
2.378008990944469
 20
6.155668949690847
 10
2.397975481212686
 20
6.195601930227278
 10
2.397975481212686
 20
6.215568420495493
  0
LWPOLYLINE
  5
98
100
AcDbEntity
  8
USP-GEO
100
AcDbPolyline
 90
       12
 70
   129
 43
0.0
 10
2.397975481212686
 20
6.235534910763709
 10
2.4179419714809
 20
6.195601930227278
 10
2.4179419714809
 20
6.155668949690847
 10
2.4179419714809
 20
6.135702459422631
 10
2.397975481212686
 20
6.094771154372789
 10
2.358042500676255
 20
6.094771154372789
 10
2.338076010408038
 20
6.094771154372789
 10
2.318109520139824
 20
6.135702459422631
 10
2.318109520139824
 20
6.155668949690847
 10
2.318109520139824
 20
6.195601930227278
 10
2.338076010408038
 20
6.235534910763709
 10
2.358042500676255
 20
6.235534910763709
  0
LWPOLYLINE
  5
99
100
AcDbEntity
  8
USP-GEO
100
AcDbPolyline
 90
        8
 70
   128
 43
0.0
 10
2.497807932553762
 20
5.675474858740262
 10
2.497807932553762
 20
5.795273800349555
 10
2.497807932553762
 20
5.935039232227065
 10
2.497807932553762
 20
6.094771154372789
 10
2.617606874163055
 20
6.094771154372789
 10
2.617606874163055
 20
5.935039232227065
 10
2.617606874163055
 20
5.795273800349555
 10
2.617606874163055
 20
5.675474858740262
  0
LWPOLYLINE
  5
9A
100
AcDbEntity
  8
USP-GEO
100
AcDbPolyline
 90
        8
 70
   128
 43
0.0
 10
2.497807932553762
 20
5.41591048525346
 10
2.497807932553762
 20
5.515742936594538
 10
2.497807932553762
 20
5.615575387935615
 10
2.497807932553762
 20
5.675474858740262
 10
2.617606874163055
 20
5.675474858740262
 10
2.617606874163055
 20
5.615575387935615
 10
2.617606874163055
 20
5.515742936594538
 10
2.617606874163055
 20
5.41591048525346
  0
LWPOLYLINE
  5
9B
100
AcDbEntity
  8
USP-GEO
100
AcDbPolyline
 90
        4
 70
   128
 43
0.0
 10
2.617606874163055
 20
5.096446640962012
 10
2.617606874163055
 20
5.41591048525346
 10
2.497807932553762
 20
5.41591048525346
 10
2.497807932553762
 20
5.096446640962012
  0
LWPOLYLINE
  5
9C
100
AcDbEntity
  8
USP-GEO
100
AcDbPolyline
 90
        4
 70
   128
 43
0.0
 10
2.617606874163055
 20
6.094771154372789
 10
2.617606874163055
 20
6.295434381568355
 10
2.497807932553762
 20
6.295434381568355
 10
2.497807932553762
 20
6.094771154372789
  0
LWPOLYLINE
  5
9D
100
AcDbEntity
  8
USP-GEO
100
AcDbPolyline
 90
        2
 70
   128
 43
0.0
 10
2.497807932553762
 20
6.774630148005527
 10
2.4179419714809
 20
6.774630148005527
  0
LWPOLYLINE
  5
9E
100
AcDbEntity
  8
USP-GEO
100
AcDbPolyline
 90
        8
 70
   128
 43
0.0
 10
2.497807932553762
 20
6.774630148005527
 10
2.4179419714809
 20
6.774630148005527
 10
2.378008990944469
 20
6.774630148005527
 10
2.338076010408038
 20
6.814563128541959
 10
2.338076010408038
 20
6.85449610907839
 10
2.338076010408038
 20
6.894429089614821
 10
2.378008990944469
 20
6.934362070151252
 10
2.4179419714809
 20
6.934362070151252
  0
LWPOLYLINE
  5
9F
100
AcDbEntity
  8
USP-GEO
100
AcDbPolyline
 90
        2
 70
   129
 43
0.0
 10
2.497807932553762
 20
6.934362070151252
 10
2.4179419714809
 20
6.934362070151252
  0
LWPOLYLINE
  5
A0
100
AcDbEntity
  8
USP-GEO
100
AcDbPolyline
 90
        2
 70
   128
 43
0.0
 10
2.137412783212472
 20
8.033517359416517
 10
1.977680861066748
 20
8.033517359416517
  0
LWPOLYLINE
  5
A1
100
AcDbEntity
  8
USP-GEO
100
AcDbPolyline
 90
        2
 70
   128
 43
0.0
 10
1.977680861066748
 20
8.193249281562241
 10
2.137412783212472
 20
8.193249281562241
  0
LWPOLYLINE
  5
A2
100
AcDbEntity
  8
USP-GEO
100
AcDbPolyline
 90
       14
 70
   128
 43
0.0
 10
1.917781390262103
 20
8.193249281562241
 10
1.977680861066748
 20
8.193249281562241
 10
2.137412783212472
 20
8.193249281562241
 10
2.178344088262313
 20
8.193249281562241
 10
2.218277068798744
 20
8.15331630102581
 10
2.238243559066962
 20
8.113383320489379
 10
2.218277068798744
 20
8.073450339952948
 10
2.178344088262313
 20
8.033517359416517
 10
2.137412783212472
 20
8.033517359416517
 10
1.977680861066748
 20
8.033517359416517
 10
1.917781390262103
 20
8.033517359416517
 10
1.897814899993885
 20
8.073450339952948
 10
1.877848409725672
 20
8.113383320489379
 10
1.897814899993885
 20
8.15331630102581
  0
LWPOLYLINE
  5
A3
100
AcDbEntity
  8
USP-GEO
100
AcDbPolyline
 90
        2
 70
   128
 43
0.0
 10
1.897814899993885
 20
8.15331630102581
 10
1.917781390262103
 20
8.193249281562241
  0
LWPOLYLINE
  5
A4
100
AcDbEntity
  8
USP-GEO
100
AcDbPolyline
 90
        2
 70
   128
 43
0.0
 10
2.218277068798744
 20
8.073450339952948
 10
2.178344088262313
 20
8.033517359416517
  0
LWPOLYLINE
  5
A5
100
AcDbEntity
  8
USP-GEO
100
AcDbPolyline
 90
        5
 70
   128
 43
0.0
 10
2.398973805726097
 20
7.993584378880086
 10
2.397975481212686
 20
7.993584378880086
 10
2.378008990944469
 20
8.033517359416517
 10
2.397975481212686
 20
8.073450339952948
 10
2.397975481212686
 20
8.093416830221164
  0
LWPOLYLINE
  5
A6
100
AcDbEntity
  8
USP-GEO
100
AcDbPolyline
 90
       12
 70
   129
 43
0.0
 10
2.397975481212686
 20
8.113383320489379
 10
2.4179419714809
 20
8.073450339952948
 10
2.4179419714809
 20
8.033517359416517
 10
2.4179419714809
 20
7.993584378880086
 10
2.397975481212686
 20
7.973617888611871
 10
2.358042500676255
 20
7.953651398343655
 10
2.338076010408038
 20
7.973617888611871
 10
2.318109520139824
 20
7.993584378880086
 10
2.318109520139824
 20
8.033517359416517
 10
2.318109520139824
 20
8.073450339952948
 10
2.338076010408038
 20
8.113383320489379
 10
2.358042500676255
 20
8.113383320489379
  0
LWPOLYLINE
  5
A7
100
AcDbEntity
  8
USP-GEO
100
AcDbPolyline
 90
        8
 70
   128
 43
0.0
 10
2.617606874163055
 20
7.294757219492542
 10
2.617606874163055
 20
7.394589670833619
 10
2.617606874163055
 20
7.494422122174697
 10
2.617606874163055
 20
7.554321592979343
 10
2.497807932553762
 20
7.554321592979343
 10
2.497807932553762
 20
7.494422122174697
 10
2.497807932553762
 20
7.394589670833619
 10
2.497807932553762
 20
7.294757219492542
  0
LWPOLYLINE
  5
A8
100
AcDbEntity
  8
USP-GEO
100
AcDbPolyline
 90
        4
 70
   128
 43
0.0
 10
2.617606874163055
 20
6.974295050687683
 10
2.617606874163055
 20
7.294757219492542
 10
2.497807932553762
 20
7.294757219492542
 10
2.497807932553762
 20
6.974295050687683
  0
LWPOLYLINE
  5
A9
100
AcDbEntity
  8
USP-GEO
100
AcDbPolyline
 90
        8
 70
   128
 43
0.0
 10
2.497807932553762
 20
6.714730677200881
 10
2.497807932553762
 20
6.774630148005527
 10
2.497807932553762
 20
6.874462599346605
 10
2.497807932553762
 20
6.974295050687683
 10
2.617606874163055
 20
6.974295050687683
 10
2.617606874163055
 20
6.874462599346605
 10
2.617606874163055
 20
6.774630148005527
 10
2.617606874163055
 20
6.714730677200881
  0
LWPOLYLINE
  5
AA
100
AcDbEntity
  8
USP-GEO
100
AcDbPolyline
 90
        8
 70
   128
 43
0.0
 10
2.497807932553762
 20
7.554321592979343
 10
2.497807932553762
 20
7.674120534588636
 10
2.497807932553762
 20
7.813885966466147
 10
2.497807932553762
 20
7.973617888611871
 10
2.617606874163055
 20
7.973617888611871
 10
2.617606874163055
 20
7.813885966466147
 10
2.617606874163055
 20
7.674120534588636
 10
2.617606874163055
 20
7.554321592979343
  0
LWPOLYLINE
  5
AB
100
AcDbEntity
  8
USP-GEO
100
AcDbPolyline
 90
        4
 70
   128
 43
0.0
 10
2.617606874163055
 20
7.973617888611871
 10
2.617606874163055
 20
8.173282791294026
 10
2.497807932553762
 20
8.173282791294026
 10
2.497807932553762
 20
7.973617888611871
  0
LWPOLYLINE
  5
AC
100
AcDbEntity
  8
USP-GEO
100
AcDbPolyline
 90
        2
 70
   129
 43
0.0
 10
7.93168825904862
 20
2.278176539603389
 10
6.413236674150827
 20
0.618961198314679
  0
LWPOLYLINE
  5
AD
100
AcDbEntity
  8
USP-GEO
100
AcDbPolyline
 90
       14
 70
   128
 43
0.0
 10
6.233538261736889
 20
5.096446640962012
 10
6.233538261736889
 20
4.995615865107524
 10
6.233538261736889
 20
4.915749904034662
 10
6.233538261736889
 20
4.8358839429618
 10
6.233538261736889
 20
4.716085001352507
 10
6.233538261736889
 20
4.576319569474998
 10
6.233538261736889
 20
4.416587647329274
 10
6.233538261736889
 20
3.636896202355456
 10
6.233538261736889
 20
3.137733945650069
 10
6.233538261736889
 20
2.677506344967701
 10
6.233538261736889
 20
2.278176539603389
 10
6.233538261736889
 20
0.618961198314679
 10
6.333370713077965
 20
0.618961198314679
 10
6.333370713077965
 20
2.278176539603389
  0
LWPOLYLINE
  5
AE
100
AcDbEntity
  8
USP-GEO
100
AcDbPolyline
 90
        7
 70
   128
 43
0.0
 10
6.333370713077965
 20
1.878846734239079
 10
6.413236674150827
 20
1.91877971477551
 10
6.53303561576012
 20
2.038578656384803
 10
6.592935086564768
 20
2.218277068798744
 10
6.53303561576012
 20
2.397975481212684
 10
6.413236674150827
 20
2.537740913090193
 10
6.333370713077965
 20
2.557707403358408
  0
LWPOLYLINE
  5
AF
100
AcDbEntity
  8
USP-GEO
100
AcDbPolyline
 90
        5
 70
   128
 43
0.0
 10
6.333370713077965
 20
0.459229276168955
 10
6.333370713077965
 20
0.2795308637550171
 10
6.333370713077965
 20
0.0998324513410758
 10
6.333370713077965
 20
0.0
 10
6.333370713077965
 20
0.0998324513410758
  0
LWPOLYLINE
  5
B0
100
AcDbEntity
  8
USP-GEO
100
AcDbPolyline
 90
        6
 70
   128
 43
0.0
 10
6.233538261736889
 20
0.618961198314679
 10
6.233538261736889
 20
0.459229276168955
 10
6.233538261736889
 20
0.2795308637550171
 10
6.233538261736889
 20
0.0998324513410758
 10
6.333370713077965
 20
0.0998324513410758
 10
6.333370713077965
 20
0.2795308637550171
  0
LWPOLYLINE
  5
B1
100
AcDbEntity
  8
USP-GEO
100
AcDbPolyline
 90
        2
 70
   128
 43
0.0
 10
6.333370713077965
 20
0.2795308637550171
 10
6.333370713077965
 20
0.459229276168955
  0
LWPOLYLINE
  5
B2
100
AcDbEntity
  8
USP-GEO
100
AcDbPolyline
 90
        3
 70
   128
 43
0.0
 10
6.333370713077965
 20
0.0
 10
6.233538261736889
 20
0.0
 10
6.233538261736889
 20
0.0998324513410758
  0
LWPOLYLINE
  5
B3
100
AcDbEntity
  8
USP-GEO
100
AcDbPolyline
 90
        2
 70
   129
 43
0.0
 10
6.2345365862503
 20
0.0
 10
6.233538261736889
 20
0.0
  0
LWPOLYLINE
  5
B4
100
AcDbEntity
  8
USP-GEO
100
AcDbPolyline
 90
        2
 70
   129
 43
0.0
 10
6.2345365862503
 20
0.0998324513410758
 10
6.233538261736889
 20
0.0998324513410758
  0
LWPOLYLINE
  5
B5
100
AcDbEntity
  8
USP-GEO
100
AcDbPolyline
 90
        2
 70
   128
 43
0.0
 10
6.233538261736889
 20
0.0998324513410758
 10
6.2345365862503
 20
0.0998324513410758
  0
LWPOLYLINE
  5
B6
100
AcDbEntity
  8
USP-GEO
100
AcDbPolyline
 90
        2
 70
   129
 43
0.0
 10
6.2345365862503
 20
0.0998324513410758
 10
6.233538261736889
 20
0.0998324513410758
  0
LWPOLYLINE
  5
B7
100
AcDbEntity
  8
USP-GEO
100
AcDbPolyline
 90
        2
 70
   129
 43
0.0
 10
6.433203164419044
 20
1.498485094629575
 10
6.333370713077965
 20
1.498485094629575
  0
LWPOLYLINE
  5
B8
100
AcDbEntity
  8
USP-GEO
100
AcDbPolyline
 90
        4
 70
   128
 43
0.0
 10
6.413236674150827
 20
0.618961198314679
 10
6.393270183882613
 20
0.579028217778248
 10
6.373303693614396
 20
0.539095237241817
 10
6.333370713077965
 20
0.5191287469736033
  0
LWPOLYLINE
  5
B9
100
AcDbEntity
  8
USP-GEO
100
AcDbPolyline
 90
        7
 70
   128
 43
0.0
 10
6.333370713077965
 20
0.7587266301921894
 10
6.413236674150827
 20
0.7986596107286204
 10
6.53303561576012
 20
0.9194568768513242
 10
6.592935086564768
 20
1.099155289265265
 10
6.53303561576012
 20
1.278853701679203
 10
6.413236674150827
 20
1.398652643288496
 10
6.333370713077965
 20
1.438585623824927
  0
LWPOLYLINE
  5
BA
100
AcDbEntity
  8
USP-GEO
100
AcDbPolyline
 90
        2
 70
   129
 43
0.0
 10
6.333370713077965
 20
0.618961198314679
 10
6.333370713077965
 20
0.459229276168955
  0
LWPOLYLINE
  5
BB
100
AcDbEntity
  8
USP-GEO
100
AcDbPolyline
 90
       12
 70
   129
 43
0.0
 10
6.53303561576012
 20
1.099155289265265
 10
6.53303561576012
 20
1.139088269801696
 10
6.513069125491906
 20
1.15905476006991
 10
6.473136144955475
 20
1.179021250338127
 10
6.453169654687258
 20
1.15905476006991
 10
6.433203164419044
 20
1.139088269801696
 10
6.433203164419044
 20
1.099155289265265
 10
6.433203164419044
 20
1.059222308728831
 10
6.453169654687258
 20
1.039255818460617
 10
6.473136144955475
 20
1.0192893281924
 10
6.513069125491906
 20
1.039255818460617
 10
6.53303561576012
 20
1.059222308728831
  0
LWPOLYLINE
  5
BC
100
AcDbEntity
  8
USP-GEO
100
AcDbPolyline
 90
        5
 70
   128
 43
0.0
 10
6.433203164419044
 20
1.15905476006991
 10
6.453169654687258
 20
1.139088269801696
 10
6.453169654687258
 20
1.099155289265265
 10
6.453169654687258
 20
1.059222308728831
 10
6.433203164419044
 20
1.039255818460617
  0
LWPOLYLINE
  5
BD
100
AcDbEntity
  8
USP-GEO
100
AcDbPolyline
 90
        6
 70
   128
 43
0.0
 10
6.433203164419044
 20
1.498485094629575
 10
6.473136144955475
 20
1.478518604361358
 10
6.493102635223689
 20
1.458552114093144
 10
6.513069125491906
 20
1.418619133556713
 10
6.493102635223689
 20
1.358719662752065
 10
6.473136144955475
 20
1.338753172483851
  0
LWPOLYLINE
  5
BE
100
AcDbEntity
  8
USP-GEO
100
AcDbPolyline
 90
        6
 70
   128
 43
0.0
 10
7.93168825904862
 20
2.278176539603389
 10
8.231185613071851
 20
2.677506344967701
 10
8.410884025485792
 20
3.137733945650069
 10
8.470783496290437
 20
3.636896202355456
 10
8.470783496290437
 20
4.416587647329274
 10
8.490749986558654
 20
4.576319569474998
  0
LWPOLYLINE
  5
BF
100
AcDbEntity
  8
USP-GEO
100
AcDbPolyline
 90
        8
 70
   128
 43
0.0
 10
6.433203164419044
 20
5.116413131230228
 10
6.473136144955475
 20
5.116413131230228
 10
6.493102635223689
 20
5.076480150693797
 10
6.513069125491906
 20
5.035548845643955
 10
6.493102635223689
 20
4.995615865107524
 10
6.473136144955475
 20
4.955682884571093
 10
6.433203164419044
 20
4.955682884571093
 10
6.333370713077965
 20
4.955682884571093
  0
LWPOLYLINE
  5
C0
100
AcDbEntity
  8
USP-GEO
100
AcDbPolyline
 90
        5
 70
   128
 43
0.0
 10
6.333370713077965
 20
5.096446640962012
 10
6.333370713077965
 20
4.995615865107524
 10
6.333370713077965
 20
4.915749904034662
 10
6.333370713077965
 20
4.8358839429618
 10
6.233538261736889
 20
4.8358839429618
  0
LWPOLYLINE
  5
C1
100
AcDbEntity
  8
USP-GEO
100
AcDbPolyline
 90
        5
 70
   128
 43
0.0
 10
6.333370713077965
 20
3.636896202355456
 10
6.333370713077965
 20
3.137733945650069
 10
6.333370713077965
 20
2.677506344967701
 10
6.333370713077965
 20
2.278176539603389
 10
6.233538261736889
 20
2.278176539603389
  0
LWPOLYLINE
  5
C2
100
AcDbEntity
  8
USP-GEO
100
AcDbPolyline
 90
        7
 70
   128
 43
0.0
 10
6.333370713077965
 20
3.017935004040776
 10
6.413236674150827
 20
3.037901494308991
 10
6.53303561576012
 20
3.1776669261865
 10
6.592935086564768
 20
3.357365338600439
 10
6.53303561576012
 20
3.517097260746163
 10
6.413236674150827
 20
3.656862692623672
 10
6.333370713077965
 20
3.696795673160103
  0
LWPOLYLINE
  5
C3
100
AcDbEntity
  8
USP-GEO
100
AcDbPolyline
 90
        3
 70
   128
 43
0.0
 10
6.872465950319785
 20
2.457874952017331
 10
6.712734028174061
 20
2.457874952017331
 10
6.652834557369413
 20
2.477841442285546
  0
LWPOLYLINE
  5
C4
100
AcDbEntity
  8
USP-GEO
100
AcDbPolyline
 90
       14
 70
   129
 43
0.0
 10
6.952331911392647
 20
2.497807932553762
 10
6.912398930856216
 20
2.477841442285546
 10
6.872465950319785
 20
2.457874952017331
 10
6.712734028174061
 20
2.457874952017331
 10
6.652834557369413
 20
2.477841442285546
 10
6.632868067101199
 20
2.497807932553762
 10
6.612901576832982
 20
2.557707403358408
 10
6.632868067101199
 20
2.597640383894839
 10
6.652834557369413
 20
2.617606874163055
 10
6.712734028174061
 20
2.63757336443127
 10
6.872465950319785
 20
2.63757336443127
 10
6.912398930856216
 20
2.617606874163055
 10
6.952331911392647
 20
2.597640383894839
 10
6.952331911392647
 20
2.557707403358408
  0
LWPOLYLINE
  5
C5
100
AcDbEntity
  8
USP-GEO
100
AcDbPolyline
 90
       17
 70
   128
 43
0.0
 10
6.433203164419044
 20
2.278176539603389
 10
6.453169654687258
 20
2.258210049335175
 10
6.453169654687258
 20
2.218277068798744
 10
6.453169654687258
 20
2.178344088262313
 10
6.433203164419044
 20
2.178344088262313
 10
6.453169654687258
 20
2.158377597994096
 10
6.473136144955475
 20
2.138411107725882
 10
6.513069125491906
 20
2.158377597994096
 10
6.53303561576012
 20
2.178344088262313
 10
6.53303561576012
 20
2.218277068798744
 10
6.53303561576012
 20
2.258210049335175
 10
6.513069125491906
 20
2.298143029871607
 10
6.473136144955475
 20
2.298143029871607
 10
6.453169654687258
 20
2.298143029871607
 10
6.433203164419044
 20
2.258210049335175
 10
6.433203164419044
 20
2.218277068798744
 10
6.433203164419044
 20
2.178344088262313
  0
LWPOLYLINE
  5
C6
100
AcDbEntity
  8
USP-GEO
100
AcDbPolyline
 90
        2
 70
   128
 43
0.0
 10
6.712734028174061
 20
2.63757336443127
 10
6.872465950319785
 20
2.63757336443127
  0
LWPOLYLINE
  5
C7
100
AcDbEntity
  8
USP-GEO
100
AcDbPolyline
 90
        2
 70
   128
 43
0.0
 10
6.433203164419044
 20
3.39729831913687
 10
6.453169654687258
 20
3.39729831913687
  0
LWPOLYLINE
  5
C8
100
AcDbEntity
  8
USP-GEO
100
AcDbPolyline
 90
        4
 70
   128
 43
0.0
 10
6.453169654687258
 20
3.39729831913687
 10
6.453169654687258
 20
3.357365338600439
 10
6.453169654687258
 20
3.317432358064008
 10
6.433203164419044
 20
3.297465867795793
  0
LWPOLYLINE
  5
C9
100
AcDbEntity
  8
USP-GEO
100
AcDbPolyline
 90
        5
 70
   128
 43
0.0
 10
6.453169654687258
 20
3.417264809405086
 10
6.433203164419044
 20
3.39729831913687
 10
6.433203164419044
 20
3.357365338600439
 10
6.433203164419044
 20
3.317432358064008
 10
6.453169654687258
 20
3.277499377527577
  0
LWPOLYLINE
  5
CA
100
AcDbEntity
  8
USP-GEO
100
AcDbPolyline
 90
        2
 70
   128
 43
0.0
 10
6.473136144955475
 20
3.277499377527577
 10
6.513069125491906
 20
3.277499377527577
  0
LWPOLYLINE
  5
CB
100
AcDbEntity
  8
USP-GEO
100
AcDbPolyline
 90
        4
 70
   128
 43
0.0
 10
6.53303561576012
 20
3.357365338600439
 10
6.53303561576012
 20
3.39729831913687
 10
6.513069125491906
 20
3.417264809405086
 10
6.473136144955475
 20
3.437231299673301
  0
LWPOLYLINE
  5
CC
100
AcDbEntity
  8
USP-GEO
100
AcDbPolyline
 90
        3
 70
   128
 43
0.0
 10
6.513069125491906
 20
3.277499377527577
 10
6.53303561576012
 20
3.317432358064008
 10
6.53303561576012
 20
3.357365338600439
  0
LWPOLYLINE
  5
CD
100
AcDbEntity
  8
USP-GEO
100
AcDbPolyline
 90
        2
 70
   128
 43
0.0
 10
6.473136144955475
 20
3.277499377527577
 10
6.453169654687258
 20
3.277499377527577
  0
LWPOLYLINE
  5
CE
100
AcDbEntity
  8
USP-GEO
100
AcDbPolyline
 90
        2
 70
   128
 43
0.0
 10
6.453169654687258
 20
3.417264809405086
 10
6.473136144955475
 20
3.437231299673301
  0
LWPOLYLINE
  5
CF
100
AcDbEntity
  8
USP-GEO
100
AcDbPolyline
 90
        2
 70
   128
 43
0.0
 10
6.433203164419044
 20
4.955682884571093
 10
6.333370713077965
 20
4.955682884571093
  0
LWPOLYLINE
  5
D0
100
AcDbEntity
  8
USP-GEO
100
AcDbPolyline
 90
        7
 70
   128
 43
0.0
 10
6.333370713077965
 20
4.137056783574257
 10
6.413236674150827
 20
4.176989764110688
 10
6.53303561576012
 20
4.296788705719981
 10
6.592935086564768
 20
4.47648711813392
 10
6.53303561576012
 20
4.65618553054786
 10
6.413236674150827
 20
4.775984472157153
 10
6.333370713077965
 20
4.815917452693584
  0
LWPOLYLINE
  5
D1
100
AcDbEntity
  8
USP-GEO
100
AcDbPolyline
 90
        3
 70
   128
 43
0.0
 10
6.333370713077965
 20
4.416587647329274
 10
6.333370713077965
 20
3.636896202355456
 10
6.233538261736889
 20
3.636896202355456
  0
LWPOLYLINE
  5
D2
100
AcDbEntity
  8
USP-GEO
100
AcDbPolyline
 90
        5
 70
   128
 43
0.0
 10
6.333370713077965
 20
4.8358839429618
 10
6.333370713077965
 20
4.716085001352507
 10
6.333370713077965
 20
4.576319569474998
 10
6.333370713077965
 20
4.416587647329274
 10
6.233538261736889
 20
4.416587647329274
  0
LWPOLYLINE
  5
D3
100
AcDbEntity
  8
USP-GEO
100
AcDbPolyline
 90
       14
 70
   129
 43
0.0
 10
6.952331911392647
 20
4.25685572518355
 10
6.912398930856216
 20
4.216922744647119
 10
6.872465950319785
 20
4.216922744647119
 10
6.712734028174061
 20
4.216922744647119
 10
6.652834557369413
 20
4.216922744647119
 10
6.632868067101199
 20
4.25685572518355
 10
6.612901576832982
 20
4.296788705719981
 10
6.632868067101199
 20
4.336721686256412
 10
6.652834557369413
 20
4.376654666792843
 10
6.712734028174061
 20
4.396621157061058
 10
6.872465950319785
 20
4.396621157061058
 10
6.912398930856216
 20
4.376654666792843
 10
6.952331911392647
 20
4.336721686256412
 10
6.952331911392647
 20
4.296788705719981
  0
LWPOLYLINE
  5
D4
100
AcDbEntity
  8
USP-GEO
100
AcDbPolyline
 90
        3
 70
   128
 43
0.0
 10
6.872465950319785
 20
4.216922744647119
 10
6.712734028174061
 20
4.216922744647119
 10
6.652834557369413
 20
4.216922744647119
  0
LWPOLYLINE
  5
D5
100
AcDbEntity
  8
USP-GEO
100
AcDbPolyline
 90
        5
 70
   128
 43
0.0
 10
6.433203164419044
 20
4.536386588938567
 10
6.453169654687258
 20
4.516420098670351
 10
6.453169654687258
 20
4.47648711813392
 10
6.453169654687258
 20
4.436554137597489
 10
6.433203164419044
 20
4.416587647329274
  0
LWPOLYLINE
  5
D6
100
AcDbEntity
  8
USP-GEO
100
AcDbPolyline
 90
       12
 70
   129
 43
0.0
 10
6.53303561576012
 20
4.47648711813392
 10
6.53303561576012
 20
4.516420098670351
 10
6.513069125491906
 20
4.536386588938567
 10
6.473136144955475
 20
4.556353079206783
 10
6.453169654687258
 20
4.536386588938567
 10
6.433203164419044
 20
4.516420098670351
 10
6.433203164419044
 20
4.47648711813392
 10
6.433203164419044
 20
4.436554137597489
 10
6.453169654687258
 20
4.416587647329274
 10
6.473136144955475
 20
4.396621157061058
 10
6.513069125491906
 20
4.416587647329274
 10
6.53303561576012
 20
4.436554137597489
  0
LWPOLYLINE
  5
D7
100
AcDbEntity
  8
USP-GEO
100
AcDbPolyline
 90
        2
 70
   128
 43
0.0
 10
6.493102635223689
 20
4.995615865107524
 10
6.473136144955475
 20
4.955682884571093
  0
LWPOLYLINE
  5
D8
100
AcDbEntity
  8
USP-GEO
100
AcDbPolyline
 90
        3
 70
   128
 43
0.0
 10
6.712734028174061
 20
4.396621157061058
 10
6.872465950319785
 20
4.396621157061058
 10
6.912398930856216
 20
4.376654666792843
  0
LWPOLYLINE
  5
D9
100
AcDbEntity
  8
USP-GEO
100
AcDbPolyline
 90
        6
 70
   128
 43
0.0
 10
7.292760570465723
 20
2.138411107725882
 10
7.292760570465723
 20
2.098478127189451
 10
7.292760570465723
 20
2.038578656384803
 10
7.332693551002154
 20
2.018612166116589
 10
7.372626531538585
 20
1.998645675848372
 10
7.412559512075016
 20
2.018612166116589
  0
LWPOLYLINE
  5
DA
100
AcDbEntity
  8
USP-GEO
100
AcDbPolyline
 90
        8
 70
   128
 43
0.0
 10
7.292760570465723
 20
2.138411107725882
 10
7.332693551002154
 20
2.178344088262313
 10
7.372626531538585
 20
2.178344088262313
 10
7.412559512075016
 20
2.178344088262313
 10
7.452492492611447
 20
2.138411107725882
 10
7.472458982879661
 20
2.098478127189451
 10
7.452492492611447
 20
2.038578656384803
 10
7.412559512075016
 20
2.018612166116589
  0
LWPOLYLINE
  5
DB
100
AcDbEntity
  8
USP-GEO
100
AcDbPolyline
 90
       11
 70
   128
 43
0.0
 10
7.292760570465723
 20
3.39729831913687
 10
7.332693551002154
 20
3.417264809405086
 10
7.372626531538585
 20
3.437231299673301
 10
7.412559512075016
 20
3.417264809405086
 10
7.452492492611447
 20
3.39729831913687
 10
7.472458982879661
 20
3.337398848332224
 10
7.452492492611447
 20
3.297465867795793
 10
7.412559512075016
 20
3.257532887259362
 10
7.372626531538585
 20
3.257532887259362
 10
7.332693551002154
 20
3.257532887259362
 10
7.292760570465723
 20
3.297465867795793
  0
LWPOLYLINE
  5
DC
100
AcDbEntity
  8
USP-GEO
100
AcDbPolyline
 90
        3
 70
   128
 43
0.0
 10
7.292760570465723
 20
3.39729831913687
 10
7.292760570465723
 20
3.337398848332224
 10
7.292760570465723
 20
3.297465867795793
  0
LWPOLYLINE
  5
DD
100
AcDbEntity
  8
USP-GEO
100
AcDbPolyline
 90
       12
 70
   129
 43
0.0
 10
8.051487200657913
 20
2.978002023504345
 10
8.031520710389695
 20
3.017935004040776
 10
7.991587729853264
 20
3.057867984577207
 10
7.951654749316833
 20
3.077834474845422
 10
7.911721768780402
 20
3.057867984577207
 10
7.871788788243971
 20
3.017935004040776
 10
7.871788788243971
 20
2.978002023504345
 10
7.871788788243971
 20
2.938069042967914
 10
7.911721768780402
 20
2.897137737918072
 10
7.951654749316833
 20
2.897137737918072
 10
7.991587729853264
 20
2.897137737918072
 10
8.031520710389695
 20
2.938069042967914
  0
LWPOLYLINE
  5
DE
100
AcDbEntity
  8
USP-GEO
100
AcDbPolyline
 90
        2
 70
   128
 43
0.0
 10
7.991587729853264
 20
2.897137737918072
 10
7.951654749316833
 20
2.897137737918072
  0
LWPOLYLINE
  5
DF
100
AcDbEntity
  8
USP-GEO
100
AcDbPolyline
 90
       12
 70
   129
 43
0.0
 10
7.292760570465723
 20
4.596286059743214
 10
7.292760570465723
 20
4.636219040279645
 10
7.332693551002154
 20
4.676152020816076
 10
7.372626531538585
 20
4.676152020816076
 10
7.412559512075016
 20
4.676152020816076
 10
7.452492492611447
 20
4.636219040279645
 10
7.472458982879661
 20
4.596286059743214
 10
7.452492492611447
 20
4.556353079206783
 10
7.412559512075016
 20
4.516420098670351
 10
7.372626531538585
 20
4.496453608402136
 10
7.332693551002154
 20
4.516420098670351
 10
7.292760570465723
 20
4.556353079206783
  0
LWPOLYLINE
  5
E0
100
AcDbEntity
  8
USP-GEO
100
AcDbPolyline
 90
       12
 70
   129
 43
0.0
 10
8.051487200657913
 20
4.236889234915334
 10
8.031520710389695
 20
4.276822215451765
 10
7.991587729853264
 20
4.316755195988196
 10
7.951654749316833
 20
4.316755195988196
 10
7.911721768780402
 20
4.316755195988196
 10
7.871788788243971
 20
4.276822215451765
 10
7.871788788243971
 20
4.236889234915334
 10
7.871788788243971
 20
4.196956254378903
 10
7.911721768780402
 20
4.157023273842472
 10
7.951654749316833
 20
4.137056783574257
 10
7.991587729853264
 20
4.157023273842472
 10
8.031520710389695
 20
4.196956254378903
  0
LWPOLYLINE
  5
E1
100
AcDbEntity
  8
USP-GEO
100
AcDbPolyline
 90
        2
 70
   128
 43
0.0
 10
7.991587729853264
 20
4.157023273842472
 10
7.951654749316833
 20
4.137056783574257
  0
LWPOLYLINE
  5
E2
100
AcDbEntity
  8
USP-GEO
100
AcDbPolyline
 90
        8
 70
   128
 43
0.0
 10
6.233538261736889
 20
6.714730677200881
 10
6.233538261736889
 20
6.594931735591588
 10
6.233538261736889
 20
6.455166303714079
 10
6.233538261736889
 20
6.295434381568355
 10
6.333370713077965
 20
6.295434381568355
 10
6.333370713077965
 20
6.455166303714079
 10
6.333370713077965
 20
6.594931735591588
 10
6.333370713077965
 20
6.714730677200881
  0
LWPOLYLINE
  5
E3
100
AcDbEntity
  8
USP-GEO
100
AcDbPolyline
 90
        7
 70
   128
 43
0.0
 10
6.333370713077965
 20
6.014905193299927
 10
6.413236674150827
 20
6.034871683568143
 10
6.53303561576012
 20
6.175635439959062
 10
6.592935086564768
 20
6.355333852373002
 10
6.53303561576012
 20
6.535032264786941
 10
6.413236674150827
 20
6.654831206396234
 10
6.333370713077965
 20
6.694764186932665
  0
LWPOLYLINE
  5
E4
100
AcDbEntity
  8
USP-GEO
100
AcDbPolyline
 90
        2
 70
   129
 43
0.0
 10
6.433203164419044
 20
5.116413131230228
 10
6.333370713077965
 20
5.116413131230228
  0
LWPOLYLINE
  5
E5
100
AcDbEntity
  8
USP-GEO
100
AcDbPolyline
 90
        8
 70
   128
 43
0.0
 10
6.233538261736889
 20
6.094771154372789
 10
6.233538261736889
 20
5.935039232227065
 10
6.233538261736889
 20
5.795273800349555
 10
6.233538261736889
 20
5.675474858740262
 10
6.333370713077965
 20
5.675474858740262
 10
6.333370713077965
 20
5.795273800349555
 10
6.333370713077965
 20
5.935039232227065
 10
6.333370713077965
 20
6.094771154372789
  0
LWPOLYLINE
  5
E6
100
AcDbEntity
  8
USP-GEO
100
AcDbPolyline
 90
        7
 70
   128
 43
0.0
 10
6.233538261736889
 20
5.675474858740262
 10
6.233538261736889
 20
5.615575387935615
 10
6.233538261736889
 20
5.515742936594538
 10
6.233538261736889
 20
5.41591048525346
 10
6.233538261736889
 20
5.096446640962012
 10
6.333370713077965
 20
5.096446640962012
 10
6.333370713077965
 20
5.41591048525346
  0
LWPOLYLINE
  5
E7
100
AcDbEntity
  8
USP-GEO
100
AcDbPolyline
 90
        5
 70
   128
 43
0.0
 10
6.233538261736889
 20
5.41591048525346
 10
6.333370713077965
 20
5.41591048525346
 10
6.333370713077965
 20
5.515742936594538
 10
6.333370713077965
 20
5.615575387935615
 10
6.333370713077965
 20
5.675474858740262
  0
LWPOLYLINE
  5
E8
100
AcDbEntity
  8
USP-GEO
100
AcDbPolyline
 90
        4
 70
   128
 43
0.0
 10
6.233538261736889
 20
6.295434381568355
 10
6.233538261736889
 20
6.094771154372789
 10
6.333370713077965
 20
6.094771154372789
 10
6.333370713077965
 20
6.295434381568355
  0
LWPOLYLINE
  5
E9
100
AcDbEntity
  8
USP-GEO
100
AcDbPolyline
 90
        3
 70
   128
 43
0.0
 10
6.872465950319785
 20
5.974972212763496
 10
6.712734028174061
 20
5.974972212763496
 10
6.652834557369413
 20
5.974972212763496
  0
LWPOLYLINE
  5
EA
100
AcDbEntity
  8
USP-GEO
100
AcDbPolyline
 90
       14
 70
   129
 43
0.0
 10
6.952331911392647
 20
6.014905193299927
 10
6.912398930856216
 20
5.974972212763496
 10
6.872465950319785
 20
5.974972212763496
 10
6.712734028174061
 20
5.974972212763496
 10
6.652834557369413
 20
5.974972212763496
 10
6.632868067101199
 20
6.014905193299927
 10
6.612901576832982
 20
6.054838173836358
 10
6.632868067101199
 20
6.094771154372789
 10
6.652834557369413
 20
6.135702459422631
 10
6.712734028174061
 20
6.135702459422631
 10
6.872465950319785
 20
6.135702459422631
 10
6.912398930856216
 20
6.135702459422631
 10
6.952331911392647
 20
6.094771154372789
 10
6.952331911392647
 20
6.054838173836358
  0
LWPOLYLINE
  5
EB
100
AcDbEntity
  8
USP-GEO
100
AcDbPolyline
 90
       12
 70
   129
 43
0.0
 10
6.53303561576012
 20
6.355333852373002
 10
6.53303561576012
 20
6.315400871836571
 10
6.513069125491906
 20
6.27546789130014
 10
6.473136144955475
 20
6.27546789130014
 10
6.453169654687258
 20
6.27546789130014
 10
6.433203164419044
 20
6.315400871836571
 10
6.433203164419044
 20
6.355333852373002
 10
6.433203164419044
 20
6.395266832909433
 10
6.453169654687258
 20
6.415233323177648
 10
6.473136144955475
 20
6.435199813445864
 10
6.513069125491906
 20
6.415233323177648
 10
6.53303561576012
 20
6.395266832909433
  0
LWPOLYLINE
  5
EC
100
AcDbEntity
  8
USP-GEO
100
AcDbPolyline
 90
        5
 70
   128
 43
0.0
 10
6.433203164419044
 20
6.395266832909433
 10
6.453169654687258
 20
6.395266832909433
 10
6.453169654687258
 20
6.355333852373002
 10
6.453169654687258
 20
6.315400871836571
 10
6.433203164419044
 20
6.295434381568355
  0
LWPOLYLINE
  5
ED
100
AcDbEntity
  8
USP-GEO
100
AcDbPolyline
 90
        2
 70
   128
 43
0.0
 10
6.712734028174061
 20
6.135702459422631
 10
6.872465950319785
 20
6.135702459422631
  0
LWPOLYLINE
  5
EE
100
AcDbEntity
  8
USP-GEO
100
AcDbPolyline
 90
        2
 70
   129
 43
0.0
 10
6.433203164419044
 20
6.874462599346605
 10
6.333370713077965
 20
6.874462599346605
  0
LWPOLYLINE
  5
EF
100
AcDbEntity
  8
USP-GEO
100
AcDbPolyline
 90
        8
 70
   128
 43
0.0
 10
6.433203164419044
 20
6.874462599346605
 10
6.473136144955475
 20
6.874462599346605
 10
6.493102635223689
 20
6.834529618810174
 10
6.513069125491906
 20
6.794596638273743
 10
6.493102635223689
 20
6.754663657737312
 10
6.473136144955475
 20
6.714730677200881
 10
6.433203164419044
 20
6.694764186932665
 10
6.333370713077965
 20
6.694764186932665
  0
LWPOLYLINE
  5
F0
100
AcDbEntity
  8
USP-GEO
100
AcDbPolyline
 90
        2
 70
   128
 43
0.0
 10
6.433203164419044
 20
6.694764186932665
 10
6.333370713077965
 20
6.694764186932665
  0
LWPOLYLINE
  5
F1
100
AcDbEntity
  8
USP-GEO
100
AcDbPolyline
 90
        8
 70
   128
 43
0.0
 10
6.233538261736889
 20
7.554321592979343
 10
6.233538261736889
 20
7.494422122174697
 10
6.233538261736889
 20
7.394589670833619
 10
6.233538261736889
 20
7.294757219492542
 10
6.333370713077965
 20
7.294757219492542
 10
6.333370713077965
 20
7.394589670833619
 10
6.333370713077965
 20
7.494422122174697
 10
6.333370713077965
 20
7.554321592979343
  0
LWPOLYLINE
  5
F2
100
AcDbEntity
  8
USP-GEO
100
AcDbPolyline
 90
        4
 70
   128
 43
0.0
 10
6.233538261736889
 20
7.294757219492542
 10
6.233538261736889
 20
6.974295050687683
 10
6.333370713077965
 20
6.974295050687683
 10
6.333370713077965
 20
7.294757219492542
  0
LWPOLYLINE
  5
F3
100
AcDbEntity
  8
USP-GEO
100
AcDbPolyline
 90
        8
 70
   128
 43
0.0
 10
6.233538261736889
 20
6.974295050687683
 10
6.233538261736889
 20
6.874462599346605
 10
6.233538261736889
 20
6.774630148005527
 10
6.233538261736889
 20
6.714730677200881
 10
6.333370713077965
 20
6.714730677200881
 10
6.333370713077965
 20
6.774630148005527
 10
6.333370713077965
 20
6.874462599346605
 10
6.333370713077965
 20
6.974295050687683
  0
LWPOLYLINE
  5
F4
100
AcDbEntity
  8
USP-GEO
100
AcDbPolyline
 90
        9
 70
   128
 43
0.0
 10
6.233538261736889
 20
8.173282791294026
 10
6.233538261736889
 20
7.973617888611871
 10
6.233538261736889
 20
7.813885966466147
 10
6.233538261736889
 20
7.674120534588636
 10
6.233538261736889
 20
7.554321592979343
 10
6.333370713077965
 20
7.554321592979343
 10
6.333370713077965
 20
7.674120534588636
 10
6.333370713077965
 20
7.813885966466147
 10
6.333370713077965
 20
7.973617888611871
  0
LWPOLYLINE
  5
F5
100
AcDbEntity
  8
USP-GEO
100
AcDbPolyline
 90
        3
 70
   128
 43
0.0
 10
6.333370713077965
 20
8.173282791294026
 10
6.333370713077965
 20
7.973617888611871
 10
6.233538261736889
 20
7.973617888611871
  0
LWPOLYLINE
  5
F6
100
AcDbEntity
  8
USP-GEO
100
AcDbPolyline
 90
        2
 70
   128
 43
0.0
 10
6.433203164419044
 20
6.874462599346605
 10
6.473136144955475
 20
6.874462599346605
  0
LWPOLYLINE
  5
F7
100
AcDbEntity
  8
USP-GEO
100
AcDbPolyline
 90
       14
 70
   129
 43
0.0
 10
6.952331911392647
 20
8.093416830221164
 10
6.952331911392647
 20
8.053483849684733
 10
6.952331911392647
 20
8.013550869148302
 10
6.912398930856216
 20
7.973617888611871
 10
6.872465950319785
 20
7.973617888611871
 10
6.712734028174061
 20
7.973617888611871
 10
6.652834557369413
 20
7.973617888611871
 10
6.632868067101199
 20
8.013550869148302
 10
6.612901576832982
 20
8.053483849684733
 10
6.632868067101199
 20
8.093416830221164
 10
6.652834557369413
 20
8.133349810757595
 10
6.712734028174061
 20
8.133349810757595
 10
6.872465950319785
 20
8.133349810757595
 10
6.912398930856216
 20
8.133349810757595
  0
LWPOLYLINE
  5
F8
100
AcDbEntity
  8
USP-GEO
100
AcDbPolyline
 90
        2
 70
   128
 43
0.0
 10
6.872465950319785
 20
7.973617888611871
 10
6.712734028174061
 20
7.973617888611871
  0
LWPOLYLINE
  5
F9
100
AcDbEntity
  8
USP-GEO
100
AcDbPolyline
 90
        2
 70
   128
 43
0.0
 10
6.712734028174061
 20
8.133349810757595
 10
6.872465950319785
 20
8.133349810757595
  0
LWPOLYLINE
  5
FA
100
AcDbEntity
  8
USP-GEO
100
AcDbPolyline
 90
       12
 70
   129
 43
0.0
 10
8.051487200657913
 20
6.614898225859803
 10
8.031520710389695
 20
6.574965245323372
 10
7.991587729853264
 20
6.535032264786941
 10
7.951654749316833
 20
6.515065774518726
 10
7.911721768780402
 20
6.535032264786941
 10
7.871788788243971
 20
6.574965245323372
 10
7.871788788243971
 20
6.614898225859803
 10
7.871788788243971
 20
6.654831206396234
 10
7.911721768780402
 20
6.694764186932665
 10
7.951654749316833
 20
6.694764186932665
 10
7.991587729853264
 20
6.694764186932665
 10
8.031520710389695
 20
6.654831206396234
  0
LWPOLYLINE
  5
FB
100
AcDbEntity
  8
USP-GEO
100
AcDbPolyline
 90
       12
 70
   129
 43
0.0
 10
7.452492492611447
 20
5.795273800349555
 10
7.412559512075016
 20
5.775307310081339
 10
7.372626531538585
 20
5.755340819813124
 10
7.332693551002154
 20
5.775307310081339
 10
7.292760570465723
 20
5.795273800349555
 10
7.292760570465723
 20
5.835206780885988
 10
7.292760570465723
 20
5.895106251690634
 10
7.332693551002154
 20
5.91507274195885
 10
7.372626531538585
 20
5.935039232227065
 10
7.412559512075016
 20
5.91507274195885
 10
7.452492492611447
 20
5.895106251690634
 10
7.472458982879661
 20
5.835206780885988
  0
LWPOLYLINE
  5
FC
100
AcDbEntity
  8
USP-GEO
100
AcDbPolyline
 90
        2
 70
   128
 43
0.0
 10
7.332693551002154
 20
5.91507274195885
 10
7.372626531538585
 20
5.935039232227065
  0
LWPOLYLINE
  5
FD
100
AcDbEntity
  8
USP-GEO
100
AcDbPolyline
 90
        2
 70
   128
 43
0.0
 10
7.991587729853264
 20
5.635541878203831
 10
8.031520710389695
 20
5.615575387935615
  0
LWPOLYLINE
  5
FE
100
AcDbEntity
  8
USP-GEO
100
AcDbPolyline
 90
       12
 70
   129
 43
0.0
 10
8.051487200657913
 20
5.575642407399184
 10
8.031520710389695
 20
5.515742936594538
 10
7.991587729853264
 20
5.495776446326322
 10
7.951654749316833
 20
5.475809956058107
 10
7.911721768780402
 20
5.495776446326322
 10
7.871788788243971
 20
5.515742936594538
 10
7.871788788243971
 20
5.575642407399184
 10
7.871788788243971
 20
5.615575387935615
 10
7.911721768780402
 20
5.635541878203831
 10
7.951654749316833
 20
5.655508368472046
 10
7.991587729853264
 20
5.635541878203831
 10
8.031520710389695
 20
5.615575387935615
  0
LWPOLYLINE
  5
FF
100
AcDbEntity
  8
USP-GEO
100
AcDbPolyline
 90
        2
 70
   128
 43
0.0
 10
7.911721768780402
 20
6.535032264786941
 10
7.871788788243971
 20
6.574965245323372
  0
LWPOLYLINE
  5
100
100
AcDbEntity
  8
USP-GEO
100
AcDbPolyline
 90
       12
 70
   129
 43
0.0
 10
7.472458982879661
 20
6.85449610907839
 10
7.452492492611447
 20
6.814563128541959
 10
7.412559512075016
 20
6.774630148005527
 10
7.372626531538585
 20
6.774630148005527
 10
7.332693551002154
 20
6.774630148005527
 10
7.292760570465723
 20
6.814563128541959
 10
7.292760570465723
 20
6.85449610907839
 10
7.292760570465723
 20
6.894429089614821
 10
7.332693551002154
 20
6.934362070151252
 10
7.372626531538585
 20
6.954328560419467
 10
7.412559512075016
 20
6.934362070151252
 10
7.452492492611447
 20
6.894429089614821
  0
LWPOLYLINE
  5
101
100
AcDbEntity
  8
USP-GEO
100
AcDbPolyline
 90
        2
 70
   128
 43
0.0
 10
7.332693551002154
 20
7.734020005393283
 10
7.372626531538585
 20
7.753986495661498
  0
LWPOLYLINE
  5
102
100
AcDbEntity
  8
USP-GEO
100
AcDbPolyline
 90
       12
 70
   128
 43
0.0
 10
7.332693551002154
 20
7.734020005393283
 10
7.292760570465723
 20
7.714053515125067
 10
7.292760570465723
 20
7.654154044320421
 10
7.292760570465723
 20
7.61422106378399
 10
7.332693551002154
 20
7.594254573515774
 10
7.372626531538585
 20
7.574288083247559
 10
7.412559512075016
 20
7.594254573515774
 10
7.452492492611447
 20
7.61422106378399
 10
7.472458982879661
 20
7.654154044320421
 10
7.452492492611447
 20
7.714053515125067
 10
7.412559512075016
 20
7.734020005393283
 10
7.372626531538585
 20
7.753986495661498
  0
LWPOLYLINE
  5
103
100
AcDbEntity
  8
USP-GEO
100
AcDbPolyline
 90
        2
 70
   128
 43
0.0
 10
7.472458982879661
 20
7.654154044320421
 10
7.452492492611447
 20
7.61422106378399
  0
LWPOLYLINE
  5
104
100
AcDbEntity
  8
USP-GEO
100
AcDbPolyline
 90
        7
 70
   128
 43
0.0
 10
8.530682967095085
 20
5.015582355375739
 10
8.490749986558654
 20
5.015582355375739
 10
8.450817006022223
 20
5.056513660425581
 10
8.430850515754006
 20
5.096446640962012
 10
8.450817006022223
 20
5.136379621498443
 10
8.490749986558654
 20
5.176312602034874
 10
8.530682967095085
 20
5.19627909230309
  0
LWPOLYLINE
  5
105
100
AcDbEntity
  8
USP-GEO
100
AcDbPolyline
 90
       11
 70
   128
 43
0.0
 10
8.490749986558654
 20
4.576319569474998
 10
8.570615947631516
 20
4.716085001352507
 10
8.690414889240809
 20
4.8358839429618
 10
8.770280850313671
 20
4.915749904034662
 10
8.831178645631727
 20
4.995615865107524
 10
8.851145135899944
 20
5.096446640962012
 10
8.851145135899944
 20
5.41591048525346
 10
8.831178645631727
 20
5.515742936594538
 10
8.770280850313671
 20
5.615575387935615
 10
8.690414889240809
 20
5.675474858740262
 10
8.570615947631516
 20
5.795273800349555
  0
LWPOLYLINE
  5
106
100
AcDbEntity
  8
USP-GEO
100
AcDbPolyline
 90
        7
 70
   128
 43
0.0
 10
8.530682967095085
 20
5.19627909230309
 10
8.570615947631516
 20
5.176312602034874
 10
8.610548928167947
 20
5.136379621498443
 10
8.610548928167947
 20
5.096446640962012
 10
8.610548928167947
 20
5.056513660425581
 10
8.570615947631516
 20
5.015582355375739
 10
8.530682967095085
 20
5.015582355375739
  0
LWPOLYLINE
  5
107
100
AcDbEntity
  8
USP-GEO
100
AcDbPolyline
 90
        2
 70
   128
 43
0.0
 10
8.470783496290437
 20
3.636896202355456
 10
8.470783496290437
 20
4.416587647329274
  0
LWPOLYLINE
  5
108
100
AcDbEntity
  8
USP-GEO
100
AcDbPolyline
 90
        5
 70
   128
 43
0.0
 10
8.570615947631516
 20
5.795273800349555
 10
8.490749986558654
 20
5.935039232227065
 10
8.470783496290437
 20
6.094771154372789
 10
8.470783496290437
 20
6.295434381568355
 10
8.490749986558654
 20
6.455166303714079
  0
LWPOLYLINE
  5
109
100
AcDbEntity
  8
USP-GEO
100
AcDbPolyline
 90
        2
 70
   128
 43
0.0
 10
8.851145135899944
 20
5.096446640962012
 10
8.851145135899944
 20
5.41591048525346
  0
LWPOLYLINE
  5
10A
100
AcDbEntity
  8
USP-GEO
100
AcDbPolyline
 90
        2
 70
   128
 43
0.0
 10
8.470783496290437
 20
6.094771154372789
 10
8.470783496290437
 20
6.295434381568355
  0
LWPOLYLINE
  5
10B
100
AcDbEntity
  8
USP-GEO
100
AcDbPolyline
 90
        6
 70
   128
 43
0.0
 10
8.490749986558654
 20
6.934362070151252
 10
8.450817006022223
 20
6.894429089614821
 10
8.430850515754006
 20
6.85449610907839
 10
8.450817006022223
 20
6.794596638273743
 10
8.490749986558654
 20
6.774630148005527
 10
8.530682967095085
 20
6.754663657737312
  0
LWPOLYLINE
  5
10C
100
AcDbEntity
  8
USP-GEO
100
AcDbPolyline
 90
        8
 70
   128
 43
0.0
 10
8.490749986558654
 20
6.934362070151252
 10
8.530682967095085
 20
6.934362070151252
 10
8.570615947631516
 20
6.934362070151252
 10
8.610548928167947
 20
6.894429089614821
 10
8.610548928167947
 20
6.85449610907839
 10
8.610548928167947
 20
6.794596638273743
 10
8.570615947631516
 20
6.774630148005527
 10
8.530682967095085
 20
6.754663657737312
  0
LWPOLYLINE
  5
10D
100
AcDbEntity
  8
USP-GEO
100
AcDbPolyline
 90
        3
 70
   128
 43
0.0
 10
8.831178645631727
 20
6.874462599346605
 10
8.851145135899944
 20
6.974295050687683
 10
8.851145135899944
 20
7.294757219492542
  0
LWPOLYLINE
  5
10E
100
AcDbEntity
  8
USP-GEO
100
AcDbPolyline
 90
        2
 70
   128
 43
0.0
 10
8.470783496290437
 20
7.973617888611871
 10
8.470783496290437
 20
8.173282791294026
  0
LWPOLYLINE
  5
10F
100
AcDbEntity
  8
USP-GEO
100
AcDbPolyline
 90
        2
 70
   128
 43
0.0
 10
8.770280850313671
 20
7.494422122174697
 10
8.690414889240809
 20
7.554321592979343
  0
LWPOLYLINE
  5
110
100
AcDbEntity
  8
USP-GEO
100
AcDbPolyline
 90
        2
 70
   128
 43
0.0
 10
2.497807932553762
 20
8.773275823853902
 10
2.4179419714809
 20
8.773275823853902
  0
LWPOLYLINE
  5
111
100
AcDbEntity
  8
USP-GEO
100
AcDbPolyline
 90
        8
 70
   128
 43
0.0
 10
2.497807932553762
 20
8.773275823853902
 10
2.4179419714809
 20
8.773275823853902
 10
2.378008990944469
 20
8.773275823853902
 10
2.338076010408038
 20
8.813208804390333
 10
2.338076010408038
 20
8.853141784926764
 10
2.338076010408038
 20
8.893074765463195
 10
2.378008990944469
 20
8.933007745999626
 10
2.4179419714809
 20
8.933007745999626
  0
LWPOLYLINE
  5
112
100
AcDbEntity
  8
USP-GEO
100
AcDbPolyline
 90
        2
 70
   129
 43
0.0
 10
2.497807932553762
 20
8.933007745999626
 10
2.4179419714809
 20
8.933007745999626
  0
LWPOLYLINE
  5
113
100
AcDbEntity
  8
USP-GEO
100
AcDbPolyline
 90
        4
 70
   129
 43
0.0
 10
2.497807932553762
 20
8.853141784926764
 10
2.617606874163055
 20
8.853141784926764
 10
2.617606874163055
 20
9.172605629218212
 10
2.497807932553762
 20
9.172605629218212
  0
LWPOLYLINE
  5
114
100
AcDbEntity
  8
USP-GEO
100
AcDbPolyline
 90
        4
 70
   128
 43
0.0
 10
2.497807932553762
 20
8.593577411439962
 10
2.497807932553762
 20
8.653476882244609
 10
2.497807932553762
 20
8.753309333585686
 10
2.497807932553762
 20
8.853141784926764
  0
LWPOLYLINE
  5
115
100
AcDbEntity
  8
USP-GEO
100
AcDbPolyline
 90
        3
 70
   128
 43
0.0
 10
2.617606874163055
 20
8.753309333585686
 10
2.617606874163055
 20
8.653476882244609
 10
2.617606874163055
 20
8.593577411439962
  0
LWPOLYLINE
  5
116
100
AcDbEntity
  8
USP-GEO
100
AcDbPolyline
 90
        2
 70
   128
 43
0.0
 10
2.617606874163055
 20
8.753309333585686
 10
2.617606874163055
 20
8.853141784926764
  0
LWPOLYLINE
  5
117
100
AcDbEntity
  8
USP-GEO
100
AcDbPolyline
 90
        2
 70
   129
 43
0.0
 10
6.433203164419044
 20
8.873108275194979
 10
6.333370713077965
 20
8.873108275194979
  0
LWPOLYLINE
  5
118
100
AcDbEntity
  8
USP-GEO
100
AcDbPolyline
 90
        8
 70
   128
 43
0.0
 10
6.433203164419044
 20
8.873108275194979
 10
6.473136144955475
 20
8.873108275194979
 10
6.493102635223689
 20
8.833175294658548
 10
6.513069125491906
 20
8.793242314122117
 10
6.493102635223689
 20
8.753309333585686
 10
6.473136144955475
 20
8.713376353049255
 10
6.433203164419044
 20
8.713376353049255
 10
6.333370713077965
 20
8.713376353049255
  0
LWPOLYLINE
  5
119
100
AcDbEntity
  8
USP-GEO
100
AcDbPolyline
 90
        2
 70
   128
 43
0.0
 10
6.433203164419044
 20
8.713376353049255
 10
6.333370713077965
 20
8.713376353049255
  0
LWPOLYLINE
  5
11A
100
AcDbEntity
  8
USP-GEO
100
AcDbPolyline
 90
        4
 70
   129
 43
0.0
 10
6.233538261736889
 20
9.172605629218212
 10
6.233538261736889
 20
8.853141784926764
 10
6.333370713077965
 20
8.853141784926764
 10
6.333370713077965
 20
9.172605629218212
  0
LWPOLYLINE
  5
11B
100
AcDbEntity
  8
USP-GEO
100
AcDbPolyline
 90
        8
 70
   128
 43
0.0
 10
6.233538261736889
 20
8.853141784926764
 10
6.233538261736889
 20
8.753309333585686
 10
6.233538261736889
 20
8.653476882244609
 10
6.233538261736889
 20
8.593577411439962
 10
6.333370713077965
 20
8.593577411439962
 10
6.333370713077965
 20
8.653476882244609
 10
6.333370713077965
 20
8.753309333585686
 10
6.333370713077965
 20
8.853141784926764
  0
LWPOLYLINE
  5
11C
100
AcDbEntity
  8
USP-GEO
100
AcDbPolyline
 90
       12
 70
   128
 43
0.0
 10
7.911721768780402
 20
8.433845489294238
 10
7.951654749316833
 20
8.453811979562454
 10
7.991587729853264
 20
8.433845489294238
 10
8.031520710389695
 20
8.393912508757807
 10
8.051487200657913
 20
8.353979528221376
 10
8.031520710389695
 20
8.314046547684945
 10
7.991587729853264
 20
8.274113567148514
 10
7.951654749316833
 20
8.274113567148514
 10
7.911721768780402
 20
8.274113567148514
 10
7.871788788243971
 20
8.314046547684945
 10
7.871788788243971
 20
8.353979528221376
 10
7.871788788243971
 20
8.393912508757807
  0
LWPOLYLINE
  5
11D
100
AcDbEntity
  8
USP-GEO
100
AcDbPolyline
 90
        2
 70
   128
 43
0.0
 10
7.871788788243971
 20
8.393912508757807
 10
7.911721768780402
 20
8.433845489294238
  0
LWPOLYLINE
  5
11E
100
AcDbEntity
  8
USP-GEO
100
AcDbPolyline
 90
        3
 70
   128
 43
0.0
 10
8.831178645631727
 20
8.753309333585686
 10
8.851145135899944
 20
8.853141784926764
 10
8.851145135899944
 20
9.172605629218212
  0
LWPOLYLINE
  5
11F
100
AcDbEntity
  8
USP-GEO
100
AcDbPolyline
 90
        7
 70
   128
 43
0.0
 10
8.490749986558654
 20
8.334013037953161
 10
8.570615947631516
 20
8.473778469830669
 10
8.690414889240809
 20
8.593577411439962
 10
8.770280850313671
 20
8.653476882244609
 10
8.831178645631727
 20
8.753309333585686
 10
8.851145135899944
 20
8.853141784926764
 10
8.851145135899944
 20
9.172605629218212
  0
LWPOLYLINE
  5
120
100
AcDbEntity
  8
USP-GEO
100
AcDbPolyline
 90
        9
 70
   128
 43
0.0
 10
8.490749986558654
 20
8.933007745999626
 10
8.530682967095085
 20
8.933007745999626
 10
8.570615947631516
 20
8.933007745999626
 10
8.610548928167947
 20
8.893074765463195
 10
8.610548928167947
 20
8.853141784926764
 10
8.610548928167947
 20
8.813208804390333
 10
8.570615947631516
 20
8.773275823853902
 10
8.530682967095085
 20
8.753309333585686
 10
8.490749986558654
 20
8.773275823853902
  0
LWPOLYLINE
  5
121
100
AcDbEntity
  8
USP-GEO
100
AcDbPolyline
 90
        2
 70
   128
 43
0.0
 10
8.450817006022223
 20
8.893074765463195
 10
8.490749986558654
 20
8.933007745999626
  0
LWPOLYLINE
  5
122
100
AcDbEntity
  8
USP-GEO
100
AcDbPolyline
 90
        4
 70
   128
 43
0.0
 10
8.490749986558654
 20
8.773275823853902
 10
8.450817006022223
 20
8.813208804390333
 10
8.430850515754006
 20
8.853141784926764
 10
8.450817006022223
 20
8.893074765463195
  0
LWPOLYLINE
  5
123
100
AcDbEntity
  8
USP-GEO
100
AcDbPolyline
 90
        2
 70
   128
 43
0.0
 10
8.570615947631516
 20
8.773275823853902
 10
8.530682967095085
 20
8.753309333585686
  0
ENDBLK
  5
125
100
AcDbEntity
  8
0
100
AcDbBlockEnd
  0
BLOCK
  5
185
100
AcDbEntity
  8
0
100
AcDbBlockBegin
  2
THDH410_S
 70
     0
 10
0.0
 20
0.0
 30
0.0
  3
THDH410_S
  1

  0
LWPOLYLINE
  5
128
100
AcDbEntity
  8
USP-GEO
100
AcDbPolyline
 90
       50
 70
   128
 43
0.0
 10
0.0998324513410785
 20
8.853141784926764
 10
0.0998324513410785
 20
9.172605629218212
 10
1.598317545970653
 20
9.172605629218212
 10
1.598317545970653
 20
8.853141784926764
 10
1.618284036238868
 20
8.753309333585686
 10
1.658217016775299
 20
8.653476882244609
 10
1.738082977848161
 20
8.593577411439962
 10
1.87784840972567
 20
8.473778469830669
 10
1.957714370798532
 20
8.334013037953161
 10
1.977680861066748
 20
8.173282791294026
 10
1.977680861066748
 20
7.973617888611871
 10
1.957714370798532
 20
7.813885966466147
 10
1.87784840972567
 20
7.674120534588636
 10
1.738082977848161
 20
7.554321592979343
 10
1.658217016775299
 20
7.494422122174697
 10
1.618284036238868
 20
7.394589670833619
 10
1.598317545970653
 20
7.294757219492542
 10
1.598317545970653
 20
6.974295050687683
 10
1.618284036238868
 20
6.874462599346605
 10
1.658217016775299
 20
6.774630148005527
 10
1.738082977848161
 20
6.714730677200881
 10
1.87784840972567
 20
6.594931735591588
 10
1.957714370798532
 20
6.455166303714079
 10
1.977680861066748
 20
6.295434381568355
 10
1.977680861066748
 20
6.094771154372789
 10
1.957714370798532
 20
5.935039232227065
 10
1.87784840972567
 20
5.795273800349555
 10
1.738082977848161
 20
5.675474858740262
 10
1.658217016775299
 20
5.615575387935615
 10
1.618284036238868
 20
5.515742936594538
 10
1.598317545970653
 20
5.41591048525346
 10
1.598317545970653
 20
5.096446640962012
 10
1.618284036238868
 20
4.995615865107524
 10
1.658217016775299
 20
4.915749904034662
 10
1.738082977848161
 20
4.8358839429618
 10
1.87784840972567
 20
4.716085001352507
 10
1.957714370798532
 20
4.576319569474998
 10
1.977680861066748
 20
4.416587647329274
 10
1.977680861066748
 20
3.636896202355456
 10
2.037580331871394
 20
3.137733945650069
 10
2.217278744285334
 20
2.677506344967701
 10
2.496809608040353
 20
2.278176539603389
 10
4.015261192938142
 20
0.618961198314679
 10
4.135060134547435
 20
0.459229276168955
 10
4.194959605352083
 20
0.2795308637550171
 10
4.234892585888514
 20
0.0998324513410758
 10
4.234892585888514
 20
0.0
 10
0.2196313929503706
 20
0.0
 10
4.234892585888514
 20
0.0
 10
4.234892585888514
 20
0.0998324513410758
  0
LWPOLYLINE
  5
129
100
AcDbEntity
  8
USP-GEO
100
AcDbPolyline
 90
        4
 70
   128
 43
0.0
 10
0.0
 20
8.593577411439962
 10
0.0
 20
8.473778469830669
 10
0.0
 20
8.334013037953161
 10
0.0
 20
8.173282791294026
  0
LWPOLYLINE
  5
12A
100
AcDbEntity
  8
USP-GEO
100
AcDbPolyline
 90
        8
 70
   128
 43
0.0
 10
0.0
 20
8.853141784926764
 10
0.0
 20
8.753309333585686
 10
0.0
 20
8.653476882244609
 10
0.0
 20
8.593577411439962
 10
0.0998324513410785
 20
8.593577411439962
 10
0.0998324513410785
 20
8.473778469830669
 10
0.0998324513410785
 20
8.334013037953161
 10
0.0998324513410785
 20
8.173282791294026
  0
LWPOLYLINE
  5
12B
100
AcDbEntity
  8
USP-GEO
100
AcDbPolyline
 90
       99
 70
   128
 43
0.0
 10
0.0998324513410785
 20
0.618961198314679
 10
0.0
 20
0.618961198314679
 10
0.0
 20
2.278176539603389
 10
0.0998324513410785
 20
2.278176539603389
 10
0.0998324513410785
 20
0.618961198314679
 10
0.0998324513410785
 20
0.579028217778248
 10
0.0998324513410785
 20
0.539095237241817
 10
0.0998324513410785
 20
0.5191287469736033
 10
0.0998324513410785
 20
0.539095237241817
 10
0.0998324513410785
 20
0.579028217778248
 10
0.0998324513410785
 20
0.618961198314679
 10
0.0998324513410785
 20
2.278176539603389
 10
0.0998324513410785
 20
2.677506344967701
 10
0.0998324513410785
 20
3.137733945650069
 10
0.0998324513410785
 20
3.636896202355456
 10
0.0998324513410785
 20
4.416587647329274
 10
0.0998324513410785
 20
4.576319569474998
 10
0.0998324513410785
 20
4.716085001352507
 10
0.0998324513410785
 20
4.8358839429618
 10
0.0998324513410785
 20
4.915749904034662
 10
0.0998324513410785
 20
4.995615865107524
 10
0.0998324513410785
 20
5.096446640962012
 10
0.0998324513410785
 20
5.41591048525346
 10
0.0998324513410785
 20
5.515742936594538
 10
0.0998324513410785
 20
5.615575387935615
 10
0.0998324513410785
 20
5.675474858740262
 10
0.0998324513410785
 20
5.795273800349555
 10
0.0998324513410785
 20
5.935039232227065
 10
0.0998324513410785
 20
6.094771154372789
 10
0.0998324513410785
 20
6.295434381568355
 10
0.0998324513410785
 20
6.455166303714079
 10
0.0998324513410785
 20
6.594931735591588
 10
0.0998324513410785
 20
6.714730677200881
 10
0.0998324513410785
 20
6.774630148005527
 10
0.0998324513410785
 20
6.874462599346605
 10
0.0998324513410785
 20
6.974295050687683
 10
0.0998324513410785
 20
7.294757219492542
 10
0.0998324513410785
 20
7.394589670833619
 10
0.0998324513410785
 20
7.494422122174697
 10
0.0998324513410785
 20
7.554321592979343
 10
0.0998324513410785
 20
7.674120534588636
 10
0.0998324513410785
 20
7.813885966466147
 10
0.0998324513410785
 20
7.973617888611871
 10
0.0998324513410785
 20
8.173282791294026
 10
0.0998324513410785
 20
8.334013037953161
 10
0.0998324513410785
 20
8.473778469830669
 10
0.0998324513410785
 20
8.593577411439962
 10
0.0998324513410785
 20
8.653476882244609
 10
0.0998324513410785
 20
8.753309333585686
 10
0.0998324513410785
 20
8.853141784926764
 10
0.0998324513410785
 20
9.172605629218212
 10
0.0
 20
9.172605629218212
 10
0.0
 20
8.853141784926764
 10
0.0
 20
8.753309333585686
 10
0.0
 20
8.653476882244609
 10
0.0
 20
8.593577411439962
 10
0.0
 20
8.473778469830669
 10
0.0
 20
8.334013037953161
 10
0.0
 20
8.173282791294026
 10
0.0
 20
7.973617888611871
 10
0.0
 20
7.813885966466147
 10
0.0
 20
7.674120534588636
 10
0.0
 20
7.554321592979343
 10
0.0
 20
7.494422122174697
 10
0.0
 20
7.394589670833619
 10
0.0
 20
7.294757219492542
 10
0.0
 20
6.974295050687683
 10
0.0
 20
6.874462599346605
 10
0.0
 20
6.774630148005527
 10
0.0
 20
6.714730677200881
 10
0.0
 20
6.594931735591588
 10
0.0
 20
6.455166303714079
 10
0.0
 20
6.295434381568355
 10
0.0
 20
6.094771154372789
 10
0.0
 20
5.935039232227065
 10
0.0
 20
5.795273800349555
 10
0.0
 20
5.675474858740262
 10
0.0
 20
5.615575387935615
 10
0.0
 20
5.515742936594538
 10
0.0
 20
5.41591048525346
 10
0.0
 20
5.096446640962012
 10
0.0
 20
4.995615865107524
 10
0.0
 20
4.915749904034662
 10
0.0
 20
4.8358839429618
 10
0.0
 20
4.716085001352507
 10
0.0
 20
4.576319569474998
 10
0.0
 20
4.416587647329274
 10
0.0
 20
3.636896202355456
 10
0.0
 20
3.137733945650069
 10
0.0
 20
2.677506344967701
 10
0.0
 20
2.278176539603389
 10
0.0
 20
0.618961198314679
 10
0.0
 20
0.579028217778248
 10
0.0
 20
0.539095237241817
 10
0.0
 20
0.5191287469736033
 10
0.0998324513410785
 20
0.5191287469736033
 10
0.159731922145725
 20
0.3793633150960929
 10
0.1996649026821551
 20
0.2395978832185861
 10
0.2196313929503706
 20
0.0998324513410758
  0
LWPOLYLINE
  5
12C
100
AcDbEntity
  8
USP-GEO
100
AcDbPolyline
 90
       12
 70
   129
 43
0.0
 10
1.058223984215423
 20
8.033517359416517
 10
1.11812345502007
 20
8.213215771830457
 10
1.237922396629363
 20
8.334013037953161
 10
1.398652643288498
 20
8.373946018489592
 10
1.578351055702437
 20
8.334013037953161
 10
1.69814999731173
 20
8.213215771830457
 10
1.738082977848161
 20
8.033517359416517
 10
1.69814999731173
 20
7.873785437270793
 10
1.578351055702437
 20
7.753986495661498
 10
1.398652643288498
 20
7.694087024856852
 10
1.237922396629363
 20
7.753986495661498
 10
1.11812345502007
 20
7.873785437270793
  0
TEXT
  5
12D
100
AcDbEntity
  8
USP-TXT
100
AcDbText
 10
-0.4693525939138903
 20
-1.780014246979089
 30
0.0
 40
0.296875
  1
THDH410 - SIDE VIEW
 72
     1
 11
2.227261989419442
 21
-1.780014246979089
 31
0.0
100
AcDbText
  0
LWPOLYLINE
  5
12E
100
AcDbEntity
  8
USP-GEO
100
AcDbPolyline
 90
        3
 70
   128
 43
0.0
 10
4.135060134547435
 20
0.459229276168955
 10
4.015261192938142
 20
0.618961198314679
 10
2.496809608040353
 20
2.278176539603389
  0
LWPOLYLINE
  5
12F
100
AcDbEntity
  8
USP-GEO
100
AcDbPolyline
 90
        2
 70
   128
 43
0.0
 10
4.234892585888514
 20
0.0998324513410758
 10
0.2196313929503706
 20
0.0998324513410758
  0
LWPOLYLINE
  5
130
100
AcDbEntity
  8
USP-GEO
100
AcDbPolyline
 90
       12
 70
   129
 43
0.0
 10
1.598317545970653
 20
1.998645675848372
 10
1.598317545970653
 20
2.038578656384803
 10
1.598317545970653
 20
2.078511636921234
 10
1.618284036238868
 20
2.098478127189451
 10
1.658217016775299
 20
2.118444617457665
 10
1.678183507043515
 20
2.098478127189451
 10
1.69814999731173
 20
2.078511636921234
 10
1.69814999731173
 20
2.038578656384803
 10
1.69814999731173
 20
1.998645675848372
 10
1.678183507043515
 20
1.958712695311941
 10
1.658217016775299
 20
1.958712695311941
 10
1.618284036238868
 20
1.958712695311941
  0
LWPOLYLINE
  5
131
100
AcDbEntity
  8
USP-GEO
100
AcDbPolyline
 90
       12
 70
   129
 43
0.0
 10
1.058223984215423
 20
2.038578656384803
 10
1.11812345502007
 20
1.857881919457454
 10
1.237922396629363
 20
1.738082977848161
 10
1.398652643288498
 20
1.69814999731173
 10
1.578351055702437
 20
1.738082977848161
 10
1.69814999731173
 20
1.857881919457454
 10
1.738082977848161
 20
2.038578656384803
 10
1.69814999731173
 20
2.198310578530527
 10
1.578351055702437
 20
2.338076010408038
 10
1.398652643288498
 20
2.378008990944469
 10
1.237922396629363
 20
2.338076010408038
 10
1.11812345502007
 20
2.198310578530527
  0
LWPOLYLINE
  5
132
100
AcDbEntity
  8
USP-GEO
100
AcDbPolyline
 90
        2
 70
   129
 43
0.0
 10
0.1796984124139396
 20
1.498485094629575
 10
0.0998324513410785
 20
1.498485094629575
  0
LWPOLYLINE
  5
133
100
AcDbEntity
  8
USP-GEO
100
AcDbPolyline
 90
        2
 70
   129
 43
0.0
 10
0.0998324513410785
 20
1.458552114093144
 10
0.1796984124139396
 20
1.458552114093144
  0
LWPOLYLINE
  5
134
100
AcDbEntity
  8
USP-GEO
100
AcDbPolyline
 90
        2
 70
   129
 43
0.0
 10
0.1796984124139396
 20
1.618284036238868
 10
0.0998324513410785
 20
1.618284036238868
  0
LWPOLYLINE
  5
135
100
AcDbEntity
  8
USP-GEO
100
AcDbPolyline
 90
        5
 70
   128
 43
0.0
 10
0.0998324513410785
 20
0.5191287469736033
 10
0.0
 20
0.5191287469736033
 10
0.0
 20
0.539095237241817
 10
0.0
 20
0.579028217778248
 10
0.0
 20
0.618961198314679
  0
LWPOLYLINE
  5
136
100
AcDbEntity
  8
USP-GEO
100
AcDbPolyline
 90
       12
 70
   129
 43
0.0
 10
1.058223984215423
 20
0.9194568768513242
 10
1.11812345502007
 20
1.079188798997048
 10
1.237922396629363
 20
1.198987740606341
 10
1.398652643288498
 20
1.258887211410989
 10
1.578351055702437
 20
1.198987740606341
 10
1.69814999731173
 20
1.079188798997048
 10
1.738082977848161
 20
0.9194568768513242
 10
1.69814999731173
 20
0.7387601399239721
 10
1.578351055702437
 20
0.618961198314679
 10
1.398652643288498
 20
0.579028217778248
 10
1.237922396629363
 20
0.618961198314679
 10
1.11812345502007
 20
0.7387601399239721
  0
LWPOLYLINE
  5
137
100
AcDbEntity
  8
USP-GEO
100
AcDbPolyline
 90
        2
 70
   129
 43
0.0
 10
0.2196313929503706
 20
0.0
 10
0.2196313929503706
 20
0.0998324513410758
  0
LWPOLYLINE
  5
138
100
AcDbEntity
  8
USP-GEO
100
AcDbPolyline
 90
        7
 70
   128
 43
0.0
 10
0.1796984124139396
 20
1.618284036238868
 10
0.2196313929503706
 20
1.618284036238868
 10
0.2595643734868016
 20
1.578351055702437
 10
0.2795308637550171
 20
1.538418075166006
 10
0.2595643734868016
 20
1.498485094629575
 10
0.2196313929503706
 20
1.458552114093144
 10
0.1796984124139396
 20
1.458552114093144
  0
LWPOLYLINE
  5
139
100
AcDbEntity
  8
USP-GEO
100
AcDbPolyline
 90
        3
 70
   128
 43
0.0
 10
0.1796984124139396
 20
1.498485094629575
 10
0.2196313929503706
 20
1.478518604361358
 10
0.2395978832185861
 20
1.478518604361358
  0
LWPOLYLINE
  5
13A
100
AcDbEntity
  8
USP-GEO
100
AcDbPolyline
 90
        4
 70
   129
 43
0.0
 10
1.018291003678992
 20
1.478518604361358
 10
1.158056435556501
 20
1.598317545970651
 10
1.277855377165794
 20
1.478518604361358
 10
1.158056435556501
 20
1.338753172483851
  0
LWPOLYLINE
  5
13B
100
AcDbEntity
  8
USP-GEO
100
AcDbPolyline
 90
        4
 70
   129
 43
0.0
 10
1.018291003678992
 20
1.478518604361358
 10
1.158056435556501
 20
1.598317545970651
 10
1.277855377165794
 20
1.478518604361358
 10
1.158056435556501
 20
1.338753172483851
  0
LWPOLYLINE
  5
13C
100
AcDbEntity
  8
USP-GEO
100
AcDbPolyline
 90
        2
 70
   129
 43
0.0
 10
1.11812345502007
 20
1.55838456543422
 10
1.158056435556501
 20
1.538418075166006
  0
LWPOLYLINE
  5
13D
100
AcDbEntity
  8
USP-GEO
100
AcDbPolyline
 90
        2
 70
   129
 43
0.0
 10
1.158056435556501
 20
1.538418075166006
 10
1.178022925824716
 20
1.55838456543422
  0
LWPOLYLINE
  5
13E
100
AcDbEntity
  8
USP-GEO
100
AcDbPolyline
 90
        5
 70
   128
 43
0.0
 10
1.618284036238868
 20
0.9593898573877552
 10
1.618284036238868
 20
0.9394233671195379
 10
1.638250526507084
 20
0.9194568768513242
 10
1.618284036238868
 20
0.8795238963148932
 10
1.618284036238868
 20
0.8595574060466759
  0
LWPOLYLINE
  5
13F
100
AcDbEntity
  8
USP-GEO
100
AcDbPolyline
 90
       12
 70
   129
 43
0.0
 10
1.598317545970653
 20
0.8795238963148932
 10
1.598317545970653
 20
0.9194568768513242
 10
1.598317545970653
 20
0.9394233671195379
 10
1.618284036238868
 20
0.979356347655969
 10
1.658217016775299
 20
0.979356347655969
 10
1.678183507043515
 20
0.979356347655969
 10
1.69814999731173
 20
0.9394233671195379
 10
1.69814999731173
 20
0.9194568768513242
 10
1.69814999731173
 20
0.8795238963148932
 10
1.678183507043515
 20
0.8395909157784622
 10
1.658217016775299
 20
0.8395909157784622
 10
1.618284036238868
 20
0.8395909157784622
  0
LWPOLYLINE
  5
140
100
AcDbEntity
  8
USP-GEO
100
AcDbPolyline
 90
        2
 70
   129
 43
0.0
 10
0.1796984124139396
 20
3.377331828868655
 10
0.0998324513410785
 20
3.377331828868655
  0
LWPOLYLINE
  5
141
100
AcDbEntity
  8
USP-GEO
100
AcDbPolyline
 90
        2
 70
   129
 43
0.0
 10
0.1796984124139396
 20
5.116413131230228
 10
0.0998324513410785
 20
5.116413131230228
  0
LWPOLYLINE
  5
142
100
AcDbEntity
  8
USP-GEO
100
AcDbPolyline
 90
        2
 70
   129
 43
0.0
 10
0.1796984124139396
 20
6.874462599346605
 10
0.0998324513410785
 20
6.874462599346605
  0
LWPOLYLINE
  5
143
100
AcDbEntity
  8
USP-GEO
100
AcDbPolyline
 90
        8
 70
   128
 43
0.0
 10
0.1796984124139396
 20
6.874462599346605
 10
0.2196313929503706
 20
6.874462599346605
 10
0.2595643734868016
 20
6.834529618810174
 10
0.2595643734868016
 20
6.814563128541959
 10
0.2196313929503706
 20
6.774630148005527
 10
0.1796984124139396
 20
6.774630148005527
 10
0.0998324513410785
 20
6.774630148005527
 10
0.0998324513410785
 20
6.714730677200881
  0
LWPOLYLINE
  5
144
100
AcDbEntity
  8
USP-GEO
100
AcDbPolyline
 90
        2
 70
   129
 43
0.0
 10
0.0998324513410785
 20
5.015582355375739
 10
0.1796984124139396
 20
5.015582355375739
  0
LWPOLYLINE
  5
145
100
AcDbEntity
  8
USP-GEO
100
AcDbPolyline
 90
        2
 70
   129
 43
0.0
 10
0.0998324513410785
 20
3.257532887259362
 10
0.1796984124139396
 20
3.257532887259362
  0
LWPOLYLINE
  5
146
100
AcDbEntity
  8
USP-GEO
100
AcDbPolyline
 90
        6
 70
   128
 43
0.0
 10
0.1796984124139396
 20
6.774630148005527
 10
0.0998324513410785
 20
6.774630148005527
 10
0.0998324513410785
 20
6.874462599346605
 10
0.0998324513410785
 20
6.974295050687683
 10
0.0
 20
6.974295050687683
 10
0.0
 20
7.294757219492542
  0
LWPOLYLINE
  5
147
100
AcDbEntity
  8
USP-GEO
100
AcDbPolyline
 90
        2
 70
   129
 43
0.0
 10
0.1796984124139396
 20
5.19627909230309
 10
0.0998324513410785
 20
5.19627909230309
  0
LWPOLYLINE
  5
148
100
AcDbEntity
  8
USP-GEO
100
AcDbPolyline
 90
        2
 70
   129
 43
0.0
 10
0.1796984124139396
 20
6.934362070151252
 10
0.0998324513410785
 20
6.934362070151252
  0
LWPOLYLINE
  5
149
100
AcDbEntity
  8
USP-GEO
100
AcDbPolyline
 90
        2
 70
   129
 43
0.0
 10
0.1796984124139396
 20
3.437231299673301
 10
0.0998324513410785
 20
3.437231299673301
  0
LWPOLYLINE
  5
14A
100
AcDbEntity
  8
USP-GEO
100
AcDbPolyline
 90
       11
 70
   128
 43
0.0
 10
0.0
 20
5.096446640962012
 10
0.0
 20
4.995615865107524
 10
0.0
 20
4.915749904034662
 10
0.0
 20
4.8358839429618
 10
0.0
 20
4.716085001352507
 10
0.0
 20
4.576319569474998
 10
0.0
 20
4.416587647329274
 10
0.0
 20
3.636896202355456
 10
0.0
 20
3.137733945650069
 10
0.0
 20
2.677506344967701
 10
0.0
 20
2.278176539603389
  0
LWPOLYLINE
  5
14B
100
AcDbEntity
  8
USP-GEO
100
AcDbPolyline
 90
       13
 70
   128
 43
0.0
 10
0.0998324513410785
 20
4.8358839429618
 10
0.0998324513410785
 20
4.915749904034662
 10
0.0998324513410785
 20
4.995615865107524
 10
0.0998324513410785
 20
5.096446640962012
 10
0.0
 20
5.096446640962012
 10
0.0
 20
5.41591048525346
 10
0.0
 20
5.515742936594538
 10
0.0
 20
5.615575387935615
 10
0.0
 20
5.675474858740262
 10
0.0998324513410785
 20
5.675474858740262
 10
0.0998324513410785
 20
5.615575387935615
 10
0.0998324513410785
 20
5.515742936594538
 10
0.0998324513410785
 20
5.41591048525346
  0
LWPOLYLINE
  5
14C
100
AcDbEntity
  8
USP-GEO
100
AcDbPolyline
 90
        5
 70
   128
 43
0.0
 10
0.0998324513410785
 20
2.278176539603389
 10
0.0998324513410785
 20
2.677506344967701
 10
0.0998324513410785
 20
3.137733945650069
 10
0.0998324513410785
 20
3.636896202355456
 10
0.0
 20
3.636896202355456
  0
LWPOLYLINE
  5
14D
100
AcDbEntity
  8
USP-GEO
100
AcDbPolyline
 90
        3
 70
   128
 43
0.0
 10
0.0998324513410785
 20
3.636896202355456
 10
0.0998324513410785
 20
4.416587647329274
 10
0.0
 20
4.416587647329274
  0
LWPOLYLINE
  5
14E
100
AcDbEntity
  8
USP-GEO
100
AcDbPolyline
 90
        5
 70
   128
 43
0.0
 10
0.0998324513410785
 20
4.416587647329274
 10
0.0998324513410785
 20
4.576319569474998
 10
0.0998324513410785
 20
4.716085001352507
 10
0.0998324513410785
 20
4.8358839429618
 10
0.0
 20
4.8358839429618
  0
LWPOLYLINE
  5
14F
100
AcDbEntity
  8
USP-GEO
100
AcDbPolyline
 90
        8
 70
   128
 43
0.0
 10
0.0998324513410785
 20
6.295434381568355
 10
0.0998324513410785
 20
6.455166303714079
 10
0.0998324513410785
 20
6.594931735591588
 10
0.0998324513410785
 20
6.714730677200881
 10
0.0
 20
6.714730677200881
 10
0.0
 20
6.594931735591588
 10
0.0
 20
6.455166303714079
 10
0.0
 20
6.295434381568355
  0
LWPOLYLINE
  5
150
100
AcDbEntity
  8
USP-GEO
100
AcDbPolyline
 90
        4
 70
   128
 43
0.0
 10
0.0
 20
6.094771154372789
 10
0.0
 20
5.935039232227065
 10
0.0
 20
5.795273800349555
 10
0.0
 20
5.675474858740262
  0
LWPOLYLINE
  5
151
100
AcDbEntity
  8
USP-GEO
100
AcDbPolyline
 90
        8
 70
   128
 43
0.0
 10
0.0998324513410785
 20
6.094771154372789
 10
0.0
 20
6.094771154372789
 10
0.0
 20
6.295434381568355
 10
0.0998324513410785
 20
6.295434381568355
 10
0.0998324513410785
 20
6.094771154372789
 10
0.0998324513410785
 20
5.935039232227065
 10
0.0998324513410785
 20
5.795273800349555
 10
0.0998324513410785
 20
5.675474858740262
  0
LWPOLYLINE
  5
152
100
AcDbEntity
  8
USP-GEO
100
AcDbPolyline
 90
        3
 70
   128
 43
0.0
 10
0.0998324513410785
 20
5.096446640962012
 10
0.0998324513410785
 20
5.41591048525346
 10
0.0
 20
5.41591048525346
  0
LWPOLYLINE
  5
153
100
AcDbEntity
  8
USP-GEO
100
AcDbPolyline
 90
        6
 70
   128
 43
0.0
 10
0.0998324513410785
 20
6.974295050687683
 10
0.0998324513410785
 20
7.294757219492542
 10
0.0
 20
7.294757219492542
 10
0.0
 20
7.394589670833619
 10
0.0
 20
7.494422122174697
 10
0.0
 20
7.554321592979343
  0
LWPOLYLINE
  5
154
100
AcDbEntity
  8
USP-GEO
100
AcDbPolyline
 90
       11
 70
   128
 43
0.0
 10
0.0998324513410785
 20
7.294757219492542
 10
0.0998324513410785
 20
7.394589670833619
 10
0.0998324513410785
 20
7.494422122174697
 10
0.0998324513410785
 20
7.554321592979343
 10
0.0
 20
7.554321592979343
 10
0.0
 20
7.674120534588636
 10
0.0
 20
7.813885966466147
 10
0.0
 20
7.973617888611871
 10
0.0
 20
8.173282791294026
 10
0.0998324513410785
 20
8.173282791294026
 10
0.0998324513410785
 20
7.973617888611871
  0
LWPOLYLINE
  5
155
100
AcDbEntity
  8
USP-GEO
100
AcDbPolyline
 90
        4
 70
   128
 43
0.0
 10
0.0
 20
6.974295050687683
 10
0.0
 20
6.874462599346605
 10
0.0
 20
6.774630148005527
 10
0.0
 20
6.714730677200881
  0
LWPOLYLINE
  5
156
100
AcDbEntity
  8
USP-GEO
100
AcDbPolyline
 90
        5
 70
   128
 43
0.0
 10
0.0998324513410785
 20
7.554321592979343
 10
0.0998324513410785
 20
7.674120534588636
 10
0.0998324513410785
 20
7.813885966466147
 10
0.0998324513410785
 20
7.973617888611871
 10
0.0
 20
7.973617888611871
  0
LWPOLYLINE
  5
157
100
AcDbEntity
  8
USP-GEO
100
AcDbPolyline
 90
        4
 70
   128
 43
0.0
 10
0.1796984124139396
 20
5.116413131230228
 10
0.2196313929503706
 20
5.116413131230228
 10
0.2595643734868016
 20
5.076480150693797
 10
0.2605626980002125
 20
5.076480150693797
  0
LWPOLYLINE
  5
158
100
AcDbEntity
  8
USP-GEO
100
AcDbPolyline
 90
        7
 70
   128
 43
0.0
 10
0.1796984124139396
 20
5.19627909230309
 10
0.2196313929503706
 20
5.176312602034874
 10
0.2595643734868016
 20
5.136379621498443
 10
0.2795308637550171
 20
5.096446640962012
 10
0.2595643734868016
 20
5.056513660425581
 10
0.2196313929503706
 20
5.035548845643955
 10
0.1796984124139396
 20
5.015582355375739
  0
LWPOLYLINE
  5
159
100
AcDbEntity
  8
USP-GEO
100
AcDbPolyline
 90
       12
 70
   129
 43
0.0
 10
1.11812345502007
 20
4.456520627865705
 10
1.237922396629363
 20
4.576319569474998
 10
1.398652643288498
 20
4.636219040279645
 10
1.578351055702437
 20
4.576319569474998
 10
1.69814999731173
 20
4.456520627865705
 10
1.738082977848161
 20
4.296788705719981
 10
1.69814999731173
 20
4.117090293306041
 10
1.578351055702437
 20
3.997291351696748
 10
1.398652643288498
 20
3.956360046646906
 10
1.237922396629363
 20
3.997291351696748
 10
1.11812345502007
 20
4.117090293306041
 10
1.058223984215423
 20
4.296788705719981
  0
LWPOLYLINE
  5
15A
100
AcDbEntity
  8
USP-GEO
100
AcDbPolyline
 90
       12
 70
   129
 43
0.0
 10
1.11812345502007
 20
2.99796851377256
 10
1.058223984215423
 20
3.157700435918284
 10
1.11812345502007
 20
3.337398848332224
 10
1.237922396629363
 20
3.457197789941517
 10
1.398652643288498
 20
3.497130770477948
 10
1.578351055702437
 20
3.457197789941517
 10
1.69814999731173
 20
3.337398848332224
 10
1.738082977848161
 20
3.157700435918284
 10
1.69814999731173
 20
2.99796851377256
 10
1.578351055702437
 20
2.877171247649856
 10
1.398652643288498
 20
2.81727177684521
 10
1.237922396629363
 20
2.877171247649856
  0
LWPOLYLINE
  5
15B
100
AcDbEntity
  8
USP-GEO
100
AcDbPolyline
 90
        7
 70
   128
 43
0.0
 10
0.1796984124139396
 20
3.437231299673301
 10
0.2196313929503706
 20
3.417264809405086
 10
0.2595643734868016
 20
3.39729831913687
 10
0.2795308637550171
 20
3.357365338600439
 10
0.2595643734868016
 20
3.297465867795793
 10
0.2196313929503706
 20
3.277499377527577
 10
0.1796984124139396
 20
3.257532887259362
  0
LWPOLYLINE
  5
15C
100
AcDbEntity
  8
USP-GEO
100
AcDbPolyline
 90
        4
 70
   128
 43
0.0
 10
0.1796984124139396
 20
3.377331828868655
 10
0.2196313929503706
 20
3.357365338600439
 10
0.2595643734868016
 20
3.337398848332224
 10
0.2595643734868016
 20
3.317432358064008
  0
LWPOLYLINE
  5
15D
100
AcDbEntity
  8
USP-GEO
100
AcDbPolyline
 90
        4
 70
   129
 43
0.0
 10
0.8585590815332686
 20
4.596286059743214
 10
0.9783580231425617
 20
4.736051491620722
 10
1.098156964751854
 20
4.596286059743214
 10
0.9783580231425617
 20
4.47648711813392
  0
LWPOLYLINE
  5
15E
100
AcDbEntity
  8
USP-GEO
100
AcDbPolyline
 90
        4
 70
   129
 43
0.0
 10
1.098156964751854
 20
4.596286059743214
 10
0.9783580231425617
 20
4.47648711813392
 10
0.8585590815332686
 20
4.596286059743214
 10
0.9783580231425617
 20
4.736051491620722
  0
LWPOLYLINE
  5
15F
100
AcDbEntity
  8
USP-GEO
100
AcDbPolyline
 90
        2
 70
   129
 43
0.0
 10
0.9384250426061306
 20
4.696118511084291
 10
0.9783580231425617
 20
4.65618553054786
  0
LWPOLYLINE
  5
160
100
AcDbEntity
  8
USP-GEO
100
AcDbPolyline
 90
        2
 70
   129
 43
0.0
 10
0.9783580231425617
 20
4.65618553054786
 10
1.018291003678992
 20
4.696118511084291
  0
LWPOLYLINE
  5
161
100
AcDbEntity
  8
USP-GEO
100
AcDbPolyline
 90
        5
 70
   128
 43
0.0
 10
1.619282360752279
 20
2.078511636921234
 10
1.618284036238868
 20
2.078511636921234
 10
1.638250526507084
 20
2.038578656384803
 10
1.618284036238868
 20
1.998645675848372
 10
1.618284036238868
 20
1.978679185580158
  0
LWPOLYLINE
  5
162
100
AcDbEntity
  8
USP-GEO
100
AcDbPolyline
 90
        5
 70
   128
 43
0.0
 10
1.618284036238868
 20
3.217599906722931
 10
1.618284036238868
 20
3.197633416454715
 10
1.638250526507084
 20
3.157700435918284
 10
1.618284036238868
 20
3.117767455381853
 10
1.619282360752279
 20
3.117767455381853
  0
LWPOLYLINE
  5
163
100
AcDbEntity
  8
USP-GEO
100
AcDbPolyline
 90
       12
 70
   129
 43
0.0
 10
1.598317545970653
 20
3.117767455381853
 10
1.618284036238868
 20
3.097800965113638
 10
1.658217016775299
 20
3.077834474845422
 10
1.678183507043515
 20
3.097800965113638
 10
1.69814999731173
 20
3.117767455381853
 10
1.69814999731173
 20
3.157700435918284
 10
1.69814999731173
 20
3.197633416454715
 10
1.678183507043515
 20
3.237566396991146
 10
1.658217016775299
 20
3.237566396991146
 10
1.618284036238868
 20
3.237566396991146
 10
1.598317545970653
 20
3.197633416454715
 10
1.598317545970653
 20
3.157700435918284
  0
LWPOLYLINE
  5
164
100
AcDbEntity
  8
USP-GEO
100
AcDbPolyline
 90
        2
 70
   128
 43
0.0
 10
1.977680861066748
 20
3.636896202355456
 10
1.977680861066748
 20
4.416587647329274
  0
LWPOLYLINE
  5
165
100
AcDbEntity
  8
USP-GEO
100
AcDbPolyline
 90
        5
 70
   128
 43
0.0
 10
1.618284036238868
 20
4.236889234915334
 10
1.618284036238868
 20
4.25685572518355
 10
1.638250526507084
 20
4.296788705719981
 10
1.618284036238868
 20
4.336721686256412
 10
1.619282360752279
 20
4.336721686256412
  0
LWPOLYLINE
  5
166
100
AcDbEntity
  8
USP-GEO
100
AcDbPolyline
 90
       12
 70
   129
 43
0.0
 10
1.598317545970653
 20
4.25685572518355
 10
1.618284036238868
 20
4.216922744647119
 10
1.658217016775299
 20
4.216922744647119
 10
1.678183507043515
 20
4.216922744647119
 10
1.69814999731173
 20
4.25685572518355
 10
1.69814999731173
 20
4.296788705719981
 10
1.69814999731173
 20
4.336721686256412
 10
1.678183507043515
 20
4.356688176524627
 10
1.658217016775299
 20
4.356688176524627
 10
1.618284036238868
 20
4.356688176524627
 10
1.598317545970653
 20
4.336721686256412
 10
1.598317545970653
 20
4.296788705719981
  0
LWPOLYLINE
  5
167
100
AcDbEntity
  8
USP-GEO
100
AcDbPolyline
 90
        2
 70
   128
 43
0.0
 10
1.87784840972567
 20
4.716085001352507
 10
1.738082977848161
 20
4.8358839429618
  0
LWPOLYLINE
  5
168
100
AcDbEntity
  8
USP-GEO
100
AcDbPolyline
 90
       12
 70
   129
 43
0.0
 10
1.058223984215423
 20
6.155668949690847
 10
1.11812345502007
 20
5.994938703031712
 10
1.237922396629363
 20
5.875139761422419
 10
1.398652643288498
 20
5.835206780885988
 10
1.578351055702437
 20
5.875139761422419
 10
1.69814999731173
 20
5.994938703031712
 10
1.738082977848161
 20
6.155668949690847
 10
1.69814999731173
 20
6.335367362104786
 10
1.578351055702437
 20
6.455166303714079
 10
1.398652643288498
 20
6.49509928425051
 10
1.237922396629363
 20
6.455166303714079
 10
1.11812345502007
 20
6.335367362104786
  0
LWPOLYLINE
  5
169
100
AcDbEntity
  8
USP-GEO
100
AcDbPolyline
 90
        2
 70
   128
 43
0.0
 10
0.2595643734868016
 20
5.136379621498443
 10
0.2795308637550171
 20
5.096446640962012
  0
LWPOLYLINE
  5
16A
100
AcDbEntity
  8
USP-GEO
100
AcDbPolyline
 90
        4
 70
   129
 43
0.0
 10
0.8585590815332686
 20
6.475132793982295
 10
0.9783580231425617
 20
6.614898225859803
 10
1.098156964751854
 20
6.475132793982295
 10
0.9783580231425617
 20
6.355333852373002
  0
LWPOLYLINE
  5
16B
100
AcDbEntity
  8
USP-GEO
100
AcDbPolyline
 90
        4
 70
   129
 43
0.0
 10
1.098156964751854
 20
6.475132793982295
 10
0.9783580231425617
 20
6.355333852373002
 10
0.8585590815332686
 20
6.475132793982295
 10
0.9783580231425617
 20
6.614898225859803
  0
LWPOLYLINE
  5
16C
100
AcDbEntity
  8
USP-GEO
100
AcDbPolyline
 90
        2
 70
   129
 43
0.0
 10
0.9384250426061306
 20
6.574965245323372
 10
0.9783580231425617
 20
6.535032264786941
  0
LWPOLYLINE
  5
16D
100
AcDbEntity
  8
USP-GEO
100
AcDbPolyline
 90
        2
 70
   129
 43
0.0
 10
0.9783580231425617
 20
6.535032264786941
 10
1.018291003678992
 20
6.574965245323372
  0
LWPOLYLINE
  5
16E
100
AcDbEntity
  8
USP-GEO
100
AcDbPolyline
 90
       12
 70
   129
 43
0.0
 10
0.4592292761689567
 20
7.714053515125067
 10
0.4392627859007412
 20
7.793919476197931
 10
0.4592292761689567
 20
7.873785437270793
 10
0.519128746973605
 20
7.93368490807544
 10
0.5989947080464671
 20
7.953651398343655
 10
0.6788606691193291
 20
7.93368490807544
 10
0.7387601399239756
 20
7.873785437270793
 10
0.7587266301921911
 20
7.793919476197931
 10
0.7387601399239756
 20
7.714053515125067
 10
0.6788606691193291
 20
7.654154044320421
 10
0.5989947080464671
 20
7.634187554052205
 10
0.519128746973605
 20
7.654154044320421
  0
LWPOLYLINE
  5
16F
100
AcDbEntity
  8
USP-GEO
100
AcDbPolyline
 90
        5
 70
   128
 43
0.0
 10
0.1796984124139396
 20
6.934362070151252
 10
0.2196313929503706
 20
6.934362070151252
 10
0.2595643734868016
 20
6.894429089614821
 10
0.2795308637550171
 20
6.85449610907839
 10
0.2595643734868016
 20
6.814563128541959
  0
LWPOLYLINE
  5
170
100
AcDbEntity
  8
USP-GEO
100
AcDbPolyline
 90
        2
 70
   128
 43
0.0
 10
1.598317545970653
 20
5.096446640962012
 10
1.598317545970653
 20
5.41591048525346
  0
LWPOLYLINE
  5
171
100
AcDbEntity
  8
USP-GEO
100
AcDbPolyline
 90
        5
 70
   128
 43
0.0
 10
1.618284036238868
 20
6.215568420495493
 10
1.618284036238868
 20
6.195601930227278
 10
1.638250526507084
 20
6.155668949690847
 10
1.618284036238868
 20
6.135702459422631
 10
1.618284036238868
 20
6.115735969154416
  0
LWPOLYLINE
  5
172
100
AcDbEntity
  8
USP-GEO
100
AcDbPolyline
 90
       12
 70
   129
 43
0.0
 10
1.598317545970653
 20
6.195601930227278
 10
1.598317545970653
 20
6.155668949690847
 10
1.598317545970653
 20
6.135702459422631
 10
1.618284036238868
 20
6.094771154372789
 10
1.658217016775299
 20
6.094771154372789
 10
1.678183507043515
 20
6.094771154372789
 10
1.69814999731173
 20
6.135702459422631
 10
1.69814999731173
 20
6.155668949690847
 10
1.69814999731173
 20
6.195601930227278
 10
1.678183507043515
 20
6.235534910763709
 10
1.658217016775299
 20
6.235534910763709
 10
1.618284036238868
 20
6.235534910763709
  0
LWPOLYLINE
  5
173
100
AcDbEntity
  8
USP-GEO
100
AcDbPolyline
 90
        3
 70
   128
 43
0.0
 10
1.957714370798532
 20
5.935039232227065
 10
1.977680861066748
 20
6.094771154372789
 10
1.977680861066748
 20
6.295434381568355
  0
LWPOLYLINE
  5
174
100
AcDbEntity
  8
USP-GEO
100
AcDbPolyline
 90
        2
 70
   128
 43
0.0
 10
1.598317545970653
 20
6.974295050687683
 10
1.598317545970653
 20
7.294757219492542
  0
LWPOLYLINE
  5
175
100
AcDbEntity
  8
USP-GEO
100
AcDbPolyline
 90
        5
 70
   128
 43
0.0
 10
1.618284036238868
 20
8.093416830221164
 10
1.618284036238868
 20
8.073450339952948
 10
1.638250526507084
 20
8.033517359416517
 10
1.618284036238868
 20
7.993584378880086
 10
1.619282360752279
 20
7.993584378880086
  0
LWPOLYLINE
  5
176
100
AcDbEntity
  8
USP-GEO
100
AcDbPolyline
 90
       12
 70
   129
 43
0.0
 10
1.598317545970653
 20
7.993584378880086
 10
1.598317545970653
 20
8.033517359416517
 10
1.598317545970653
 20
8.073450339952948
 10
1.618284036238868
 20
8.113383320489379
 10
1.658217016775299
 20
8.113383320489379
 10
1.678183507043515
 20
8.113383320489379
 10
1.69814999731173
 20
8.073450339952948
 10
1.69814999731173
 20
8.033517359416517
 10
1.69814999731173
 20
7.993584378880086
 10
1.678183507043515
 20
7.973617888611871
 10
1.658217016775299
 20
7.953651398343655
 10
1.618284036238868
 20
7.973617888611871
  0
LWPOLYLINE
  5
177
100
AcDbEntity
  8
USP-GEO
100
AcDbPolyline
 90
        3
 70
   128
 43
0.0
 10
1.957714370798532
 20
7.813885966466147
 10
1.977680861066748
 20
7.973617888611871
 10
1.977680861066748
 20
8.173282791294026
  0
LWPOLYLINE
  5
178
100
AcDbEntity
  8
USP-GEO
100
AcDbPolyline
 90
        2
 70
   129
 43
0.0
 10
4.235890910401924
 20
0.0
 10
4.234892585888514
 20
0.0
  0
LWPOLYLINE
  5
179
100
AcDbEntity
  8
USP-GEO
100
AcDbPolyline
 90
        2
 70
   129
 43
0.0
 10
4.235890910401924
 20
0.0998324513410758
 10
4.234892585888514
 20
0.0998324513410758
  0
LWPOLYLINE
  5
17A
100
AcDbEntity
  8
USP-GEO
100
AcDbPolyline
 90
        2
 70
   129
 43
0.0
 10
0.1796984124139396
 20
8.873108275194979
 10
0.0998324513410785
 20
8.873108275194979
  0
LWPOLYLINE
  5
17B
100
AcDbEntity
  8
USP-GEO
100
AcDbPolyline
 90
        9
 70
   128
 43
0.0
 10
0.0998324513410785
 20
8.593577411439962
 10
0.0998324513410785
 20
8.653476882244609
 10
0.0998324513410785
 20
8.753309333585686
 10
0.0998324513410785
 20
8.853141784926764
 10
0.0
 20
8.853141784926764
 10
0.0
 20
9.172605629218212
 10
0.0998324513410785
 20
9.172605629218212
 10
1.598317545970653
 20
9.172605629218212
 10
1.598317545970653
 20
8.853141784926764
  0
LWPOLYLINE
  5
17C
100
AcDbEntity
  8
USP-GEO
100
AcDbPolyline
 90
        2
 70
   129
 43
0.0
 10
0.0998324513410785
 20
8.773275823853902
 10
0.1796984124139396
 20
8.773275823853902
  0
LWPOLYLINE
  5
17D
100
AcDbEntity
  8
USP-GEO
100
AcDbPolyline
 90
        2
 70
   129
 43
0.0
 10
0.1796984124139396
 20
8.933007745999626
 10
0.0998324513410785
 20
8.933007745999626
  0
LWPOLYLINE
  5
17E
100
AcDbEntity
  8
USP-GEO
100
AcDbPolyline
 90
        5
 70
   128
 43
0.0
 10
0.1796984124139396
 20
8.933007745999626
 10
0.2196313929503706
 20
8.933007745999626
 10
0.2595643734868016
 20
8.893074765463195
 10
0.2795308637550171
 20
8.853141784926764
 10
0.2595643734868016
 20
8.813208804390333
  0
LWPOLYLINE
  5
17F
100
AcDbEntity
  8
USP-GEO
100
AcDbPolyline
 90
        6
 70
   128
 43
0.0
 10
0.1796984124139396
 20
8.873108275194979
 10
0.2196313929503706
 20
8.873108275194979
 10
0.2595643734868016
 20
8.833175294658548
 10
0.2595643734868016
 20
8.813208804390333
 10
0.2196313929503706
 20
8.773275823853902
 10
0.1796984124139396
 20
8.773275823853902
  0
LWPOLYLINE
  5
180
100
AcDbEntity
  8
USP-GEO
100
AcDbPolyline
 90
        4
 70
   129
 43
0.0
 10
0.9783580231425617
 20
8.473778469830669
 10
1.098156964751854
 20
8.353979528221376
 10
0.9783580231425617
 20
8.234180586612083
 10
0.8585590815332686
 20
8.353979528221376
  0
LWPOLYLINE
  5
181
100
AcDbEntity
  8
USP-GEO
100
AcDbPolyline
 90
        4
 70
   129
 43
0.0
 10
1.098156964751854
 20
8.353979528221376
 10
0.9783580231425617
 20
8.234180586612083
 10
0.8585590815332686
 20
8.353979528221376
 10
0.9783580231425617
 20
8.473778469830669
  0
LWPOLYLINE
  5
182
100
AcDbEntity
  8
USP-GEO
100
AcDbPolyline
 90
        2
 70
   129
 43
0.0
 10
0.9384250426061306
 20
8.453811979562454
 10
0.9783580231425617
 20
8.413878999026023
  0
LWPOLYLINE
  5
183
100
AcDbEntity
  8
USP-GEO
100
AcDbPolyline
 90
        2
 70
   129
 43
0.0
 10
0.9783580231425617
 20
8.413878999026023
 10
1.018291003678992
 20
8.453811979562454
  0
LWPOLYLINE
  5
184
100
AcDbEntity
  8
USP-GEO
100
AcDbPolyline
 90
        2
 70
   128
 43
0.0
 10
1.87784840972567
 20
8.473778469830669
 10
1.738082977848161
 20
8.593577411439962
  0
ENDBLK
  5
186
100
AcDbEntity
  8
0
100
AcDbBlockEnd
  0
ENDSEC
  0
SECTION
  2
ENTITIES
  0
INSERT
  5
3
100
AcDbEntity
  8
USP
100
AcDbBlockReference
  2
THDH410_T
 10
7.853131017605797
 20
15.7923664220815
 30
0.0
  0
INSERT
  5
2D
100
AcDbEntity
  8
USP
100
AcDbBlockReference
  2
THDH410_F
 10
7.853131017605797
 20
1.782878525388074
 30
0.0
  0
INSERT
  5
126
100
AcDbEntity
  8
USP
100
AcDbBlockReference
  2
THDH410_S
 10
0.4216033397759773
 20
1.782878525388074
 30
0.0
  0
ENDSEC
  0
SECTION
  2
OBJECTS
  0
DICTIONARY
  5
19F
102
{ACAD_XDICTIONARY
360
1A0
102
}
100
AcDbDictionary
  3
ACAD_GROUP
350
19D
  3
ACAD_MLINESTYLE
350
19E
  0
DICTIONARY
  5
9
100
AcDbDictionary
280
     1
  3
ACAD_XREC_ROUNDTRIP
360
A
  0
DICTIONARY
  5
D
100
AcDbDictionary
280
     1
  3
ACAD_XREC_ROUNDTRIP
360
E
  0
DICTIONARY
  5
187
100
AcDbDictionary
280
     1
  3
ACAD_LAYOUTSELFREF
360
188
  0
DICTIONARY
  5
18C
100
AcDbDictionary
280
     1
  3
ACAD_LAYOUTSELFREF
360
18D
  0
DICTIONARY
  5
1A0
100
AcDbDictionary
280
     1
  3
ACAD_XREC_ROUNDTRIP
360
1A1
  0
DICTIONARY
  5
19D
102
{ACAD_REACTORS
330
19F
102
}
100
AcDbDictionary
  0
DICTIONARY
  5
19E
102
{ACAD_REACTORS
330
19F
102
}
100
AcDbDictionary
  3
STANDARD
350
1A2
  0
XRECORD
  5
A
102
{ACAD_REACTORS
330
9
102
}
100
AcDbXrecord
102
EXTNAMES
  1
USP-GEO
  2
USP-Geo
  0
XRECORD
  5
E
102
{ACAD_REACTORS
330
D
102
}
100
AcDbXrecord
102
EXTNAMES
  1
USP-TXT
  2
USP-Txt
  0
XRECORD
  5
188
102
{ACAD_REACTORS
330
187
102
}
100
AcDbXrecord
340
18
  0
XRECORD
  5
18D
102
{ACAD_REACTORS
330
18C
102
}
100
AcDbXrecord
340
15
  0
XRECORD
  5
1A1
102
{ACAD_REACTORS
330
1A0
102
}
100
AcDbXrecord
102
EXTNAMES
  1
ACDBVARIABLEDICTIONARY
  2
AcDbVariableDictionary
  0
MLINESTYLE
  5
1A2
102
{ACAD_REACTORS
330
19E
102
}
100
AcDbMlineStyle
  2
STANDARD
 70
     0
  3

 62
     0
 51
90.0
 52
90.0
 71
     2
 49
0.5
 62
   256
  6
BYLAYER
 49
-0.5
 62
   256
  6
BYLAYER
  0
ENDSEC
  0
EOF
