  0
SECTION
  2
HEADER
  9
$ACADVER
  1
AC1014
  9
$ACADMAINTVER
 70
     9
  9
$DWGCODEPAGE
  3
ANSI_1252
  9
$INSBASE
 10
0.0
 20
0.0
 30
0.0
  9
$EXTMIN
 10
0.0877350827116423
 20
0.0016602118344267
 30
0.0
  9
$EXTMAX
 10
16.60784742803761
 20
21.11580704166274
 30
0.0
  9
$LIMMIN
 10
0.0
 20
0.0
  9
$LIMMAX
 10
12.0
 20
9.0
  9
$ORTHOMODE
 70
     1
  9
$REGENMODE
 70
     1
  9
$FILLMODE
 70
     1
  9
$QTEXTMODE
 70
     0
  9
$MIRRTEXT
 70
     0
  9
$DRAGMODE
 70
     2
  9
$LTSCALE
 40
1.5
  9
$OSMODE
 70
     0
  9
$ATTMODE
 70
     1
  9
$TEXTSIZE
 40
0.75
  9
$TRACEWID
 40
0.05
  9
$TEXTSTYLE
  7
STANDARD
  9
$CLAYER
  8
USP
  9
$CELTYPE
  6
BYLAYER
  9
$CECOLOR
 62
   256
  9
$CELTSCALE
 40
1.0
  9
$DELOBJ
 70
     1
  9
$DISPSILH
 70
     1
  9
$DIMSCALE
 40
7.0
  9
$DIMASZ
 40
0.125
  9
$DIMEXO
 40
0.0625
  9
$DIMDLI
 40
0.37890625
  9
$DIMRND
 40
0.0
  9
$DIMDLE
 40
0.0
  9
$DIMEXE
 40
0.09375
  9
$DIMTP
 40
0.0
  9
$DIMTM
 40
0.0
  9
$DIMTXT
 40
0.109375
  9
$DIMCEN
 40
0.0
  9
$DIMTSZ
 40
0.0
  9
$DIMTOL
 70
     0
  9
$DIMLIM
 70
     0
  9
$DIMTIH
 70
     1
  9
$DIMTOH
 70
     1
  9
$DIMSE1
 70
     0
  9
$DIMSE2
 70
     0
  9
$DIMTAD
 70
     0
  9
$DIMZIN
 70
     8
  9
$DIMBLK
  1

  9
$DIMASO
 70
     1
  9
$DIMSHO
 70
     1
  9
$DIMPOST
  1

  9
$DIMAPOST
  1

  9
$DIMALT
 70
     0
  9
$DIMALTD
 70
     2
  9
$DIMALTF
 40
25.4
  9
$DIMLFAC
 40
1.0
  9
$DIMTOFL
 70
     0
  9
$DIMTVP
 40
0.0
  9
$DIMTIX
 70
     0
  9
$DIMSOXD
 70
     0
  9
$DIMSAH
 70
     0
  9
$DIMBLK1
  1

  9
$DIMBLK2
  1

  9
$DIMSTYLE
  2
STANDARD
  9
$DIMCLRD
 70
     0
  9
$DIMCLRE
 70
     0
  9
$DIMCLRT
 70
   256
  9
$DIMTFAC
 40
1.0
  9
$DIMGAP
 40
0.08984375
  9
$DIMJUST
 70
     0
  9
$DIMSD1
 70
     0
  9
$DIMSD2
 70
     0
  9
$DIMTOLJ
 70
     1
  9
$DIMTZIN
 70
     0
  9
$DIMALTZ
 70
     0
  9
$DIMALTTZ
 70
     0
  9
$DIMFIT
 70
     3
  9
$DIMUPT
 70
     1
  9
$DIMUNIT
 70
     7
  9
$DIMDEC
 70
     4
  9
$DIMTDEC
 70
     4
  9
$DIMALTU
 70
     2
  9
$DIMALTTD
 70
     2
  9
$DIMTXSTY
  7
STANDARD
  9
$DIMAUNIT
 70
     0
  9
$LUNITS
 70
     5
  9
$LUPREC
 70
     6
  9
$SKETCHINC
 40
0.1
  9
$FILLETRAD
 40
0.0
  9
$AUNITS
 70
     0
  9
$AUPREC
 70
     1
  9
$MENU
  1
CUSTOM
  9
$ELEVATION
 40
0.0
  9
$PELEVATION
 40
0.0
  9
$THICKNESS
 40
0.0
  9
$LIMCHECK
 70
     0
  9
$BLIPMODE
 70
     0
  9
$CHAMFERA
 40
0.0
  9
$CHAMFERB
 40
0.0
  9
$CHAMFERC
 40
0.0
  9
$CHAMFERD
 40
0.0
  9
$SKPOLY
 70
     0
  9
$TDCREATE
 40
2451263.663231366
  9
$TDUPDATE
 40
2452768.688261354
  9
$TDINDWG
 40
0.4449988773
  9
$TDUSRTIMER
 40
0.4449988773
  9
$USRTIMER
 70
     1
  9
$ANGBASE
 50
0.0
  9
$ANGDIR
 70
     0
  9
$PDMODE
 70
     0
  9
$PDSIZE
 40
0.0
  9
$PLINEWID
 40
0.0
  9
$COORDS
 70
     2
  9
$SPLFRAME
 70
     0
  9
$SPLINETYPE
 70
     6
  9
$SPLINESEGS
 70
     8
  9
$ATTDIA
 70
     0
  9
$ATTREQ
 70
     0
  9
$HANDLING
 70
     1
  9
$HANDSEED
  5
1E8
  9
$SURFTAB1
 70
     6
  9
$SURFTAB2
 70
     6
  9
$SURFTYPE
 70
     6
  9
$SURFU
 70
     6
  9
$SURFV
 70
     6
  9
$UCSNAME
  2

  9
$UCSORG
 10
0.0
 20
0.0
 30
0.0
  9
$UCSXDIR
 10
1.0
 20
0.0
 30
0.0
  9
$UCSYDIR
 10
0.0
 20
1.0
 30
0.0
  9
$PUCSNAME
  2

  9
$PUCSORG
 10
0.0
 20
0.0
 30
0.0
  9
$PUCSXDIR
 10
1.0
 20
0.0
 30
0.0
  9
$PUCSYDIR
 10
0.0
 20
1.0
 30
0.0
  9
$USERI1
 70
     0
  9
$USERI2
 70
     0
  9
$USERI3
 70
     0
  9
$USERI4
 70
     0
  9
$USERI5
 70
     0
  9
$USERR1
 40
0.0
  9
$USERR2
 40
0.0
  9
$USERR3
 40
0.0
  9
$USERR4
 40
0.0
  9
$USERR5
 40
0.0
  9
$WORLDVIEW
 70
     1
  9
$SHADEDGE
 70
     3
  9
$SHADEDIF
 70
    70
  9
$TILEMODE
 70
     1
  9
$MAXACTVP
 70
    16
  9
$PINSBASE
 10
0.0
 20
0.0
 30
0.0
  9
$PLIMCHECK
 70
     0
  9
$PEXTMIN
 10
1.000000000000000E+20
 20
1.000000000000000E+20
 30
1.000000000000000E+20
  9
$PEXTMAX
 10
-1.000000000000000E+20
 20
-1.000000000000000E+20
 30
-1.000000000000000E+20
  9
$PLIMMIN
 10
0.0
 20
0.0
  9
$PLIMMAX
 10
12.0
 20
9.0
  9
$UNITMODE
 70
     0
  9
$VISRETAIN
 70
     0
  9
$PLINEGEN
 70
     0
  9
$PSLTSCALE
 70
     0
  9
$TREEDEPTH
 70
  3020
  9
$PICKSTYLE
 70
     0
  9
$CMLSTYLE
  2
STANDARD
  9
$CMLJUST
 70
     0
  9
$CMLSCALE
 40
1.0
  9
$PROXYGRAPHICS
 70
     1
  9
$MEASUREMENT
 70
     0
  0
ENDSEC
  0
SECTION
  2
CLASSES
  0
CLASS
  1
ACDBDICTIONARYWDFLT
  2
AcDbDictionaryWithDefault
  3
AutoCAD 2000
 90
        0
280
     0
281
     0
  0
CLASS
  1
ACDBPLACEHOLDER
  2
AcDbPlaceHolder
  3
AutoCAD 2000
 90
        0
280
     0
281
     0
  0
CLASS
  1
LAYOUT
  2
AcDbLayout
  3
AutoCAD 2000
 90
        0
280
     0
281
     0
  0
CLASS
  1
DICTIONARYVAR
  2
AcDbDictionaryVar
  3
"AutoCAD"
 90
        0
280
     0
281
     0
  0
CLASS
  1
LONG_TRANSACTION
  2
AcDbLongTransaction
  3
AutoCAD 2000
 90
        0
280
     0
281
     0
  0
CLASS
  1
LWPOLYLINE
  2
AcDbPolyline
  3
"AutoCAD"
 90
        0
280
     0
281
     1
  0
CLASS
  1
HATCH
  2
AcDbHatch
  3
"ACAD_SEDONA"
 90
        0
280
     0
281
     1
  0
CLASS
  1
XRECORD
  2
AcDbXrecord
  3
"<Built In>"
 90
        0
280
     0
281
     0
  0
CLASS
  1
LONG_TRANSACTION
  2
AcDbLongTransaction
  3
AutoCAD 2000
 90
        0
280
     0
281
     0
  0
CLASS
  1
LWPOLYLINE
  2
AcDbPolyline
  3
"AutoCAD"
 90
        0
280
     0
281
     1
  0
CLASS
  1
HATCH
  2
AcDbHatch
  3
"ACAD_SEDONA"
 90
        0
280
     0
281
     1
  0
CLASS
  1
XRECORD
  2
AcDbXrecord
  3
"<Built In>"
 90
        0
280
     0
281
     0
  0
ENDSEC
  0
SECTION
  2
TABLES
  0
TABLE
  2
VPORT
  5
1D8
100
AcDbSymbolTable
 70
     1
  0
VPORT
  5
1D9
100
AcDbSymbolTableRecord
100
AcDbViewportTableRecord
  2
*ACTIVE
 70
     0
 10
0.0
 20
0.0
 11
1.0
 21
1.0
 12
-15.63260971190723
 22
20.64498145626949
 13
0.0
 23
0.0
 14
1.0
 24
1.0
 15
0.0
 25
0.0
 16
0.0
 26
0.0
 36
1.0
 17
23.09603071721725
 27
-10.27010416511325
 37
-10.44050274849355
 40
31.97520447430271
 41
1.457627118644067
 42
50.0
 43
10.55307667737539
 44
10.55307667737539
 50
0.0
 51
0.0
 71
     0
 72
   100
 73
     1
 74
     1
 75
     0
 76
     0
 77
     0
 78
     0
  0
ENDTAB
  0
TABLE
  2
LTYPE
  5
1D3
100
AcDbSymbolTable
 70
     1
  0
LTYPE
  5
1D4
100
AcDbSymbolTableRecord
100
AcDbLinetypeTableRecord
  2
BYBLOCK
 70
     0
  3

 72
    65
 73
     0
 40
0.0
  0
LTYPE
  5
1D5
100
AcDbSymbolTableRecord
100
AcDbLinetypeTableRecord
  2
BYLAYER
 70
     0
  3

 72
    65
 73
     0
 40
0.0
  0
LTYPE
  5
5
100
AcDbSymbolTableRecord
100
AcDbLinetypeTableRecord
  2
CONTINUOUS
 70
     0
  3
Solid line
 72
    65
 73
     0
 40
0.0
  0
ENDTAB
  0
TABLE
  2
LAYER
  5
1D1
100
AcDbSymbolTable
 70
     4
  0
LAYER
  5
2E
100
AcDbSymbolTableRecord
100
AcDbLayerTableRecord
  2
0
 70
     0
 62
     7
  6
CONTINUOUS
  0
LAYER
  5
8
102
{ACAD_XDICTIONARY
360
9
102
}
100
AcDbSymbolTableRecord
100
AcDbLayerTableRecord
  2
USP-GEO
 70
     0
 62
     7
  6
CONTINUOUS
  0
LAYER
  5
D
102
{ACAD_XDICTIONARY
360
E
102
}
100
AcDbSymbolTableRecord
100
AcDbLayerTableRecord
  2
USP-TXT
 70
     0
 62
     7
  6
CONTINUOUS
  0
LAYER
  5
4
100
AcDbSymbolTableRecord
100
AcDbLayerTableRecord
  2
USP
 70
     0
 62
     7
  6
CONTINUOUS
  0
ENDTAB
  0
TABLE
  2
STYLE
  5
1D2
100
AcDbSymbolTable
 70
     1
  0
STYLE
  5
10
100
AcDbSymbolTableRecord
100
AcDbTextStyleTableRecord
  2
STANDARD
 70
     0
 40
0.0
 41
1.0
 50
0.0
 71
     0
 42
0.75
  3
txt
  4

  0
ENDTAB
  0
TABLE
  2
VIEW
  5
1D6
100
AcDbSymbolTable
 70
     0
  0
ENDTAB
  0
TABLE
  2
UCS
  5
1D7
100
AcDbSymbolTable
 70
     0
  0
ENDTAB
  0
TABLE
  2
APPID
  5
1DA
100
AcDbSymbolTable
 70
     1
  0
APPID
  5
1DB
100
AcDbSymbolTableRecord
100
AcDbRegAppTableRecord
  2
ACAD
 70
     0
  0
ENDTAB
  0
TABLE
  2
DIMSTYLE
  5
1DC
100
AcDbSymbolTable
 70
     1
  0
DIMSTYLE
105
1E4
100
AcDbSymbolTableRecord
100
AcDbDimStyleTableRecord
  2
STANDARD
 70
     0
  3

  4

  5

  6

  7

 40
1.0
 41
0.18
 42
0.0625
 43
0.38
 44
0.18
 45
0.0
 46
0.0
 47
0.0
 48
0.0
140
0.18
141
0.09
142
0.0
143
25.4
144
1.0
145
0.0
146
1.0
147
0.09
 71
     0
 72
     0
 73
     1
 74
     1
 75
     0
 76
     0
 77
     0
 78
     0
170
     0
171
     2
172
     0
173
     0
174
     0
175
     0
176
     0
177
     0
178
     0
270
     2
271
     4
272
     4
273
     2
274
     2
340
10
275
     0
280
     0
281
     0
282
     0
283
     1
284
     0
285
     0
286
     0
287
     3
288
     0
  0
ENDTAB
  0
TABLE
  2
BLOCK_RECORD
  5
1
100
AcDbSymbolTable
 70
     3
  0
BLOCK_RECORD
  5
2
102
{ACAD_XDICTIONARY
360
1C8
102
}
100
AcDbSymbolTableRecord
100
AcDbBlockTableRecord
  2
*MODEL_SPACE
  0
BLOCK_RECORD
  5
1CC
102
{ACAD_XDICTIONARY
360
1CD
102
}
100
AcDbSymbolTableRecord
100
AcDbBlockTableRecord
  2
*PAPER_SPACE
  0
BLOCK_RECORD
  5
6
100
AcDbSymbolTableRecord
100
AcDbBlockTableRecord
  2
THDH412_T
  0
BLOCK_RECORD
  5
31
100
AcDbSymbolTableRecord
100
AcDbBlockTableRecord
  2
THDH412_F
  0
BLOCK_RECORD
  5
157
100
AcDbSymbolTableRecord
100
AcDbBlockTableRecord
  2
THDH412_S
  0
ENDTAB
  0
ENDSEC
  0
SECTION
  2
BLOCKS
  0
BLOCK
  5
1CA
100
AcDbEntity
  8
0
100
AcDbBlockBegin
  2
*MODEL_SPACE
 70
     0
 10
0.0
 20
0.0
 30
0.0
  3
*MODEL_SPACE
  1

  0
ENDBLK
  5
1CB
100
AcDbEntity
  8
0
100
AcDbBlockEnd
  0
BLOCK
  5
1CF
100
AcDbEntity
 67
     1
  8
0
100
AcDbBlockBegin
  2
*PAPER_SPACE
 70
     0
 10
0.0
 20
0.0
 30
0.0
  3
*PAPER_SPACE
  1

  0
ENDBLK
  5
1D0
100
AcDbEntity
 67
     1
  8
0
100
AcDbBlockEnd
  0
BLOCK
  5
2D
100
AcDbEntity
  8
0
100
AcDbBlockBegin
  2
THDH412_T
 70
     0
 10
0.0
 20
0.0
 30
0.0
  3
THDH412_T
  1

  0
LWPOLYLINE
  5
7
100
AcDbEntity
  8
USP-GEO
100
AcDbPolyline
 90
       32
 70
   129
 43
0.0
 10
2.612795071668632
 20
0.0
 10
2.612795071668632
 20
0.0210539490061947
 10
2.612795071668632
 20
0.0842157960247754
 10
2.612795071668632
 20
0.1894855410557419
 10
2.612795071668632
 20
1.728529213408499
 10
2.612795071668632
 20
2.002230550489016
 10
2.612795071668632
 20
2.191716091544758
 10
2.612795071668632
 20
2.233823989557144
 10
2.612795071668632
 20
2.275931887569534
 10
2.612795071668632
 20
2.360147683594306
 10
2.612795071668632
 20
2.465417428625276
 10
2.612795071668632
 20
2.549633224650051
 10
2.612795071668632
 20
2.591741122662437
 10
2.612795071668632
 20
2.61384776911894
 10
2.612795071668632
 20
4.236054540046161
 10
0.0
 20
4.236054540046161
 10
0.0
 20
4.130784795015191
 10
2.507525326637662
 20
4.130784795015191
 10
2.507525326637662
 20
2.61384776911894
 10
2.507525326637662
 20
2.591741122662437
 10
2.507525326637662
 20
2.549633224650051
 10
2.507525326637662
 20
2.465417428625276
 10
2.507525326637662
 20
2.360147683594306
 10
2.507525326637662
 20
2.275931887569534
 10
2.507525326637662
 20
2.233823989557144
 10
2.507525326637662
 20
2.191716091544758
 10
2.507525326637662
 20
2.002230550489016
 10
2.507525326637662
 20
1.728529213408499
 10
2.507525326637662
 20
0.1894855410557419
 10
2.507525326637662
 20
0.0842157960247754
 10
2.507525326637662
 20
0.0210539490061947
 10
2.507525326637662
 20
0.0
  0
LWPOLYLINE
  5
B
100
AcDbEntity
  8
USP-GEO
100
AcDbPolyline
 90
        6
 70
   129
 43
0.0
 10
2.612795071668632
 20
4.236054540046161
 10
0.0
 20
4.236054540046161
 10
0.0
 20
4.130784795015191
 10
2.507525326637662
 20
4.130784795015191
 10
2.507525326637662
 20
2.61384776911894
 10
2.612795071668632
 20
2.61384776911894
  0
TEXT
  5
C
100
AcDbEntity
  8
USP-TXT
100
AcDbText
 10
1.801565201593106
 20
-2.191481775023842
 30
0.0
 40
0.296875
  1
THDH412 - TOP VIEW
 72
     1
 11
4.423961034926438
 21
-2.191481775023842
 31
0.0
100
AcDbText
  0
LWPOLYLINE
  5
11
100
AcDbEntity
  8
USP-GEO
100
AcDbPolyline
 90
       20
 70
   128
 43
0.0
 10
6.236179695634554
 20
4.00446110097803
 10
5.308753241911727
 20
4.00446110097803
 10
5.287699292905532
 20
3.962353202965644
 10
5.266645343899337
 20
3.941299253959449
 10
5.245591394893143
 20
3.941299253959449
 10
4.99294400681882
 20
3.941299253959449
 10
4.950836108806434
 20
3.941299253959449
 10
4.92978215980024
 20
3.962353202965644
 10
4.92978215980024
 20
4.00446110097803
 10
3.918139910052637
 20
4.00446110097803
 10
3.918139910052637
 20
3.962353202965644
 10
3.897085961046443
 20
3.941299253959449
 10
3.854978063034053
 20
3.941299253959449
 10
3.623384623965925
 20
3.941299253959449
 10
3.581276725953536
 20
3.941299253959449
 10
3.560222776947345
 20
3.962353202965644
 10
3.560222776947345
 20
4.00446110097803
 10
2.633849020674823
 20
4.00446110097803
 10
2.612795071668632
 20
4.00446110097803
 10
2.61384776911894
 20
4.00446110097803
  0
LWPOLYLINE
  5
12
100
AcDbEntity
  8
USP-GEO
100
AcDbPolyline
 90
       18
 70
   128
 43
0.0
 10
2.633849020674823
 20
0.0
 10
3.560222776947345
 20
0.0
 10
3.560222776947345
 20
0.0210539490061947
 10
3.581276725953536
 20
0.0421078980123859
 10
3.623384623965925
 20
0.0631618470185806
 10
3.854978063034053
 20
0.0631618470185806
 10
3.897085961046443
 20
0.0421078980123859
 10
3.918139910052637
 20
0.0210539490061947
 10
3.918139910052637
 20
0.0
 10
4.92978215980024
 20
0.0
 10
4.92978215980024
 20
0.0210539490061947
 10
4.950836108806434
 20
0.0421078980123859
 10
4.99294400681882
 20
0.0631618470185806
 10
5.245591394893143
 20
0.0631618470185806
 10
5.266645343899337
 20
0.0421078980123859
 10
5.287699292905532
 20
0.0210539490061947
 10
5.308753241911727
 20
0.0
 10
6.236179695634554
 20
0.0
  0
LWPOLYLINE
  5
13
100
AcDbEntity
  8
USP-GEO
100
AcDbPolyline
 90
        3
 70
   128
 43
0.0
 10
5.308753241911727
 20
4.00446110097803
 10
6.236179695634554
 20
4.00446110097803
 10
6.237232393084866
 20
4.00446110097803
  0
LWPOLYLINE
  5
14
100
AcDbEntity
  8
USP-GEO
100
AcDbPolyline
 90
       24
 70
   128
 43
0.0
 10
5.308753241911727
 20
0.0
 10
6.236179695634554
 20
0.0
 10
6.236179695634554
 20
0.0210539490061947
 10
6.236179695634554
 20
0.0842157960247754
 10
6.236179695634554
 20
0.1894855410557419
 10
6.236179695634554
 20
1.728529213408499
 10
6.236179695634554
 20
2.002230550489016
 10
6.236179695634554
 20
2.191716091544758
 10
6.236179695634554
 20
2.233823989557144
 10
6.236179695634554
 20
2.275931887569534
 10
6.236179695634554
 20
2.360147683594306
 10
6.236179695634554
 20
2.465417428625276
 10
6.236179695634554
 20
2.549633224650051
 10
6.236179695634554
 20
2.591741122662437
 10
6.236179695634554
 20
2.61384776911894
 10
6.236179695634554
 20
4.236054540046161
 10
8.847922069852874
 20
4.236054540046161
 10
8.847922069852874
 20
4.130784795015191
 10
6.341449440665524
 20
4.130784795015191
 10
8.847922069852874
 20
4.130784795015191
 10
8.847922069852874
 20
4.236054540046161
 10
6.236179695634554
 20
4.236054540046161
 10
6.236179695634554
 20
2.61384776911894
 10
6.341449440665524
 20
2.61384776911894
  0
LWPOLYLINE
  5
15
100
AcDbEntity
  8
USP-GEO
100
AcDbPolyline
 90
        4
 70
   128
 43
0.0
 10
2.507525326637662
 20
1.728529213408499
 10
2.507525326637662
 20
0.1894855410557419
 10
2.612795071668632
 20
0.1894855410557419
 10
2.612795071668632
 20
1.728529213408499
  0
LWPOLYLINE
  5
16
100
AcDbEntity
  8
USP-GEO
100
AcDbPolyline
 90
        2
 70
   128
 43
0.0
 10
2.633849020674823
 20
0.0
 10
3.560222776947345
 20
0.0
  0
LWPOLYLINE
  5
17
100
AcDbEntity
  8
USP-GEO
100
AcDbPolyline
 90
        2
 70
   129
 43
0.0
 10
2.612795071668632
 20
0.0
 10
2.633849020674823
 20
0.0
  0
LWPOLYLINE
  5
18
100
AcDbEntity
  8
USP-GEO
100
AcDbPolyline
 90
        8
 70
   128
 43
0.0
 10
2.612795071668632
 20
0.1894855410557419
 10
2.612795071668632
 20
0.0842157960247754
 10
2.612795071668632
 20
0.0210539490061947
 10
2.612795071668632
 20
0.0
 10
2.507525326637662
 20
0.0
 10
2.507525326637662
 20
0.0210539490061947
 10
2.507525326637662
 20
0.0842157960247754
 10
2.507525326637662
 20
0.1894855410557419
  0
LWPOLYLINE
  5
19
100
AcDbEntity
  8
USP-GEO
100
AcDbPolyline
 90
        3
 70
   128
 43
0.0
 10
3.918139910052637
 20
0.0210539490061947
 10
3.918139910052637
 20
0.0
 10
4.92978215980024
 20
0.0
  0
LWPOLYLINE
  5
1A
100
AcDbEntity
  8
USP-GEO
100
AcDbPolyline
 90
        3
 70
   128
 43
0.0
 10
3.581276725953536
 20
0.0421078980123859
 10
3.623384623965925
 20
0.0631618470185806
 10
3.854978063034053
 20
0.0631618470185806
  0
LWPOLYLINE
  5
1B
100
AcDbEntity
  8
USP-GEO
100
AcDbPolyline
 90
        3
 70
   128
 43
0.0
 10
4.950836108806434
 20
0.0421078980123859
 10
4.99294400681882
 20
0.0631618470185806
 10
5.245591394893143
 20
0.0631618470185806
  0
LWPOLYLINE
  5
1C
100
AcDbEntity
  8
USP-GEO
100
AcDbPolyline
 90
        3
 70
   128
 43
0.0
 10
3.560222776947345
 20
3.962353202965644
 10
3.560222776947345
 20
4.00446110097803
 10
2.633849020674823
 20
4.00446110097803
  0
LWPOLYLINE
  5
1D
100
AcDbEntity
  8
USP-GEO
100
AcDbPolyline
 90
        8
 70
   129
 43
0.0
 10
2.507525326637662
 20
2.191716091544758
 10
2.507525326637662
 20
2.233823989557144
 10
2.612795071668632
 20
2.233823989557144
 10
2.612795071668632
 20
2.191716091544758
 10
2.612795071668632
 20
2.002230550489016
 10
2.612795071668632
 20
1.728529213408499
 10
2.507525326637662
 20
1.728529213408499
 10
2.507525326637662
 20
2.002230550489016
  0
LWPOLYLINE
  5
1E
100
AcDbEntity
  8
USP-GEO
100
AcDbPolyline
 90
       24
 70
   128
 43
0.0
 10
2.31803978558192
 20
2.634901718125135
 10
2.31803978558192
 20
2.61384776911894
 10
2.339093734588114
 20
2.591741122662437
 10
2.360147683594306
 20
2.570687173656242
 10
2.402255581606695
 20
2.549633224650051
 10
2.423309530612886
 20
2.528579275643856
 10
2.423309530612886
 20
2.507525326637662
 10
2.444363479619081
 20
2.507525326637662
 10
2.507525326637662
 20
2.465417428625276
 10
2.612795071668632
 20
2.465417428625276
 10
2.612795071668632
 20
2.549633224650051
 10
2.612795071668632
 20
2.591741122662437
 10
2.612795071668632
 20
2.61384776911894
 10
2.507525326637662
 20
2.61384776911894
 10
2.507525326637662
 20
2.591741122662437
 10
2.507525326637662
 20
2.549633224650051
 10
2.507525326637662
 20
2.465417428625276
 10
2.507525326637662
 20
2.360147683594306
 10
2.507525326637662
 20
2.275931887569534
 10
2.507525326637662
 20
2.233823989557144
 10
2.612795071668632
 20
2.233823989557144
 10
2.612795071668632
 20
2.275931887569534
 10
2.612795071668632
 20
2.360147683594306
 10
2.612795071668632
 20
2.465417428625276
  0
LWPOLYLINE
  5
1F
100
AcDbEntity
  8
USP-GEO
100
AcDbPolyline
 90
        6
 70
   128
 43
0.0
 10
2.507525326637662
 20
3.161250443279975
 10
2.444363479619081
 20
3.119142545267589
 10
2.31803978558192
 20
2.992818851230424
 10
2.25382524111303
 20
2.824387259180877
 10
2.31803978558192
 20
2.634901718125135
 10
2.319092483032228
 20
2.634901718125135
  0
LWPOLYLINE
  5
20
100
AcDbEntity
  8
USP-GEO
100
AcDbPolyline
 90
        2
 70
   128
 43
0.0
 10
4.92978215980024
 20
4.00446110097803
 10
3.918139910052637
 20
4.00446110097803
  0
LWPOLYLINE
  5
21
100
AcDbEntity
  8
USP-GEO
100
AcDbPolyline
 90
        3
 70
   128
 43
0.0
 10
3.897085961046443
 20
3.941299253959449
 10
3.854978063034053
 20
3.941299253959449
 10
3.623384623965925
 20
3.941299253959449
  0
LWPOLYLINE
  5
22
100
AcDbEntity
  8
USP-GEO
100
AcDbPolyline
 90
        3
 70
   128
 43
0.0
 10
5.266645343899337
 20
3.941299253959449
 10
5.245591394893143
 20
3.941299253959449
 10
4.99294400681882
 20
3.941299253959449
  0
LWPOLYLINE
  5
23
100
AcDbEntity
  8
USP-GEO
100
AcDbPolyline
 90
       15
 70
   128
 43
0.0
 10
6.236179695634554
 20
0.0
 10
6.341449440665524
 20
0.0
 10
6.341449440665524
 20
0.0210539490061947
 10
6.341449440665524
 20
0.0842157960247754
 10
6.341449440665524
 20
0.1894855410557419
 10
6.341449440665524
 20
1.728529213408499
 10
6.341449440665524
 20
2.002230550489016
 10
6.341449440665524
 20
2.191716091544758
 10
6.341449440665524
 20
2.233823989557144
 10
6.341449440665524
 20
2.275931887569534
 10
6.341449440665524
 20
2.360147683594306
 10
6.341449440665524
 20
2.465417428625276
 10
6.341449440665524
 20
2.549633224650051
 10
6.341449440665524
 20
2.591741122662437
 10
6.341449440665524
 20
2.61384776911894
  0
LWPOLYLINE
  5
24
100
AcDbEntity
  8
USP-GEO
100
AcDbPolyline
 90
        4
 70
   128
 43
0.0
 10
6.341449440665524
 20
0.1894855410557419
 10
6.341449440665524
 20
1.728529213408499
 10
6.236179695634554
 20
1.728529213408499
 10
6.236179695634554
 20
0.1894855410557419
  0
LWPOLYLINE
  5
25
100
AcDbEntity
  8
USP-GEO
100
AcDbPolyline
 90
        2
 70
   129
 43
0.0
 10
6.237232393084866
 20
0.0
 10
6.236179695634554
 20
0.0
  0
LWPOLYLINE
  5
26
100
AcDbEntity
  8
USP-GEO
100
AcDbPolyline
 90
        2
 70
   128
 43
0.0
 10
6.236179695634554
 20
0.0
 10
6.237232393084866
 20
0.0
  0
LWPOLYLINE
  5
27
100
AcDbEntity
  8
USP-GEO
100
AcDbPolyline
 90
        8
 70
   129
 43
0.0
 10
6.236179695634554
 20
0.1894855410557419
 10
6.341449440665524
 20
0.1894855410557419
 10
6.341449440665524
 20
0.0842157960247754
 10
6.341449440665524
 20
0.0210539490061947
 10
6.341449440665524
 20
0.0
 10
6.236179695634554
 20
0.0
 10
6.236179695634554
 20
0.0210539490061947
 10
6.236179695634554
 20
0.0842157960247754
  0
LWPOLYLINE
  5
28
100
AcDbEntity
  8
USP-GEO
100
AcDbPolyline
 90
        2
 70
   129
 43
0.0
 10
6.341449440665524
 20
4.130784795015191
 10
6.341449440665524
 20
2.61384776911894
  0
LWPOLYLINE
  5
29
100
AcDbEntity
  8
USP-GEO
100
AcDbPolyline
 90
        8
 70
   128
 43
0.0
 10
6.341449440665524
 20
1.728529213408499
 10
6.341449440665524
 20
2.002230550489016
 10
6.341449440665524
 20
2.191716091544758
 10
6.341449440665524
 20
2.233823989557144
 10
6.236179695634554
 20
2.233823989557144
 10
6.236179695634554
 20
2.191716091544758
 10
6.236179695634554
 20
2.002230550489016
 10
6.236179695634554
 20
1.728529213408499
  0
LWPOLYLINE
  5
2A
100
AcDbEntity
  8
USP-GEO
100
AcDbPolyline
 90
       17
 70
   128
 43
0.0
 10
6.425665236690299
 20
2.507525326637662
 10
6.341449440665524
 20
2.465417428625276
 10
6.236179695634554
 20
2.465417428625276
 10
6.236179695634554
 20
2.549633224650051
 10
6.236179695634554
 20
2.591741122662437
 10
6.236179695634554
 20
2.61384776911894
 10
6.341449440665524
 20
2.61384776911894
 10
6.341449440665524
 20
2.591741122662437
 10
6.341449440665524
 20
2.549633224650051
 10
6.341449440665524
 20
2.465417428625276
 10
6.341449440665524
 20
2.360147683594306
 10
6.341449440665524
 20
2.275931887569534
 10
6.341449440665524
 20
2.233823989557144
 10
6.236179695634554
 20
2.233823989557144
 10
6.236179695634554
 20
2.275931887569534
 10
6.236179695634554
 20
2.360147683594306
 10
6.236179695634554
 20
2.465417428625276
  0
LWPOLYLINE
  5
2B
100
AcDbEntity
  8
USP-GEO
100
AcDbPolyline
 90
       13
 70
   128
 43
0.0
 10
6.341449440665524
 20
3.161250443279975
 10
6.425665236690299
 20
3.119142545267589
 10
6.551988930727461
 20
2.992818851230424
 10
6.594096828739846
 20
2.824387259180877
 10
6.551988930727461
 20
2.634901718125135
 10
6.530934981721266
 20
2.634901718125135
 10
6.530934981721266
 20
2.61384776911894
 10
6.509881032715071
 20
2.591741122662437
 10
6.48882708370888
 20
2.570687173656242
 10
6.467773134702685
 20
2.549633224650051
 10
6.44671918569649
 20
2.528579275643856
 10
6.425665236690299
 20
2.507525326637662
 10
6.426717934140608
 20
2.507525326637662
  0
LWPOLYLINE
  5
2C
100
AcDbEntity
  8
USP-GEO
100
AcDbPolyline
 90
        2
 70
   129
 43
0.0
 10
6.237232393084866
 20
4.00446110097803
 10
6.236179695634554
 20
4.00446110097803
  0
ENDBLK
  5
2F
100
AcDbEntity
  8
0
100
AcDbBlockEnd
  0
BLOCK
  5
154
100
AcDbEntity
  8
0
100
AcDbBlockBegin
  2
THDH412_F
 70
     0
 10
0.0
 20
0.0
 30
0.0
  3
THDH412_F
  1

  0
LWPOLYLINE
  5
32
100
AcDbEntity
  8
USP-GEO
100
AcDbPolyline
 90
       42
 70
   128
 43
0.0
 10
0.0842157960247754
 20
5.605613922899054
 10
0.147377643043356
 20
5.68982971892383
 10
0.2737013370805172
 20
5.795099463954798
 10
0.3579171331052926
 20
5.942477106998152
 10
0.3789710821114873
 20
6.110908699047701
 10
0.3789710821114873
 20
6.300394240103445
 10
0.3579171331052926
 20
6.468825832152994
 10
0.2737013370805172
 20
6.617256172646658
 10
0.147377643043356
 20
6.722525917677627
 10
0.0842157960247754
 20
6.785687764696207
 10
0.0210539490061947
 20
6.890957509727176
 10
0.0
 20
6.975173305751951
 10
0.0
 20
7.290982540844856
 10
0.0210539490061947
 20
7.396252285875824
 10
0.0842157960247754
 20
7.480468081900598
 10
0.147377643043356
 20
7.564683877925373
 10
0.2737013370805172
 20
7.67100632040665
 10
0.3579171331052926
 20
7.818383963450006
 10
0.3789710821114873
 20
7.986815555499555
 10
0.3789710821114873
 20
8.176301096555297
 10
0.3579171331052926
 20
8.344732688604846
 10
0.2737013370805172
 20
8.492110331648202
 10
0.147377643043356
 20
8.59738007667917
 10
0.0842157960247754
 20
8.660541923697751
 10
0.0210539490061947
 20
8.76686436617903
 10
0.0
 20
8.851080162203803
 10
0.0
 20
9.293213091333869
 10
0.0210539490061947
 20
9.398482836364838
 10
0.0842157960247754
 20
9.482698632389613
 10
0.147377643043356
 20
9.566914428414387
 10
0.2737013370805172
 20
9.672184173445355
 10
0.3579171331052926
 20
9.819561816488711
 10
0.3789710821114873
 20
9.98904610598857
 10
0.3789710821114873
 20
10.17853164704431
 10
0.3579171331052926
 20
10.34696323909386
 10
0.2737013370805172
 20
10.49434088213721
 10
0.147377643043356
 20
10.59961062716818
 10
0.0842157960247754
 20
10.66277247418676
 10
0.0210539490061947
 20
10.76804221921773
 10
0.0
 20
10.8522580152425
 10
0.0
 20
11.16911994778572
 10
2.507525326637662
 20
11.16911994778572
  0
LWPOLYLINE
  5
33
100
AcDbEntity
  8
USP-GEO
100
AcDbPolyline
 90
       11
 70
   128
 43
0.0
 10
0.0210539490061947
 20
4.993996704269129
 10
0.0842157960247754
 20
4.909780908244355
 10
0.147377643043356
 20
4.846619061225775
 10
0.2737013370805172
 20
4.741349316194806
 10
0.3579171331052926
 20
4.59397167315145
 10
0.3789710821114873
 20
4.425540081101901
 10
0.3789710821114873
 20
3.624437321416234
 10
0.442132929130068
 20
3.14019649427378
 10
0.6326711676361186
 20
2.675956918687209
 10
0.9063725047166357
 20
2.27593188756953
 10
2.423309530612886
 20
0.6105645211796152
  0
LWPOLYLINE
  5
34
100
AcDbEntity
  8
USP-GEO
100
AcDbPolyline
 90
        3
 70
   128
 43
0.0
 10
2.612795071668632
 20
11.16911994778572
 10
2.507525326637662
 20
11.16911994778572
 10
0.0
 20
11.16911994778572
  0
LWPOLYLINE
  5
35
100
AcDbEntity
  8
USP-GEO
100
AcDbPolyline
 90
        5
 70
   128
 43
0.0
 10
0.0842157960247754
 20
5.605613922899054
 10
0.0210539490061947
 20
5.521398126874281
 10
0.0
 20
5.416128381843313
 10
0.0
 20
5.099266449300097
 10
0.0210539490061947
 20
4.993996704269129
  0
LWPOLYLINE
  5
36
100
AcDbEntity
  8
USP-GEO
100
AcDbPolyline
 90
        3
 70
   128
 43
0.0
 10
0.3579171331052926
 20
4.59397167315145
 10
0.3789710821114873
 20
4.425540081101901
 10
0.3789710821114873
 20
3.624437321416234
  0
LWPOLYLINE
  5
37
100
AcDbEntity
  8
USP-GEO
100
AcDbPolyline
 90
        2
 70
   128
 43
0.0
 10
0.0
 20
5.416128381843313
 10
0.0
 20
5.099266449300097
  0
LWPOLYLINE
  5
38
100
AcDbEntity
  8
USP-GEO
100
AcDbPolyline
 90
       12
 70
   129
 43
0.0
 10
0.4000250311176785
 20
5.057158551287711
 10
0.3579171331052926
 20
5.015050653275324
 10
0.3158092350929067
 20
5.015050653275324
 10
0.2737013370805172
 20
5.015050653275324
 10
0.2526473880743225
 20
5.057158551287711
 10
0.2315934390681313
 20
5.099266449300097
 10
0.2526473880743225
 20
5.141374347312485
 10
0.2737013370805172
 20
5.183482245324873
 10
0.3158092350929067
 20
5.183482245324873
 10
0.3579171331052926
 20
5.183482245324873
 10
0.4000250311176785
 20
5.141374347312485
 10
0.4210789801238733
 20
5.099266449300097
  0
LWPOLYLINE
  5
39
100
AcDbEntity
  8
USP-GEO
100
AcDbPolyline
 90
        2
 70
   128
 43
0.0
 10
0.0
 20
7.290982540844856
 10
0.0
 20
6.975173305751951
  0
LWPOLYLINE
  5
3A
100
AcDbEntity
  8
USP-GEO
100
AcDbPolyline
 90
        3
 70
   128
 43
0.0
 10
0.3579171331052926
 20
6.468825832152994
 10
0.3789710821114873
 20
6.300394240103445
 10
0.3789710821114873
 20
6.110908699047701
  0
LWPOLYLINE
  5
3B
100
AcDbEntity
  8
USP-GEO
100
AcDbPolyline
 90
        2
 70
   128
 43
0.0
 10
0.2737013370805172
 20
5.795099463954798
 10
0.147377643043356
 20
5.68982971892383
  0
LWPOLYLINE
  5
3C
100
AcDbEntity
  8
USP-GEO
100
AcDbPolyline
 90
       12
 70
   129
 43
0.0
 10
0.4000250311176785
 20
6.806741713702402
 10
0.4210789801238733
 20
6.84884961171479
 10
0.4000250311176785
 20
6.890957509727176
 10
0.3579171331052926
 20
6.933065407739563
 10
0.3158092350929067
 20
6.954119356745756
 10
0.2737013370805172
 20
6.933065407739563
 10
0.2526473880743225
 20
6.890957509727176
 10
0.2315934390681313
 20
6.84884961171479
 10
0.2526473880743225
 20
6.806741713702402
 10
0.2737013370805172
 20
6.785687764696207
 10
0.3158092350929067
 20
6.764633815690014
 10
0.3579171331052926
 20
6.785687764696207
  0
LWPOLYLINE
  5
3D
100
AcDbEntity
  8
USP-GEO
100
AcDbPolyline
 90
        2
 70
   128
 43
0.0
 10
0.2737013370805172
 20
7.67100632040665
 10
0.147377643043356
 20
7.564683877925373
  0
LWPOLYLINE
  5
3E
100
AcDbEntity
  8
USP-GEO
100
AcDbPolyline
 90
        2
 70
   128
 43
0.0
 10
0.3789710821114873
 20
8.176301096555297
 10
0.3789710821114873
 20
7.986815555499555
  0
LWPOLYLINE
  5
3F
100
AcDbEntity
  8
USP-GEO
100
AcDbPolyline
 90
        2
 70
   128
 43
0.0
 10
0.0
 20
9.293213091333869
 10
0.0
 20
8.851080162203803
  0
LWPOLYLINE
  5
40
100
AcDbEntity
  8
USP-GEO
100
AcDbPolyline
 90
       12
 70
   129
 43
0.0
 10
0.4000250311176785
 20
8.808972264191417
 10
0.3579171331052926
 20
8.787918315185223
 10
0.3158092350929067
 20
8.76686436617903
 10
0.2737013370805172
 20
8.787918315185223
 10
0.2526473880743225
 20
8.808972264191417
 10
0.2315934390681313
 20
8.851080162203803
 10
0.2526473880743225
 20
8.893188060216191
 10
0.2737013370805172
 20
8.935295958228579
 10
0.3158092350929067
 20
8.956349907234772
 10
0.3579171331052926
 20
8.935295958228579
 10
0.4000250311176785
 20
8.893188060216191
 10
0.4210789801238733
 20
8.851080162203803
  0
LWPOLYLINE
  5
41
100
AcDbEntity
  8
USP-GEO
100
AcDbPolyline
 90
        2
 70
   128
 43
0.0
 10
0.2737013370805172
 20
9.672184173445355
 10
0.147377643043356
 20
9.566914428414387
  0
LWPOLYLINE
  5
42
100
AcDbEntity
  8
USP-GEO
100
AcDbPolyline
 90
        2
 70
   128
 43
0.0
 10
0.3789710821114873
 20
10.17853164704431
 10
0.3789710821114873
 20
9.98904610598857
  0
LWPOLYLINE
  5
43
100
AcDbEntity
  8
USP-GEO
100
AcDbPolyline
 90
        2
 70
   128
 43
0.0
 10
0.0
 20
11.16911994778572
 10
0.0
 20
10.8522580152425
  0
LWPOLYLINE
  5
44
100
AcDbEntity
  8
USP-GEO
100
AcDbPolyline
 90
       12
 70
   129
 43
0.0
 10
0.4000250311176785
 20
10.81015011723012
 10
0.4210789801238733
 20
10.8522580152425
 10
0.4000250311176785
 20
10.89436591325489
 10
0.3579171331052926
 20
10.93647381126728
 10
0.3158092350929067
 20
10.95858045772378
 10
0.2737013370805172
 20
10.93647381126728
 10
0.2526473880743225
 20
10.89436591325489
 10
0.2315934390681313
 20
10.8522580152425
 10
0.2526473880743225
 20
10.81015011723012
 10
0.2737013370805172
 20
10.78909616822392
 10
0.3158092350929067
 20
10.76804221921773
 10
0.3579171331052926
 20
10.78909616822392
  0
LWPOLYLINE
  5
45
100
AcDbEntity
  8
USP-GEO
100
AcDbPolyline
 90
        2
 70
   128
 43
0.0
 10
0.2737013370805172
 20
10.93647381126728
 10
0.3158092350929067
 20
10.95858045772378
  0
LWPOLYLINE
  5
46
100
AcDbEntity
  8
USP-GEO
100
AcDbPolyline
 90
       59
 70
   128
 43
0.0
 10
6.341449440665524
 20
0.0
 10
6.341449440665524
 20
0.1052697450309665
 10
6.341449440665524
 20
0.294755286086712
 10
6.341449440665524
 20
0.4631868781362592
 10
6.341449440665524
 20
0.6105645211796152
 10
6.341449440665524
 20
2.27593188756953
 10
6.341449440665524
 20
2.675956918687209
 10
6.341449440665524
 20
3.14019649427378
 10
6.341449440665524
 20
3.624437321416234
 10
6.341449440665524
 20
4.425540081101901
 10
6.341449440665524
 20
4.59397167315145
 10
6.341449440665524
 20
4.741349316194806
 10
6.341449440665524
 20
4.846619061225775
 10
6.341449440665524
 20
4.909780908244355
 10
6.341449440665524
 20
4.993996704269129
 10
6.341449440665524
 20
5.099266449300097
 10
6.341449440665524
 20
5.416128381843313
 10
6.341449440665524
 20
5.521398126874281
 10
6.341449440665524
 20
5.605613922899054
 10
6.341449440665524
 20
5.68982971892383
 10
6.341449440665524
 20
5.795099463954798
 10
6.341449440665524
 20
5.942477106998152
 10
6.341449440665524
 20
6.110908699047701
 10
6.341449440665524
 20
6.300394240103445
 10
6.341449440665524
 20
6.468825832152994
 10
6.341449440665524
 20
6.617256172646658
 10
6.341449440665524
 20
6.722525917677627
 10
6.341449440665524
 20
6.785687764696207
 10
6.341449440665524
 20
6.890957509727176
 10
6.341449440665524
 20
6.975173305751951
 10
6.341449440665524
 20
7.290982540844856
 10
6.341449440665524
 20
7.396252285875824
 10
6.341449440665524
 20
7.480468081900598
 10
6.341449440665524
 20
7.564683877925373
 10
6.341449440665524
 20
7.67100632040665
 10
6.341449440665524
 20
7.818383963450006
 10
6.341449440665524
 20
7.986815555499555
 10
6.341449440665524
 20
8.176301096555297
 10
6.341449440665524
 20
8.344732688604846
 10
6.341449440665524
 20
8.492110331648202
 10
6.341449440665524
 20
8.59738007667917
 10
6.341449440665524
 20
8.660541923697751
 10
6.341449440665524
 20
8.76686436617903
 10
6.341449440665524
 20
8.851080162203803
 10
6.341449440665524
 20
9.293213091333869
 10
6.341449440665524
 20
9.398482836364838
 10
6.341449440665524
 20
9.482698632389613
 10
6.341449440665524
 20
9.566914428414387
 10
6.341449440665524
 20
9.672184173445355
 10
6.341449440665524
 20
9.819561816488711
 10
6.341449440665524
 20
9.98904610598857
 10
6.341449440665524
 20
10.17853164704431
 10
6.341449440665524
 20
10.34696323909386
 10
6.341449440665524
 20
10.49434088213721
 10
6.341449440665524
 20
10.59961062716818
 10
6.341449440665524
 20
10.66277247418676
 10
6.341449440665524
 20
10.76804221921773
 10
6.341449440665524
 20
10.8522580152425
 10
6.341449440665524
 20
11.16911994778572
  0
LWPOLYLINE
  5
47
100
AcDbEntity
  8
USP-GEO
100
AcDbPolyline
 90
       32
 70
   128
 43
0.0
 10
2.507525326637662
 20
11.16911994778572
 10
2.507525326637662
 20
10.8522580152425
 10
2.507525326637662
 20
10.76804221921773
 10
2.507525326637662
 20
10.66277247418676
 10
2.507525326637662
 20
10.59961062716818
 10
2.507525326637662
 20
10.49434088213721
 10
2.507525326637662
 20
10.34696323909386
 10
2.507525326637662
 20
10.17853164704431
 10
2.507525326637662
 20
9.98904610598857
 10
2.507525326637662
 20
9.819561816488711
 10
2.507525326637662
 20
9.672184173445355
 10
2.507525326637662
 20
9.566914428414387
 10
2.507525326637662
 20
9.482698632389613
 10
2.507525326637662
 20
9.398482836364838
 10
2.507525326637662
 20
9.293213091333869
 10
2.507525326637662
 20
8.851080162203803
 10
2.507525326637662
 20
8.76686436617903
 10
2.507525326637662
 20
8.660541923697751
 10
2.507525326637662
 20
8.59738007667917
 10
2.507525326637662
 20
8.492110331648202
 10
2.507525326637662
 20
8.344732688604846
 10
2.507525326637662
 20
8.176301096555297
 10
2.507525326637662
 20
7.986815555499555
 10
2.507525326637662
 20
7.818383963450006
 10
2.507525326637662
 20
7.67100632040665
 10
2.507525326637662
 20
7.564683877925373
 10
2.507525326637662
 20
7.480468081900598
 10
2.507525326637662
 20
7.396252285875824
 10
2.507525326637662
 20
7.290982540844856
 10
2.507525326637662
 20
6.975173305751951
 10
2.507525326637662
 20
6.890957509727176
 10
2.423309530612886
 20
6.890957509727176
  0
LWPOLYLINE
  5
48
100
AcDbEntity
  8
USP-GEO
100
AcDbPolyline
 90
       88
 70
   128
 43
0.0
 10
2.507525326637662
 20
6.890957509727176
 10
2.507525326637662
 20
6.785687764696207
 10
2.507525326637662
 20
6.722525917677627
 10
2.507525326637662
 20
6.617256172646658
 10
2.507525326637662
 20
6.468825832152994
 10
2.507525326637662
 20
6.300394240103445
 10
2.507525326637662
 20
6.110908699047701
 10
2.507525326637662
 20
5.942477106998152
 10
2.507525326637662
 20
5.795099463954798
 10
2.507525326637662
 20
5.68982971892383
 10
2.507525326637662
 20
5.605613922899054
 10
2.507525326637662
 20
5.521398126874281
 10
2.507525326637662
 20
5.416128381843313
 10
2.507525326637662
 20
5.099266449300097
 10
2.507525326637662
 20
4.993996704269129
 10
2.507525326637662
 20
4.909780908244355
 10
2.507525326637662
 20
4.846619061225775
 10
2.507525326637662
 20
4.741349316194806
 10
2.507525326637662
 20
4.59397167315145
 10
2.507525326637662
 20
4.425540081101901
 10
2.507525326637662
 20
3.624437321416234
 10
2.507525326637662
 20
3.14019649427378
 10
2.507525326637662
 20
2.675956918687209
 10
2.507525326637662
 20
2.27593188756953
 10
2.507525326637662
 20
0.6105645211796152
 10
2.507525326637662
 20
0.4631868781362592
 10
2.507525326637662
 20
0.294755286086712
 10
2.507525326637662
 20
0.1052697450309665
 10
2.507525326637662
 20
0.0
 10
2.612795071668632
 20
0.0
 10
2.612795071668632
 20
0.1052697450309665
 10
2.612795071668632
 20
0.294755286086712
 10
2.612795071668632
 20
0.4631868781362592
 10
2.612795071668632
 20
0.6105645211796152
 10
2.612795071668632
 20
2.27593188756953
 10
2.612795071668632
 20
2.675956918687209
 10
2.612795071668632
 20
3.14019649427378
 10
2.612795071668632
 20
3.624437321416234
 10
2.612795071668632
 20
4.425540081101901
 10
2.612795071668632
 20
4.59397167315145
 10
2.612795071668632
 20
4.741349316194806
 10
2.612795071668632
 20
4.846619061225775
 10
2.612795071668632
 20
4.909780908244355
 10
2.612795071668632
 20
4.993996704269129
 10
2.612795071668632
 20
5.099266449300097
 10
2.612795071668632
 20
5.416128381843313
 10
2.612795071668632
 20
5.521398126874281
 10
2.612795071668632
 20
5.605613922899054
 10
2.612795071668632
 20
5.68982971892383
 10
2.612795071668632
 20
5.795099463954798
 10
2.612795071668632
 20
5.942477106998152
 10
2.612795071668632
 20
6.110908699047701
 10
2.612795071668632
 20
6.300394240103445
 10
2.612795071668632
 20
6.468825832152994
 10
2.612795071668632
 20
6.617256172646658
 10
2.612795071668632
 20
6.722525917677627
 10
2.612795071668632
 20
6.785687764696207
 10
2.612795071668632
 20
6.890957509727176
 10
2.612795071668632
 20
6.975173305751951
 10
2.612795071668632
 20
7.290982540844856
 10
2.612795071668632
 20
7.396252285875824
 10
2.612795071668632
 20
7.480468081900598
 10
2.612795071668632
 20
7.564683877925373
 10
2.612795071668632
 20
7.67100632040665
 10
2.612795071668632
 20
7.818383963450006
 10
2.612795071668632
 20
7.986815555499555
 10
2.612795071668632
 20
8.176301096555297
 10
2.612795071668632
 20
8.344732688604846
 10
2.612795071668632
 20
8.492110331648202
 10
2.612795071668632
 20
8.59738007667917
 10
2.612795071668632
 20
8.660541923697751
 10
2.612795071668632
 20
8.76686436617903
 10
2.612795071668632
 20
8.851080162203803
 10
2.612795071668632
 20
9.293213091333869
 10
2.612795071668632
 20
9.398482836364838
 10
2.612795071668632
 20
9.482698632389613
 10
2.612795071668632
 20
9.566914428414387
 10
2.612795071668632
 20
9.672184173445355
 10
2.612795071668632
 20
9.819561816488711
 10
2.612795071668632
 20
9.98904610598857
 10
2.612795071668632
 20
10.17853164704431
 10
2.612795071668632
 20
10.34696323909386
 10
2.612795071668632
 20
10.49434088213721
 10
2.612795071668632
 20
10.59961062716818
 10
2.612795071668632
 20
10.66277247418676
 10
2.612795071668632
 20
10.76804221921773
 10
2.612795071668632
 20
10.8522580152425
 10
2.612795071668632
 20
11.16911994778572
  0
LWPOLYLINE
  5
49
100
AcDbEntity
  8
USP-GEO
100
AcDbPolyline
 90
        8
 70
   128
 43
0.0
 10
2.423309530612886
 20
8.702649821710139
 10
2.3812016326005
 20
8.724756468166642
 10
2.360147683594306
 20
8.745810417172835
 10
2.339093734588114
 20
8.787918315185223
 10
2.360147683594306
 20
8.851080162203803
 10
2.3812016326005
 20
8.872134111209998
 10
2.423309530612886
 20
8.893188060216191
 10
2.507525326637662
 20
8.893188060216191
  0
LWPOLYLINE
  5
4A
100
AcDbEntity
  8
USP-GEO
100
AcDbPolyline
 90
        8
 70
   128
 43
0.0
 10
2.507525326637662
 20
8.851080162203803
 10
2.507525326637662
 20
8.76686436617903
 10
2.507525326637662
 20
8.660541923697751
 10
2.507525326637662
 20
8.59738007667917
 10
2.612795071668632
 20
8.59738007667917
 10
2.612795071668632
 20
8.660541923697751
 10
2.612795071668632
 20
8.76686436617903
 10
2.612795071668632
 20
8.851080162203803
  0
LWPOLYLINE
  5
4B
100
AcDbEntity
  8
USP-GEO
100
AcDbPolyline
 90
       61
 70
   128
 43
0.0
 10
8.847922069852874
 20
10.8522580152425
 10
8.847922069852874
 20
11.16911994778572
 10
6.341449440665524
 20
11.16911994778572
 10
6.236179695634554
 20
11.16911994778572
 10
6.236179695634554
 20
10.8522580152425
 10
6.236179695634554
 20
10.76804221921773
 10
6.236179695634554
 20
10.66277247418676
 10
6.236179695634554
 20
10.59961062716818
 10
6.236179695634554
 20
10.49434088213721
 10
6.236179695634554
 20
10.34696323909386
 10
6.236179695634554
 20
10.17853164704431
 10
6.236179695634554
 20
9.98904610598857
 10
6.236179695634554
 20
9.819561816488711
 10
6.236179695634554
 20
9.672184173445355
 10
6.236179695634554
 20
9.566914428414387
 10
6.236179695634554
 20
9.482698632389613
 10
6.236179695634554
 20
9.398482836364838
 10
6.236179695634554
 20
9.293213091333869
 10
6.236179695634554
 20
8.851080162203803
 10
6.236179695634554
 20
8.76686436617903
 10
6.236179695634554
 20
8.660541923697751
 10
6.236179695634554
 20
8.59738007667917
 10
6.236179695634554
 20
8.492110331648202
 10
6.236179695634554
 20
8.344732688604846
 10
6.236179695634554
 20
8.176301096555297
 10
6.236179695634554
 20
7.986815555499555
 10
6.236179695634554
 20
7.818383963450006
 10
6.236179695634554
 20
7.67100632040665
 10
6.236179695634554
 20
7.564683877925373
 10
6.236179695634554
 20
7.480468081900598
 10
6.236179695634554
 20
7.396252285875824
 10
6.236179695634554
 20
7.290982540844856
 10
6.236179695634554
 20
6.975173305751951
 10
6.236179695634554
 20
6.890957509727176
 10
6.236179695634554
 20
6.785687764696207
 10
6.236179695634554
 20
6.722525917677627
 10
6.236179695634554
 20
6.617256172646658
 10
6.236179695634554
 20
6.468825832152994
 10
6.236179695634554
 20
6.300394240103445
 10
6.236179695634554
 20
6.110908699047701
 10
6.236179695634554
 20
5.942477106998152
 10
6.236179695634554
 20
5.795099463954798
 10
6.236179695634554
 20
5.68982971892383
 10
6.236179695634554
 20
5.605613922899054
 10
6.236179695634554
 20
5.521398126874281
 10
6.236179695634554
 20
5.416128381843313
 10
6.236179695634554
 20
5.099266449300097
 10
6.236179695634554
 20
4.993996704269129
 10
6.236179695634554
 20
4.909780908244355
 10
6.236179695634554
 20
4.846619061225775
 10
6.236179695634554
 20
4.741349316194806
 10
6.236179695634554
 20
4.59397167315145
 10
6.236179695634554
 20
4.425540081101901
 10
6.236179695634554
 20
3.624437321416234
 10
6.236179695634554
 20
3.14019649427378
 10
6.236179695634554
 20
2.675956918687209
 10
6.236179695634554
 20
2.27593188756953
 10
6.236179695634554
 20
0.6105645211796152
 10
6.236179695634554
 20
0.4631868781362592
 10
6.236179695634554
 20
0.294755286086712
 10
6.236179695634554
 20
0.1052697450309665
  0
LWPOLYLINE
  5
4C
100
AcDbEntity
  8
USP-GEO
100
AcDbPolyline
 90
       54
 70
   128
 43
0.0
 10
7.94260226258655
 20
2.27593188756953
 10
8.237357548673259
 20
2.675956918687209
 10
8.405789140722809
 20
3.14019649427378
 10
8.46895098774139
 20
3.624437321416234
 10
8.46895098774139
 20
4.425540081101901
 10
8.490004936747585
 20
4.59397167315145
 10
8.574220732772356
 20
4.741349316194806
 10
8.700544426809521
 20
4.846619061225775
 10
8.784760222834293
 20
4.909780908244355
 10
8.826868120846683
 20
4.993996704269129
 10
8.847922069852874
 20
5.099266449300097
 10
8.847922069852874
 20
5.416128381843313
 10
8.826868120846683
 20
5.521398126874281
 10
8.784760222834293
 20
5.605613922899054
 10
8.700544426809521
 20
5.68982971892383
 10
8.574220732772356
 20
5.795099463954798
 10
8.490004936747585
 20
5.942477106998152
 10
8.46895098774139
 20
6.110908699047701
 10
8.46895098774139
 20
6.300394240103445
 10
8.490004936747585
 20
6.468825832152994
 10
8.574220732772356
 20
6.617256172646658
 10
8.700544426809521
 20
6.722525917677627
 10
8.784760222834293
 20
6.785687764696207
 10
8.826868120846683
 20
6.890957509727176
 10
8.847922069852874
 20
6.975173305751951
 10
8.847922069852874
 20
7.290982540844856
 10
8.826868120846683
 20
7.396252285875824
 10
8.784760222834293
 20
7.480468081900598
 10
8.700544426809521
 20
7.564683877925373
 10
8.574220732772356
 20
7.67100632040665
 10
8.490004936747585
 20
7.818383963450006
 10
8.46895098774139
 20
7.986815555499555
 10
8.46895098774139
 20
8.176301096555297
 10
8.490004936747585
 20
8.344732688604846
 10
8.574220732772356
 20
8.492110331648202
 10
8.700544426809521
 20
8.59738007667917
 10
8.784760222834293
 20
8.660541923697751
 10
8.826868120846683
 20
8.76686436617903
 10
8.847922069852874
 20
8.851080162203803
 10
8.847922069852874
 20
9.293213091333869
 10
8.826868120846683
 20
9.398482836364838
 10
8.784760222834293
 20
9.482698632389613
 10
8.700544426809521
 20
9.566914428414387
 10
8.574220732772356
 20
9.672184173445355
 10
8.490004936747585
 20
9.819561816488711
 10
8.46895098774139
 20
9.98904610598857
 10
8.46895098774139
 20
10.17853164704431
 10
8.490004936747585
 20
10.34696323909386
 10
8.574220732772356
 20
10.49434088213721
 10
8.700544426809521
 20
10.59961062716818
 10
8.784760222834293
 20
10.66277247418676
 10
8.826868120846683
 20
10.76804221921773
 10
8.847922069852874
 20
10.8522580152425
 10
8.847922069852874
 20
11.16911994778572
  0
LWPOLYLINE
  5
4D
100
AcDbEntity
  8
USP-GEO
100
AcDbPolyline
 90
        8
 70
   128
 43
0.0
 10
6.341449440665524
 20
8.59738007667917
 10
6.341449440665524
 20
8.660541923697751
 10
6.341449440665524
 20
8.76686436617903
 10
6.341449440665524
 20
8.851080162203803
 10
6.236179695634554
 20
8.851080162203803
 10
6.236179695634554
 20
8.76686436617903
 10
6.236179695634554
 20
8.660541923697751
 10
6.236179695634554
 20
8.59738007667917
  0
TEXT
  5
4E
100
AcDbEntity
  8
USP-TXT
100
AcDbText
 10
1.504690201593106
 20
-1.831887632505875
 30
0.0
 40
0.296875
  1
THDH412 - FRONT VIEW
 72
     1
 11
4.423961034926438
 21
-1.831887632505875
 31
0.0
100
AcDbText
  0
LWPOLYLINE
  5
4F
100
AcDbEntity
  8
USP-GEO
100
AcDbPolyline
 90
        8
 70
   128
 43
0.0
 10
6.236179695634554
 20
0.1052697450309665
 10
5.308753241911727
 20
0.1052697450309665
 10
5.287699292905532
 20
0.1052697450309665
 10
5.266645343899337
 20
0.1052697450309665
 10
5.245591394893143
 20
0.1052697450309665
 10
4.99294400681882
 20
0.1052697450309665
 10
4.950836108806434
 20
0.1052697450309665
 10
4.92978215980024
 20
0.1052697450309665
  0
LWPOLYLINE
  5
50
100
AcDbEntity
  8
USP-GEO
100
AcDbPolyline
 90
        4
 70
   128
 43
0.0
 10
5.308753241911727
 20
0.0
 10
6.236179695634554
 20
0.0
 10
6.236179695634554
 20
0.1052697450309665
 10
5.308753241911727
 20
0.1052697450309665
  0
LWPOLYLINE
  5
51
100
AcDbEntity
  8
USP-GEO
100
AcDbPolyline
 90
       16
 70
   128
 43
0.0
 10
6.341449440665524
 20
0.0
 10
6.236179695634554
 20
0.0
 10
5.308753241911727
 20
0.0
 10
5.287699292905532
 20
0.0
 10
5.266645343899337
 20
0.0
 10
5.245591394893143
 20
0.0
 10
4.99294400681882
 20
0.0
 10
4.950836108806434
 20
0.0
 10
4.92978215980024
 20
0.0
 10
3.918139910052637
 20
0.0
 10
3.897085961046443
 20
0.0
 10
3.854978063034053
 20
0.0
 10
3.623384623965925
 20
0.0
 10
3.581276725953536
 20
0.0
 10
3.560222776947345
 20
0.0
 10
3.561275474397653
 20
0.0
  0
LWPOLYLINE
  5
52
100
AcDbEntity
  8
USP-GEO
100
AcDbPolyline
 90
        2
 70
   128
 43
0.0
 10
0.9063725047166357
 20
2.27593188756953
 10
2.423309530612886
 20
0.6105645211796152
  0
LWPOLYLINE
  5
53
100
AcDbEntity
  8
USP-GEO
100
AcDbPolyline
 90
        6
 70
   128
 43
0.0
 10
1.432721229871479
 20
2.170662142538564
 10
1.390613331859089
 20
2.149608193532369
 10
1.390613331859089
 20
2.086446346513788
 10
1.390613331859089
 20
2.044338448501402
 10
1.432721229871479
 20
2.023284499495208
 10
1.474829127883864
 20
2.001177853038704
  0
LWPOLYLINE
  5
54
100
AcDbEntity
  8
USP-GEO
100
AcDbPolyline
 90
        8
 70
   128
 43
0.0
 10
1.432721229871479
 20
2.170662142538564
 10
1.474829127883864
 20
2.191716091544758
 10
1.51693702589625
 20
2.170662142538564
 10
1.55904492390864
 20
2.149608193532369
 10
1.55904492390864
 20
2.086446346513788
 10
1.55904492390864
 20
2.044338448501402
 10
1.51693702589625
 20
2.023284499495208
 10
1.474829127883864
 20
2.001177853038704
  0
LWPOLYLINE
  5
55
100
AcDbEntity
  8
USP-GEO
100
AcDbPolyline
 90
        4
 70
   128
 43
0.0
 10
2.507525326637662
 20
2.27593188756953
 10
2.507525326637662
 20
0.6105645211796152
 10
2.612795071668632
 20
0.6105645211796152
 10
2.612795071668632
 20
2.27593188756953
  0
LWPOLYLINE
  5
56
100
AcDbEntity
  8
USP-GEO
100
AcDbPolyline
 90
        7
 70
   128
 43
0.0
 10
2.507525326637662
 20
1.895908108007738
 10
2.444363479619081
 20
1.916962057013929
 10
2.31803978558192
 20
2.044338448501402
 10
2.25382524111303
 20
2.233823989557144
 10
2.31803978558192
 20
2.402255581606691
 10
2.444363479619081
 20
2.528579275643856
 10
2.507525326637662
 20
2.570687173656242
  0
LWPOLYLINE
  5
57
100
AcDbEntity
  8
USP-GEO
100
AcDbPolyline
 90
        8
 70
   128
 43
0.0
 10
3.918139910052637
 20
0.1052697450309665
 10
3.897085961046443
 20
0.1052697450309665
 10
3.854978063034053
 20
0.1052697450309665
 10
3.623384623965925
 20
0.1052697450309665
 10
3.581276725953536
 20
0.1052697450309665
 10
3.560222776947345
 20
0.1052697450309665
 10
2.633849020674823
 20
0.1052697450309665
 10
2.612795071668632
 20
0.1052697450309665
  0
LWPOLYLINE
  5
58
100
AcDbEntity
  8
USP-GEO
100
AcDbPolyline
 90
        4
 70
   128
 43
0.0
 10
2.633849020674823
 20
0.0
 10
3.560222776947345
 20
0.0
 10
3.560222776947345
 20
0.1052697450309665
 10
2.633849020674823
 20
0.1052697450309665
  0
LWPOLYLINE
  5
59
100
AcDbEntity
  8
USP-GEO
100
AcDbPolyline
 90
        4
 70
   128
 43
0.0
 10
3.560222776947345
 20
0.0
 10
2.633849020674823
 20
0.0
 10
2.612795071668632
 20
0.0
 10
2.61384776911894
 20
0.0
  0
LWPOLYLINE
  5
5A
100
AcDbEntity
  8
USP-GEO
100
AcDbPolyline
 90
        8
 70
   128
 43
0.0
 10
2.507525326637662
 20
0.6105645211796152
 10
2.507525326637662
 20
0.4631868781362592
 10
2.507525326637662
 20
0.294755286086712
 10
2.507525326637662
 20
0.1052697450309665
 10
2.612795071668632
 20
0.1052697450309665
 10
2.612795071668632
 20
0.294755286086712
 10
2.612795071668632
 20
0.4631868781362592
 10
2.612795071668632
 20
0.6105645211796152
  0
LWPOLYLINE
  5
5B
100
AcDbEntity
  8
USP-GEO
100
AcDbPolyline
 90
        5
 70
   128
 43
0.0
 10
2.612795071668632
 20
0.1052697450309665
 10
2.633849020674823
 20
0.1052697450309665
 10
2.633849020674823
 20
0.0
 10
2.612795071668632
 20
0.0
 10
2.61384776911894
 20
0.0
  0
LWPOLYLINE
  5
5C
100
AcDbEntity
  8
USP-GEO
100
AcDbPolyline
 90
        2
 70
   128
 43
0.0
 10
2.507525326637662
 20
0.1052697450309665
 10
2.507525326637662
 20
0.0
  0
LWPOLYLINE
  5
5D
100
AcDbEntity
  8
USP-GEO
100
AcDbPolyline
 90
        2
 70
   128
 43
0.0
 10
2.507525326637662
 20
0.0
 10
2.612795071668632
 20
0.0
  0
LWPOLYLINE
  5
5E
100
AcDbEntity
  8
USP-GEO
100
AcDbPolyline
 90
        2
 70
   129
 43
0.0
 10
2.61384776911894
 20
0.1052697450309665
 10
2.612795071668632
 20
0.1052697450309665
  0
LWPOLYLINE
  5
5F
100
AcDbEntity
  8
USP-GEO
100
AcDbPolyline
 90
        2
 70
   128
 43
0.0
 10
2.423309530612886
 20
1.495883076890056
 10
2.507525326637662
 20
1.495883076890056
  0
LWPOLYLINE
  5
60
100
AcDbEntity
  8
USP-GEO
100
AcDbPolyline
 90
        7
 70
   128
 43
0.0
 10
2.3812016326005
 20
1.348505433846703
 10
2.360147683594306
 20
1.369559382852894
 10
2.339093734588114
 20
1.411667280865284
 10
2.360147683594306
 20
1.45377517887767
 10
2.3812016326005
 20
1.495883076890056
 10
2.423309530612886
 20
1.495883076890056
 10
2.507525326637662
 20
1.495883076890056
  0
LWPOLYLINE
  5
61
100
AcDbEntity
  8
USP-GEO
100
AcDbPolyline
 90
        4
 70
   128
 43
0.0
 10
2.507525326637662
 20
0.5052947761486486
 10
2.486471377631467
 20
0.5474026741610345
 10
2.465417428625276
 20
0.5895105721734204
 10
2.423309530612886
 20
0.6105645211796152
  0
LWPOLYLINE
  5
62
100
AcDbEntity
  8
USP-GEO
100
AcDbPolyline
 90
        7
 70
   128
 43
0.0
 10
2.507525326637662
 20
0.7579421642229712
 10
2.444363479619081
 20
0.800050062235357
 10
2.31803978558192
 20
0.9274264537228305
 10
2.25382524111303
 20
1.095858045772377
 10
2.31803978558192
 20
1.285343586828119
 10
2.444363479619081
 20
1.411667280865284
 10
2.507525326637662
 20
1.432721229871475
  0
LWPOLYLINE
  5
63
100
AcDbEntity
  8
USP-GEO
100
AcDbPolyline
 90
       12
 70
   129
 43
0.0
 10
2.402255581606695
 20
1.180073841797153
 10
2.423309530612886
 20
1.137965943784767
 10
2.423309530612886
 20
1.095858045772377
 10
2.423309530612886
 20
1.053750147759991
 10
2.402255581606695
 20
1.032696198753797
 10
2.360147683594306
 20
1.032696198753797
 10
2.339093734588114
 20
1.032696198753797
 10
2.31803978558192
 20
1.053750147759991
 10
2.31803978558192
 20
1.095858045772377
 10
2.31803978558192
 20
1.137965943784767
 10
2.339093734588114
 20
1.180073841797153
 10
2.360147683594306
 20
1.180073841797153
  0
LWPOLYLINE
  5
64
100
AcDbEntity
  8
USP-GEO
100
AcDbPolyline
 90
        5
 70
   128
 43
0.0
 10
2.402255581606695
 20
1.159019892790958
 10
2.402255581606695
 20
1.137965943784767
 10
2.402255581606695
 20
1.095858045772377
 10
2.402255581606695
 20
1.053750147759991
 10
2.403308279057004
 20
1.053750147759991
  0
LWPOLYLINE
  5
65
100
AcDbEntity
  8
USP-GEO
100
AcDbPolyline
 90
        2
 70
   128
 43
0.0
 10
2.360147683594306
 20
1.369559382852894
 10
2.339093734588114
 20
1.411667280865284
  0
LWPOLYLINE
  5
66
100
AcDbEntity
  8
USP-GEO
100
AcDbPolyline
 90
        2
 70
   128
 43
0.0
 10
4.92978215980024
 20
0.1052697450309665
 10
3.918139910052637
 20
0.1052697450309665
  0
LWPOLYLINE
  5
67
100
AcDbEntity
  8
USP-GEO
100
AcDbPolyline
 90
        6
 70
   128
 43
0.0
 10
3.918139910052637
 20
0.1052697450309665
 10
4.92978215980024
 20
0.1052697450309665
 10
4.92978215980024
 20
0.0
 10
3.918139910052637
 20
0.0
 10
3.897085961046443
 20
0.0
 10
3.854978063034053
 20
0.0
  0
LWPOLYLINE
  5
68
100
AcDbEntity
  8
USP-GEO
100
AcDbPolyline
 90
        4
 70
   128
 43
0.0
 10
3.623384623965925
 20
0.0
 10
3.854978063034053
 20
0.0
 10
3.854978063034053
 20
0.1052697450309665
 10
3.623384623965925
 20
0.1052697450309665
  0
LWPOLYLINE
  5
69
100
AcDbEntity
  8
USP-GEO
100
AcDbPolyline
 90
        8
 70
   128
 43
0.0
 10
3.561275474397653
 20
0.1052697450309665
 10
3.560222776947345
 20
0.1052697450309665
 10
3.581276725953536
 20
0.1052697450309665
 10
3.623384623965925
 20
0.1052697450309665
 10
3.623384623965925
 20
0.0
 10
3.581276725953536
 20
0.0
 10
3.560222776947345
 20
0.0
 10
3.561275474397653
 20
0.0
  0
LWPOLYLINE
  5
6A
100
AcDbEntity
  8
USP-GEO
100
AcDbPolyline
 90
        3
 70
   128
 43
0.0
 10
3.918139910052637
 20
0.1052697450309665
 10
3.918139910052637
 20
0.0
 10
3.919192607502946
 20
0.0
  0
LWPOLYLINE
  5
6B
100
AcDbEntity
  8
USP-GEO
100
AcDbPolyline
 90
        2
 70
   129
 43
0.0
 10
3.919192607502946
 20
0.1052697450309665
 10
3.918139910052637
 20
0.1052697450309665
  0
LWPOLYLINE
  5
6C
100
AcDbEntity
  8
USP-GEO
100
AcDbPolyline
 90
        3
 70
   128
 43
0.0
 10
3.918139910052637
 20
0.1052697450309665
 10
3.897085961046443
 20
0.1052697450309665
 10
3.854978063034053
 20
0.1052697450309665
  0
LWPOLYLINE
  5
6D
100
AcDbEntity
  8
USP-GEO
100
AcDbPolyline
 90
        4
 70
   128
 43
0.0
 10
4.99294400681882
 20
0.0
 10
5.245591394893143
 20
0.0
 10
5.245591394893143
 20
0.1052697450309665
 10
4.99294400681882
 20
0.1052697450309665
  0
LWPOLYLINE
  5
6E
100
AcDbEntity
  8
USP-GEO
100
AcDbPolyline
 90
        6
 70
   128
 43
0.0
 10
4.92978215980024
 20
0.1052697450309665
 10
4.950836108806434
 20
0.1052697450309665
 10
4.99294400681882
 20
0.1052697450309665
 10
4.99294400681882
 20
0.0
 10
4.950836108806434
 20
0.0
 10
4.92978215980024
 20
0.0
  0
LWPOLYLINE
  5
6F
100
AcDbEntity
  8
USP-GEO
100
AcDbPolyline
 90
        2
 70
   129
 43
0.0
 10
4.930834857250548
 20
0.1052697450309665
 10
4.92978215980024
 20
0.1052697450309665
  0
LWPOLYLINE
  5
70
100
AcDbEntity
  8
USP-GEO
100
AcDbPolyline
 90
        8
 70
   128
 43
0.0
 10
5.245591394893143
 20
0.0
 10
5.266645343899337
 20
0.0
 10
5.287699292905532
 20
0.0
 10
5.308753241911727
 20
0.0
 10
5.308753241911727
 20
0.1052697450309665
 10
5.287699292905532
 20
0.1052697450309665
 10
5.266645343899337
 20
0.1052697450309665
 10
5.245591394893143
 20
0.1052697450309665
  0
LWPOLYLINE
  5
71
100
AcDbEntity
  8
USP-GEO
100
AcDbPolyline
 90
       11
 70
   128
 43
0.0
 10
2.507525326637662
 20
6.110908699047701
 10
2.507525326637662
 20
5.942477106998152
 10
2.507525326637662
 20
5.795099463954798
 10
2.507525326637662
 20
5.68982971892383
 10
2.507525326637662
 20
5.605613922899054
 10
2.507525326637662
 20
5.521398126874281
 10
2.507525326637662
 20
5.416128381843313
 10
2.612795071668632
 20
5.416128381843313
 10
2.612795071668632
 20
5.521398126874281
 10
2.612795071668632
 20
5.605613922899054
 10
2.612795071668632
 20
5.68982971892383
  0
LWPOLYLINE
  5
72
100
AcDbEntity
  8
USP-GEO
100
AcDbPolyline
 90
       12
 70
   129
 43
0.0
 10
0.9905883007414111
 20
2.991766153780115
 10
0.9695343517352164
 20
3.033874051792501
 10
0.9484804027290252
 20
3.054928000798696
 10
0.9063725047166357
 20
3.075981949804891
 10
0.8432106576980551
 20
3.054928000798696
 10
0.8221567086918604
 20
3.033874051792501
 10
0.8011027596856692
 20
2.991766153780115
 10
0.8221567086918604
 20
2.949658255767726
 10
0.8432106576980551
 20
2.90755035775534
 10
0.9063725047166357
 20
2.886496408749145
 10
0.9484804027290252
 20
2.90755035775534
 10
0.9695343517352164
 20
2.949658255767726
  0
LWPOLYLINE
  5
73
100
AcDbEntity
  8
USP-GEO
100
AcDbPolyline
 90
       12
 70
   129
 43
0.0
 10
1.55904492390864
 20
3.392843882348104
 10
1.55904492390864
 20
3.350735984335717
 10
1.55904492390864
 20
3.308628086323331
 10
1.51693702589625
 20
3.266520188310941
 10
1.474829127883864
 20
3.266520188310941
 10
1.432721229871479
 20
3.266520188310941
 10
1.390613331859089
 20
3.308628086323331
 10
1.390613331859089
 20
3.350735984335717
 10
1.390613331859089
 20
3.392843882348104
 10
1.432721229871479
 20
3.43495178036049
 10
1.474829127883864
 20
3.43495178036049
 10
1.51693702589625
 20
3.43495178036049
  0
LWPOLYLINE
  5
74
100
AcDbEntity
  8
USP-GEO
100
AcDbPolyline
 90
        2
 70
   128
 43
0.0
 10
1.390613331859089
 20
3.350735984335717
 10
1.390613331859089
 20
3.392843882348104
  0
LWPOLYLINE
  5
75
100
AcDbEntity
  8
USP-GEO
100
AcDbPolyline
 90
       12
 70
   129
 43
0.0
 10
0.9905883007414111
 20
4.235001842595849
 10
0.9695343517352164
 20
4.278162438058545
 10
0.9484804027290252
 20
4.320270336070933
 10
0.9063725047166357
 20
4.320270336070933
 10
0.8432106576980551
 20
4.320270336070933
 10
0.8221567086918604
 20
4.278162438058545
 10
0.8011027596856692
 20
4.235001842595849
 10
0.8221567086918604
 20
4.192893944583461
 10
0.8432106576980551
 20
4.150786046571075
 10
0.9063725047166357
 20
4.150786046571075
 10
0.9484804027290252
 20
4.150786046571075
 10
0.9695343517352164
 20
4.192893944583461
  0
LWPOLYLINE
  5
76
100
AcDbEntity
  8
USP-GEO
100
AcDbPolyline
 90
        2
 70
   128
 43
0.0
 10
0.9484804027290252
 20
4.150786046571075
 10
0.9063725047166357
 20
4.150786046571075
  0
LWPOLYLINE
  5
77
100
AcDbEntity
  8
USP-GEO
100
AcDbPolyline
 90
        5
 70
   128
 43
0.0
 10
1.432721229871479
 20
4.678187469176226
 10
1.390613331859089
 20
4.636079571163838
 10
1.390613331859089
 20
4.59397167315145
 10
1.390613331859089
 20
4.551863775139063
 10
1.432721229871479
 20
4.53080982613287
  0
LWPOLYLINE
  5
78
100
AcDbEntity
  8
USP-GEO
100
AcDbPolyline
 90
        9
 70
   128
 43
0.0
 10
1.432721229871479
 20
4.678187469176226
 10
1.474829127883864
 20
4.699241418182419
 10
1.51693702589625
 20
4.678187469176226
 10
1.55904492390864
 20
4.636079571163838
 10
1.55904492390864
 20
4.59397167315145
 10
1.55904492390864
 20
4.551863775139063
 10
1.51693702589625
 20
4.53080982613287
 10
1.474829127883864
 20
4.509755877126677
 10
1.432721229871479
 20
4.53080982613287
  0
LWPOLYLINE
  5
79
100
AcDbEntity
  8
USP-GEO
100
AcDbPolyline
 90
        2
 70
   128
 43
0.0
 10
2.507525326637662
 20
4.425540081101901
 10
2.507525326637662
 20
3.624437321416234
  0
LWPOLYLINE
  5
7A
100
AcDbEntity
  8
USP-GEO
100
AcDbPolyline
 90
        2
 70
   128
 43
0.0
 10
2.612795071668632
 20
3.624437321416234
 10
2.612795071668632
 20
4.425540081101901
  0
LWPOLYLINE
  5
7B
100
AcDbEntity
  8
USP-GEO
100
AcDbPolyline
 90
        7
 70
   128
 43
0.0
 10
2.507525326637662
 20
3.01282010278631
 10
2.444363479619081
 20
3.054928000798696
 10
2.31803978558192
 20
3.182304392286166
 10
2.25382524111303
 20
3.350735984335717
 10
2.31803978558192
 20
3.540221525391459
 10
2.444363479619081
 20
3.666545219428622
 10
2.507525326637662
 20
3.687599168434815
  0
LWPOLYLINE
  5
7C
100
AcDbEntity
  8
USP-GEO
100
AcDbPolyline
 90
       14
 70
   129
 43
0.0
 10
2.232771292106836
 20
2.549633224650047
 10
2.211717343100641
 20
2.591741122662437
 10
2.190663394094446
 20
2.633849020674823
 10
2.14855549608206
 20
2.633849020674823
 10
1.980123904032513
 20
2.633849020674823
 10
1.938016006020124
 20
2.633849020674823
 10
1.895908108007738
 20
2.591741122662437
 10
1.895908108007738
 20
2.549633224650047
 10
1.895908108007738
 20
2.507525326637662
 10
1.938016006020124
 20
2.486471377631467
 10
1.980123904032513
 20
2.465417428625276
 10
2.14855549608206
 20
2.465417428625276
 10
2.190663394094446
 20
2.486471377631467
 10
2.211717343100641
 20
2.507525326637662
  0
LWPOLYLINE
  5
7D
100
AcDbEntity
  8
USP-GEO
100
AcDbPolyline
 90
        2
 70
   128
 43
0.0
 10
2.14855549608206
 20
2.465417428625276
 10
1.980123904032513
 20
2.465417428625276
  0
LWPOLYLINE
  5
7E
100
AcDbEntity
  8
USP-GEO
100
AcDbPolyline
 90
        2
 70
   128
 43
0.0
 10
1.980123904032513
 20
2.633849020674823
 10
2.14855549608206
 20
2.633849020674823
  0
LWPOLYLINE
  5
7F
100
AcDbEntity
  8
USP-GEO
100
AcDbPolyline
 90
       12
 70
   129
 43
0.0
 10
2.402255581606695
 20
2.296985836575725
 10
2.423309530612886
 20
2.27593188756953
 10
2.423309530612886
 20
2.233823989557144
 10
2.423309530612886
 20
2.191716091544758
 10
2.402255581606695
 20
2.170662142538564
 10
2.360147683594306
 20
2.149608193532369
 10
2.339093734588114
 20
2.170662142538564
 10
2.31803978558192
 20
2.191716091544758
 10
2.31803978558192
 20
2.233823989557144
 10
2.31803978558192
 20
2.27593188756953
 10
2.339093734588114
 20
2.296985836575725
 10
2.360147683594306
 20
2.296985836575725
  0
LWPOLYLINE
  5
80
100
AcDbEntity
  8
USP-GEO
100
AcDbPolyline
 90
        5
 70
   128
 43
0.0
 10
2.403308279057004
 20
2.27593188756953
 10
2.402255581606695
 20
2.27593188756953
 10
2.402255581606695
 20
2.233823989557144
 10
2.402255581606695
 20
2.191716091544758
 10
2.402255581606695
 20
2.170662142538564
  0
LWPOLYLINE
  5
81
100
AcDbEntity
  8
USP-GEO
100
AcDbPolyline
 90
        5
 70
   128
 43
0.0
 10
2.402255581606695
 20
3.413897831354297
 10
2.402255581606695
 20
3.392843882348104
 10
2.402255581606695
 20
3.350735984335717
 10
2.402255581606695
 20
3.308628086323331
 10
2.403308279057004
 20
3.308628086323331
  0
LWPOLYLINE
  5
82
100
AcDbEntity
  8
USP-GEO
100
AcDbPolyline
 90
       12
 70
   129
 43
0.0
 10
2.402255581606695
 20
3.413897831354297
 10
2.423309530612886
 20
3.392843882348104
 10
2.423309530612886
 20
3.350735984335717
 10
2.423309530612886
 20
3.308628086323331
 10
2.402255581606695
 20
3.287574137317136
 10
2.360147683594306
 20
3.287574137317136
 10
2.339093734588114
 20
3.287574137317136
 10
2.31803978558192
 20
3.308628086323331
 10
2.31803978558192
 20
3.350735984335717
 10
2.31803978558192
 20
3.392843882348104
 10
2.339093734588114
 20
3.413897831354297
 10
2.360147683594306
 20
3.43495178036049
  0
LWPOLYLINE
  5
83
100
AcDbEntity
  8
USP-GEO
100
AcDbPolyline
 90
        8
 70
   129
 43
0.0
 10
2.507525326637662
 20
3.624437321416234
 10
2.507525326637662
 20
3.14019649427378
 10
2.507525326637662
 20
2.675956918687209
 10
2.507525326637662
 20
2.27593188756953
 10
2.612795071668632
 20
2.27593188756953
 10
2.612795071668632
 20
2.675956918687209
 10
2.612795071668632
 20
3.14019649427378
 10
2.612795071668632
 20
3.624437321416234
  0
LWPOLYLINE
  5
84
100
AcDbEntity
  8
USP-GEO
100
AcDbPolyline
 90
        2
 70
   128
 43
0.0
 10
2.423309530612886
 20
5.120320398306292
 10
2.507525326637662
 20
5.120320398306292
  0
LWPOLYLINE
  5
85
100
AcDbEntity
  8
USP-GEO
100
AcDbPolyline
 90
        8
 70
   128
 43
0.0
 10
2.423309530612886
 20
4.951888806256743
 10
2.3812016326005
 20
4.972942755262936
 10
2.360147683594306
 20
4.993996704269129
 10
2.339093734588114
 20
5.036104602281517
 10
2.360147683594306
 20
5.078212500293904
 10
2.3812016326005
 20
5.120320398306292
 10
2.423309530612886
 20
5.120320398306292
 10
2.507525326637662
 20
5.120320398306292
  0
LWPOLYLINE
  5
86
100
AcDbEntity
  8
USP-GEO
100
AcDbPolyline
 90
        2
 70
   129
 43
0.0
 10
2.423309530612886
 20
4.951888806256743
 10
2.507525326637662
 20
4.951888806256743
  0
LWPOLYLINE
  5
87
100
AcDbEntity
  8
USP-GEO
100
AcDbPolyline
 90
        2
 70
   128
 43
0.0
 10
2.444363479619081
 20
4.171839995577268
 10
2.507525326637662
 20
4.150786046571075
  0
LWPOLYLINE
  5
88
100
AcDbEntity
  8
USP-GEO
100
AcDbPolyline
 90
        2
 70
   128
 43
0.0
 10
2.507525326637662
 20
4.82556511221958
 10
2.444363479619081
 20
4.783457214207194
  0
LWPOLYLINE
  5
89
100
AcDbEntity
  8
USP-GEO
100
AcDbPolyline
 90
        5
 70
   128
 43
0.0
 10
2.444363479619081
 20
4.171839995577268
 10
2.31803978558192
 20
4.29921638706474
 10
2.25382524111303
 20
4.488701928120482
 10
2.31803978558192
 20
4.657133520170031
 10
2.444363479619081
 20
4.783457214207194
  0
LWPOLYLINE
  5
8A
100
AcDbEntity
  8
USP-GEO
100
AcDbPolyline
 90
       14
 70
   129
 43
0.0
 10
2.232771292106836
 20
4.29921638706474
 10
2.211717343100641
 20
4.341324285077128
 10
2.190663394094446
 20
4.383432183089514
 10
2.14855549608206
 20
4.383432183089514
 10
1.980123904032513
 20
4.383432183089514
 10
1.938016006020124
 20
4.383432183089514
 10
1.895908108007738
 20
4.341324285077128
 10
1.895908108007738
 20
4.29921638706474
 10
1.895908108007738
 20
4.257108489052352
 10
1.938016006020124
 20
4.235001842595849
 10
1.980123904032513
 20
4.213947893589656
 10
2.14855549608206
 20
4.213947893589656
 10
2.190663394094446
 20
4.235001842595849
 10
2.211717343100641
 20
4.257108489052352
  0
LWPOLYLINE
  5
8B
100
AcDbEntity
  8
USP-GEO
100
AcDbPolyline
 90
        2
 70
   128
 43
0.0
 10
2.14855549608206
 20
4.213947893589656
 10
1.980123904032513
 20
4.213947893589656
  0
LWPOLYLINE
  5
8C
100
AcDbEntity
  8
USP-GEO
100
AcDbPolyline
 90
        2
 70
   128
 43
0.0
 10
1.980123904032513
 20
4.383432183089514
 10
2.14855549608206
 20
4.383432183089514
  0
LWPOLYLINE
  5
8D
100
AcDbEntity
  8
USP-GEO
100
AcDbPolyline
 90
        2
 70
   128
 43
0.0
 10
1.895908108007738
 20
4.341324285077128
 10
1.938016006020124
 20
4.383432183089514
  0
LWPOLYLINE
  5
8E
100
AcDbEntity
  8
USP-GEO
100
AcDbPolyline
 90
        8
 70
   128
 43
0.0
 10
2.360147683594306
 20
4.404486132095708
 10
2.339093734588114
 20
4.404486132095708
 10
2.31803978558192
 20
4.446594030108094
 10
2.31803978558192
 20
4.488701928120482
 10
2.31803978558192
 20
4.509755877126677
 10
2.339093734588114
 20
4.551863775139063
 10
2.360147683594306
 20
4.551863775139063
 10
2.402255581606695
 20
4.551863775139063
  0
LWPOLYLINE
  5
8F
100
AcDbEntity
  8
USP-GEO
100
AcDbPolyline
 90
        5
 70
   128
 43
0.0
 10
2.402255581606695
 20
4.425540081101901
 10
2.402255581606695
 20
4.446594030108094
 10
2.402255581606695
 20
4.488701928120482
 10
2.402255581606695
 20
4.509755877126677
 10
2.402255581606695
 20
4.53080982613287
  0
LWPOLYLINE
  5
90
100
AcDbEntity
  8
USP-GEO
100
AcDbPolyline
 90
        6
 70
   128
 43
0.0
 10
2.402255581606695
 20
4.551863775139063
 10
2.423309530612886
 20
4.509755877126677
 10
2.423309530612886
 20
4.488701928120482
 10
2.423309530612886
 20
4.446594030108094
 10
2.402255581606695
 20
4.404486132095708
 10
2.360147683594306
 20
4.404486132095708
  0
LWPOLYLINE
  5
91
100
AcDbEntity
  8
USP-GEO
100
AcDbPolyline
 90
        8
 70
   128
 43
0.0
 10
2.507525326637662
 20
4.846619061225775
 10
2.507525326637662
 20
4.741349316194806
 10
2.507525326637662
 20
4.59397167315145
 10
2.507525326637662
 20
4.425540081101901
 10
2.612795071668632
 20
4.425540081101901
 10
2.612795071668632
 20
4.59397167315145
 10
2.612795071668632
 20
4.741349316194806
 10
2.612795071668632
 20
4.846619061225775
  0
LWPOLYLINE
  5
92
100
AcDbEntity
  8
USP-GEO
100
AcDbPolyline
 90
        8
 70
   128
 43
0.0
 10
2.612795071668632
 20
5.099266449300097
 10
2.612795071668632
 20
4.993996704269129
 10
2.612795071668632
 20
4.909780908244355
 10
2.612795071668632
 20
4.846619061225775
 10
2.507525326637662
 20
4.846619061225775
 10
2.507525326637662
 20
4.909780908244355
 10
2.507525326637662
 20
4.993996704269129
 10
2.507525326637662
 20
5.099266449300097
  0
LWPOLYLINE
  5
93
100
AcDbEntity
  8
USP-GEO
100
AcDbPolyline
 90
        4
 70
   128
 43
0.0
 10
2.507525326637662
 20
5.416128381843313
 10
2.507525326637662
 20
5.099266449300097
 10
2.612795071668632
 20
5.099266449300097
 10
2.612795071668632
 20
5.416128381843313
  0
LWPOLYLINE
  5
94
100
AcDbEntity
  8
USP-GEO
100
AcDbPolyline
 90
       12
 70
   129
 43
0.0
 10
0.9905883007414111
 20
5.563506024886667
 10
0.9695343517352164
 20
5.626667871905249
 10
0.9484804027290252
 20
5.647721820911442
 10
0.9063725047166357
 20
5.668775769917635
 10
0.8432106576980551
 20
5.647721820911442
 10
0.8221567086918604
 20
5.626667871905249
 10
0.8011027596856692
 20
5.563506024886667
 10
0.8221567086918604
 20
5.521398126874281
 10
0.8432106576980551
 20
5.500344177868086
 10
0.9063725047166357
 20
5.479290228861893
 10
0.9484804027290252
 20
5.500344177868086
 10
0.9695343517352164
 20
5.521398126874281
  0
LWPOLYLINE
  5
95
100
AcDbEntity
  8
USP-GEO
100
AcDbPolyline
 90
        2
 70
   128
 43
0.0
 10
0.8221567086918604
 20
5.521398126874281
 10
0.8011027596856692
 20
5.563506024886667
  0
LWPOLYLINE
  5
96
100
AcDbEntity
  8
USP-GEO
100
AcDbPolyline
 90
       12
 70
   129
 43
0.0
 10
0.9695343517352164
 20
6.575148274634273
 10
0.9484804027290252
 20
6.533040376621885
 10
0.9063725047166357
 20
6.533040376621885
 10
0.8432106576980551
 20
6.533040376621885
 10
0.8221567086918604
 20
6.575148274634273
 10
0.8011027596856692
 20
6.617256172646658
 10
0.8221567086918604
 20
6.659364070659046
 10
0.8432106576980551
 20
6.701471968671434
 10
0.9063725047166357
 20
6.701471968671434
 10
0.9484804027290252
 20
6.701471968671434
 10
0.9695343517352164
 20
6.659364070659046
 10
0.9905883007414111
 20
6.617256172646658
  0
LWPOLYLINE
  5
97
100
AcDbEntity
  8
USP-GEO
100
AcDbPolyline
 90
        2
 70
   128
 43
0.0
 10
1.51693702589625
 20
5.774045514948603
 10
1.474829127883864
 20
5.75299156594241
  0
LWPOLYLINE
  5
98
100
AcDbEntity
  8
USP-GEO
100
AcDbPolyline
 90
        9
 70
   128
 43
0.0
 10
1.432721229871479
 20
5.921423157991959
 10
1.474829127883864
 20
5.942477106998152
 10
1.51693702589625
 20
5.921423157991959
 10
1.55904492390864
 20
5.900369208985766
 10
1.55904492390864
 20
5.858261310973379
 10
1.55904492390864
 20
5.795099463954798
 10
1.51693702589625
 20
5.774045514948603
 10
1.474829127883864
 20
5.75299156594241
 10
1.432721229871479
 20
5.774045514948603
  0
LWPOLYLINE
  5
99
100
AcDbEntity
  8
USP-GEO
100
AcDbPolyline
 90
        5
 70
   128
 43
0.0
 10
1.432721229871479
 20
5.921423157991959
 10
1.390613331859089
 20
5.900369208985766
 10
1.390613331859089
 20
5.858261310973379
 10
1.390613331859089
 20
5.795099463954798
 10
1.432721229871479
 20
5.774045514948603
  0
LWPOLYLINE
  5
9A
100
AcDbEntity
  8
USP-GEO
100
AcDbPolyline
 90
        9
 70
   128
 43
0.0
 10
1.432721229871479
 20
6.933065407739563
 10
1.474829127883864
 20
6.954119356745756
 10
1.51693702589625
 20
6.933065407739563
 10
1.55904492390864
 20
6.91201145873337
 10
1.55904492390864
 20
6.869903560720983
 10
1.55904492390864
 20
6.806741713702402
 10
1.51693702589625
 20
6.785687764696207
 10
1.474829127883864
 20
6.764633815690014
 10
1.432721229871479
 20
6.785687764696207
  0
LWPOLYLINE
  5
9B
100
AcDbEntity
  8
USP-GEO
100
AcDbPolyline
 90
        5
 70
   128
 43
0.0
 10
1.432721229871479
 20
6.933065407739563
 10
1.390613331859089
 20
6.91201145873337
 10
1.390613331859089
 20
6.869903560720983
 10
1.390613331859089
 20
6.806741713702402
 10
1.432721229871479
 20
6.785687764696207
  0
LWPOLYLINE
  5
9C
100
AcDbEntity
  8
USP-GEO
100
AcDbPolyline
 90
        2
 70
   128
 43
0.0
 10
0.8432106576980551
 20
8.428948484629621
 10
0.9063725047166357
 20
8.450002433635814
  0
LWPOLYLINE
  5
9D
100
AcDbEntity
  8
USP-GEO
100
AcDbPolyline
 90
       12
 70
   129
 43
0.0
 10
0.9695343517352164
 20
8.323678739598653
 10
0.9484804027290252
 20
8.281570841586265
 10
0.9063725047166357
 20
8.260516892580072
 10
0.8432106576980551
 20
8.281570841586265
 10
0.8221567086918604
 20
8.323678739598653
 10
0.8011027596856692
 20
8.365786637611041
 10
0.8221567086918604
 20
8.407894535623428
 10
0.8432106576980551
 20
8.428948484629621
 10
0.9063725047166357
 20
8.450002433635814
 10
0.9484804027290252
 20
8.428948484629621
 10
0.9695343517352164
 20
8.407894535623428
 10
0.9905883007414111
 20
8.365786637611041
  0
LWPOLYLINE
  5
9E
100
AcDbEntity
  8
USP-GEO
100
AcDbPolyline
 90
        9
 70
   128
 43
0.0
 10
1.432721229871479
 20
7.755222116431426
 10
1.474829127883864
 20
7.755222116431426
 10
1.51693702589625
 20
7.755222116431426
 10
1.55904492390864
 20
7.713114218419038
 10
1.55904492390864
 20
7.67100632040665
 10
1.55904492390864
 20
7.628898422394263
 10
1.51693702589625
 20
7.585737826931566
 10
1.474829127883864
 20
7.585737826931566
 10
1.432721229871479
 20
7.585737826931566
  0
LWPOLYLINE
  5
9F
100
AcDbEntity
  8
USP-GEO
100
AcDbPolyline
 90
        5
 70
   128
 43
0.0
 10
1.432721229871479
 20
7.585737826931566
 10
1.390613331859089
 20
7.628898422394263
 10
1.390613331859089
 20
7.67100632040665
 10
1.390613331859089
 20
7.713114218419038
 10
1.432721229871479
 20
7.755222116431426
  0
LWPOLYLINE
  5
A0
100
AcDbEntity
  8
USP-GEO
100
AcDbPolyline
 90
        4
 70
   128
 43
0.0
 10
2.507525326637662
 20
7.290982540844856
 10
2.507525326637662
 20
6.975173305751951
 10
2.612795071668632
 20
6.975173305751951
 10
2.612795071668632
 20
7.290982540844856
  0
LWPOLYLINE
  5
A1
100
AcDbEntity
  8
USP-GEO
100
AcDbPolyline
 90
        8
 70
   128
 43
0.0
 10
2.423309530612886
 20
6.701471968671434
 10
2.3812016326005
 20
6.722525917677627
 10
2.360147683594306
 20
6.743579866683822
 10
2.339093734588114
 20
6.785687764696207
 10
2.360147683594306
 20
6.84884961171479
 10
2.3812016326005
 20
6.869903560720983
 10
2.423309530612886
 20
6.890957509727176
 10
2.507525326637662
 20
6.890957509727176
  0
LWPOLYLINE
  5
A2
100
AcDbEntity
  8
USP-GEO
100
AcDbPolyline
 90
        2
 70
   129
 43
0.0
 10
2.423309530612886
 20
6.701471968671434
 10
2.507525326637662
 20
6.701471968671434
  0
LWPOLYLINE
  5
A3
100
AcDbEntity
  8
USP-GEO
100
AcDbPolyline
 90
        7
 70
   128
 43
0.0
 10
2.507525326637662
 20
6.701471968671434
 10
2.444363479619081
 20
6.659364070659046
 10
2.31803978558192
 20
6.533040376621885
 10
2.25382524111303
 20
6.363556087122026
 10
2.31803978558192
 20
6.174070546066284
 10
2.444363479619081
 20
6.047746852029121
 10
2.507525326637662
 20
6.026692903022928
  0
LWPOLYLINE
  5
A4
100
AcDbEntity
  8
USP-GEO
100
AcDbPolyline
 90
       14
 70
   129
 43
0.0
 10
2.232771292106836
 20
6.047746852029121
 10
2.211717343100641
 20
6.089854750041508
 10
2.190663394094446
 20
6.131962648053896
 10
2.14855549608206
 20
6.153016597060089
 10
1.980123904032513
 20
6.153016597060089
 10
1.938016006020124
 20
6.131962648053896
 10
1.895908108007738
 20
6.089854750041508
 10
1.895908108007738
 20
6.047746852029121
 10
1.895908108007738
 20
6.005638954016735
 10
1.938016006020124
 20
5.98458500501054
 10
1.980123904032513
 20
5.963531056004347
 10
2.14855549608206
 20
5.963531056004347
 10
2.190663394094446
 20
5.98458500501054
 10
2.211717343100641
 20
6.005638954016735
  0
LWPOLYLINE
  5
A5
100
AcDbEntity
  8
USP-GEO
100
AcDbPolyline
 90
        2
 70
   128
 43
0.0
 10
1.980123904032513
 20
6.153016597060089
 10
2.14855549608206
 20
6.153016597060089
  0
LWPOLYLINE
  5
A6
100
AcDbEntity
  8
USP-GEO
100
AcDbPolyline
 90
        2
 70
   128
 43
0.0
 10
2.14855549608206
 20
5.963531056004347
 10
1.980123904032513
 20
5.963531056004347
  0
LWPOLYLINE
  5
A7
100
AcDbEntity
  8
USP-GEO
100
AcDbPolyline
 90
       12
 70
   129
 43
0.0
 10
2.402255581606695
 20
6.426717934140606
 10
2.423309530612886
 20
6.405663985134413
 10
2.423309530612886
 20
6.363556087122026
 10
2.423309530612886
 20
6.321448189109638
 10
2.402255581606695
 20
6.279340291097252
 10
2.360147683594306
 20
6.279340291097252
 10
2.339093734588114
 20
6.279340291097252
 10
2.31803978558192
 20
6.321448189109638
 10
2.31803978558192
 20
6.363556087122026
 10
2.31803978558192
 20
6.405663985134413
 10
2.339093734588114
 20
6.426717934140606
 10
2.360147683594306
 20
6.426717934140606
  0
LWPOLYLINE
  5
A8
100
AcDbEntity
  8
USP-GEO
100
AcDbPolyline
 90
        5
 70
   128
 43
0.0
 10
2.403308279057004
 20
6.405663985134413
 10
2.402255581606695
 20
6.405663985134413
 10
2.402255581606695
 20
6.363556087122026
 10
2.402255581606695
 20
6.321448189109638
 10
2.402255581606695
 20
6.300394240103445
  0
LWPOLYLINE
  5
A9
100
AcDbEntity
  8
USP-GEO
100
AcDbPolyline
 90
        4
 70
   128
 43
0.0
 10
2.507525326637662
 20
6.300394240103445
 10
2.507525326637662
 20
6.110908699047701
 10
2.612795071668632
 20
6.110908699047701
 10
2.612795071668632
 20
6.300394240103445
  0
LWPOLYLINE
  5
AA
100
AcDbEntity
  8
USP-GEO
100
AcDbPolyline
 90
        5
 70
   128
 43
0.0
 10
2.507525326637662
 20
5.68982971892383
 10
2.612795071668632
 20
5.68982971892383
 10
2.612795071668632
 20
5.795099463954798
 10
2.612795071668632
 20
5.942477106998152
 10
2.612795071668632
 20
6.110908699047701
  0
LWPOLYLINE
  5
AB
100
AcDbEntity
  8
USP-GEO
100
AcDbPolyline
 90
        8
 70
   128
 43
0.0
 10
2.507525326637662
 20
6.722525917677627
 10
2.507525326637662
 20
6.617256172646658
 10
2.507525326637662
 20
6.468825832152994
 10
2.507525326637662
 20
6.300394240103445
 10
2.612795071668632
 20
6.300394240103445
 10
2.612795071668632
 20
6.468825832152994
 10
2.612795071668632
 20
6.617256172646658
 10
2.612795071668632
 20
6.722525917677627
  0
LWPOLYLINE
  5
AC
100
AcDbEntity
  8
USP-GEO
100
AcDbPolyline
 90
        8
 70
   128
 43
0.0
 10
2.507525326637662
 20
6.975173305751951
 10
2.507525326637662
 20
6.890957509727176
 10
2.507525326637662
 20
6.785687764696207
 10
2.507525326637662
 20
6.722525917677627
 10
2.612795071668632
 20
6.722525917677627
 10
2.612795071668632
 20
6.785687764696207
 10
2.612795071668632
 20
6.890957509727176
 10
2.612795071668632
 20
6.975173305751951
  0
LWPOLYLINE
  5
AD
100
AcDbEntity
  8
USP-GEO
100
AcDbPolyline
 90
        2
 70
   129
 43
0.0
 10
2.423309530612886
 20
8.702649821710139
 10
2.507525326637662
 20
8.702649821710139
  0
LWPOLYLINE
  5
AE
100
AcDbEntity
  8
USP-GEO
100
AcDbPolyline
 90
        7
 70
   128
 43
0.0
 10
2.507525326637662
 20
7.90259975947478
 10
2.444363479619081
 20
7.923653708480975
 10
2.31803978558192
 20
8.049977402518136
 10
2.25382524111303
 20
8.239462943573879
 10
2.31803978558192
 20
8.407894535623428
 10
2.444363479619081
 20
8.53421822966059
 10
2.507525326637662
 20
8.576326127672977
  0
LWPOLYLINE
  5
AF
100
AcDbEntity
  8
USP-GEO
100
AcDbPolyline
 90
       14
 70
   129
 43
0.0
 10
2.232771292106836
 20
8.049977402518136
 10
2.211717343100641
 20
8.007869504505748
 10
2.190663394094446
 20
7.986815555499555
 10
2.14855549608206
 20
7.965761606493362
 10
1.980123904032513
 20
7.965761606493362
 10
1.938016006020124
 20
7.986815555499555
 10
1.895908108007738
 20
8.007869504505748
 10
1.895908108007738
 20
8.049977402518136
 10
1.895908108007738
 20
8.092085300530523
 10
1.938016006020124
 20
8.134193198542911
 10
1.980123904032513
 20
8.155247147549104
 10
2.14855549608206
 20
8.155247147549104
 10
2.190663394094446
 20
8.134193198542911
 10
2.211717343100641
 20
8.092085300530523
  0
LWPOLYLINE
  5
B0
100
AcDbEntity
  8
USP-GEO
100
AcDbPolyline
 90
        2
 70
   128
 43
0.0
 10
2.14855549608206
 20
7.965761606493362
 10
1.980123904032513
 20
7.965761606493362
  0
LWPOLYLINE
  5
B1
100
AcDbEntity
  8
USP-GEO
100
AcDbPolyline
 90
        2
 70
   128
 43
0.0
 10
1.980123904032513
 20
8.155247147549104
 10
2.14855549608206
 20
8.155247147549104
  0
LWPOLYLINE
  5
B2
100
AcDbEntity
  8
USP-GEO
100
AcDbPolyline
 90
       12
 70
   129
 43
0.0
 10
2.402255581606695
 20
8.30262479059246
 10
2.423309530612886
 20
8.281570841586265
 10
2.423309530612886
 20
8.239462943573879
 10
2.423309530612886
 20
8.197355045561492
 10
2.402255581606695
 20
8.176301096555297
 10
2.360147683594306
 20
8.155247147549104
 10
2.339093734588114
 20
8.176301096555297
 10
2.31803978558192
 20
8.197355045561492
 10
2.31803978558192
 20
8.239462943573879
 10
2.31803978558192
 20
8.281570841586265
 10
2.339093734588114
 20
8.30262479059246
 10
2.360147683594306
 20
8.30262479059246
  0
LWPOLYLINE
  5
B3
100
AcDbEntity
  8
USP-GEO
100
AcDbPolyline
 90
        2
 70
   128
 43
0.0
 10
2.211717343100641
 20
8.007869504505748
 10
2.190663394094446
 20
7.986815555499555
  0
LWPOLYLINE
  5
B4
100
AcDbEntity
  8
USP-GEO
100
AcDbPolyline
 90
        5
 70
   128
 43
0.0
 10
2.403308279057004
 20
8.281570841586265
 10
2.402255581606695
 20
8.281570841586265
 10
2.402255581606695
 20
8.239462943573879
 10
2.402255581606695
 20
8.197355045561492
 10
2.402255581606695
 20
8.176301096555297
  0
LWPOLYLINE
  5
B5
100
AcDbEntity
  8
USP-GEO
100
AcDbPolyline
 90
        8
 70
   128
 43
0.0
 10
2.507525326637662
 20
7.986815555499555
 10
2.507525326637662
 20
7.818383963450006
 10
2.507525326637662
 20
7.67100632040665
 10
2.507525326637662
 20
7.564683877925373
 10
2.612795071668632
 20
7.564683877925373
 10
2.612795071668632
 20
7.67100632040665
 10
2.612795071668632
 20
7.818383963450006
 10
2.612795071668632
 20
7.986815555499555
  0
LWPOLYLINE
  5
B6
100
AcDbEntity
  8
USP-GEO
100
AcDbPolyline
 90
        8
 70
   128
 43
0.0
 10
2.507525326637662
 20
7.564683877925373
 10
2.507525326637662
 20
7.480468081900598
 10
2.507525326637662
 20
7.396252285875824
 10
2.507525326637662
 20
7.290982540844856
 10
2.612795071668632
 20
7.290982540844856
 10
2.612795071668632
 20
7.396252285875824
 10
2.612795071668632
 20
7.480468081900598
 10
2.612795071668632
 20
7.564683877925373
  0
LWPOLYLINE
  5
B7
100
AcDbEntity
  8
USP-GEO
100
AcDbPolyline
 90
        8
 70
   128
 43
0.0
 10
2.507525326637662
 20
8.59738007667917
 10
2.507525326637662
 20
8.492110331648202
 10
2.507525326637662
 20
8.344732688604846
 10
2.507525326637662
 20
8.176301096555297
 10
2.612795071668632
 20
8.176301096555297
 10
2.612795071668632
 20
8.344732688604846
 10
2.612795071668632
 20
8.492110331648202
 10
2.612795071668632
 20
8.59738007667917
  0
LWPOLYLINE
  5
B8
100
AcDbEntity
  8
USP-GEO
100
AcDbPolyline
 90
        4
 70
   128
 43
0.0
 10
2.507525326637662
 20
8.176301096555297
 10
2.507525326637662
 20
7.986815555499555
 10
2.612795071668632
 20
7.986815555499555
 10
2.612795071668632
 20
8.176301096555297
  0
LWPOLYLINE
  5
B9
100
AcDbEntity
  8
USP-GEO
100
AcDbPolyline
 90
        2
 70
   128
 43
0.0
 10
6.551988930727461
 20
0.7579421642229712
 10
7.94260226258655
 20
2.27593188756953
  0
LWPOLYLINE
  5
BA
100
AcDbEntity
  8
USP-GEO
100
AcDbPolyline
 90
        2
 70
   128
 43
0.0
 10
6.551988930727461
 20
0.7579421642229712
 10
7.94260226258655
 20
2.27593188756953
  0
LWPOLYLINE
  5
BB
100
AcDbEntity
  8
USP-GEO
100
AcDbPolyline
 90
       11
 70
   128
 43
0.0
 10
7.457308737993784
 20
2.21277004055095
 10
7.415200839981398
 20
2.233823989557144
 10
7.373092941969012
 20
2.254877938563339
 10
7.330985043956623
 20
2.233823989557144
 10
7.309931094950432
 20
2.21277004055095
 10
7.288877145944237
 20
2.149608193532369
 10
7.309931094950432
 20
2.107500295519983
 10
7.330985043956623
 20
2.086446346513788
 10
7.373092941969012
 20
2.065392397507594
 10
7.415200839981398
 20
2.086446346513788
 10
7.457308737993784
 20
2.107500295519983
  0
LWPOLYLINE
  5
BC
100
AcDbEntity
  8
USP-GEO
100
AcDbPolyline
 90
        3
 70
   128
 43
0.0
 10
7.457308737993784
 20
2.107500295519983
 10
7.478362686999979
 20
2.149608193532369
 10
7.457308737993784
 20
2.21277004055095
  0
LWPOLYLINE
  5
BD
100
AcDbEntity
  8
USP-GEO
100
AcDbPolyline
 90
        4
 70
   128
 43
0.0
 10
6.341449440665524
 20
0.6105645211796152
 10
6.341449440665524
 20
2.27593188756953
 10
6.236179695634554
 20
2.27593188756953
 10
6.236179695634554
 20
0.6105645211796152
  0
LWPOLYLINE
  5
BE
100
AcDbEntity
  8
USP-GEO
100
AcDbPolyline
 90
       17
 70
   128
 43
0.0
 10
6.447771883146803
 20
2.086446346513788
 10
6.44671918569649
 20
2.086446346513788
 10
6.425665236690299
 20
2.044338448501402
 10
6.44671918569649
 20
2.001177853038704
 10
6.467773134702685
 20
1.98012390403251
 10
6.48882708370888
 20
1.959069955026318
 10
6.509881032715071
 20
1.98012390403251
 10
6.530934981721266
 20
2.001177853038704
 10
6.530934981721266
 20
2.044338448501402
 10
6.530934981721266
 20
2.086446346513788
 10
6.509881032715071
 20
2.107500295519983
 10
6.48882708370888
 20
2.128554244526174
 10
6.467773134702685
 20
2.107500295519983
 10
6.44671918569649
 20
2.086446346513788
 10
6.467773134702685
 20
2.044338448501402
 10
6.44671918569649
 20
2.001177853038704
 10
6.44671918569649
 20
1.98012390403251
  0
LWPOLYLINE
  5
BF
100
AcDbEntity
  8
USP-GEO
100
AcDbPolyline
 90
        7
 70
   128
 43
0.0
 10
6.341449440665524
 20
1.706422566951992
 10
6.425665236690299
 20
1.727476515958187
 10
6.551988930727461
 20
1.853800209995348
 10
6.594096828739846
 20
2.044338448501402
 10
6.551988930727461
 20
2.21277004055095
 10
6.425665236690299
 20
2.339093734588111
 10
6.341449440665524
 20
2.3812016326005
  0
LWPOLYLINE
  5
C0
100
AcDbEntity
  8
USP-GEO
100
AcDbPolyline
 90
        8
 70
   129
 43
0.0
 10
6.236179695634554
 20
0.6105645211796152
 10
6.236179695634554
 20
0.4631868781362592
 10
6.236179695634554
 20
0.294755286086712
 10
6.236179695634554
 20
0.1052697450309665
 10
6.341449440665524
 20
0.1052697450309665
 10
6.341449440665524
 20
0.294755286086712
 10
6.341449440665524
 20
0.4631868781362592
 10
6.341449440665524
 20
0.6105645211796152
  0
LWPOLYLINE
  5
C1
100
AcDbEntity
  8
USP-GEO
100
AcDbPolyline
 90
        3
 70
   128
 43
0.0
 10
6.236179695634554
 20
0.0
 10
6.341449440665524
 20
0.0
 10
6.341449440665524
 20
0.1052697450309665
  0
LWPOLYLINE
  5
C2
100
AcDbEntity
  8
USP-GEO
100
AcDbPolyline
 90
        2
 70
   128
 43
0.0
 10
6.236179695634554
 20
0.0
 10
6.236179695634554
 20
0.1052697450309665
  0
LWPOLYLINE
  5
C3
100
AcDbEntity
  8
USP-GEO
100
AcDbPolyline
 90
        2
 70
   129
 43
0.0
 10
6.237232393084866
 20
0.0
 10
6.236179695634554
 20
0.0
  0
LWPOLYLINE
  5
C4
100
AcDbEntity
  8
USP-GEO
100
AcDbPolyline
 90
        2
 70
   129
 43
0.0
 10
6.237232393084866
 20
0.1052697450309665
 10
6.236179695634554
 20
0.1052697450309665
  0
LWPOLYLINE
  5
C5
100
AcDbEntity
  8
USP-GEO
100
AcDbPolyline
 90
        2
 70
   129
 43
0.0
 10
6.237232393084866
 20
0.1052697450309665
 10
6.236179695634554
 20
0.1052697450309665
  0
LWPOLYLINE
  5
C6
100
AcDbEntity
  8
USP-GEO
100
AcDbPolyline
 90
        2
 70
   128
 43
0.0
 10
6.425665236690299
 20
1.45377517887767
 10
6.341449440665524
 20
1.45377517887767
  0
LWPOLYLINE
  5
C7
100
AcDbEntity
  8
USP-GEO
100
AcDbPolyline
 90
        4
 70
   128
 43
0.0
 10
6.404611287684105
 20
0.6105645211796152
 10
6.404611287684105
 20
0.5895105721734204
 10
6.362503389671715
 20
0.5474026741610345
 10
6.341449440665524
 20
0.5052947761486486
  0
LWPOLYLINE
  5
C8
100
AcDbEntity
  8
USP-GEO
100
AcDbPolyline
 90
        9
 70
   128
 43
0.0
 10
6.341449440665524
 20
1.62220677092722
 10
6.425665236690299
 20
1.62220677092722
 10
6.467773134702685
 20
1.62220677092722
 10
6.509881032715071
 20
1.580098872914831
 10
6.509881032715071
 20
1.537990974902445
 10
6.509881032715071
 20
1.495883076890056
 10
6.467773134702685
 20
1.474829127883864
 10
6.425665236690299
 20
1.45377517887767
 10
6.341449440665524
 20
1.45377517887767
  0
LWPOLYLINE
  5
C9
100
AcDbEntity
  8
USP-GEO
100
AcDbPolyline
 90
        2
 70
   128
 43
0.0
 10
6.341449440665524
 20
1.62220677092722
 10
6.425665236690299
 20
1.62220677092722
  0
LWPOLYLINE
  5
CA
100
AcDbEntity
  8
USP-GEO
100
AcDbPolyline
 90
        7
 70
   128
 43
0.0
 10
6.341449440665524
 20
0.5684566231672293
 10
6.425665236690299
 20
0.6105645211796152
 10
6.551988930727461
 20
0.7368882152167764
 10
6.594096828739846
 20
0.9063725047166357
 10
6.551988930727461
 20
1.095858045772377
 10
6.425665236690299
 20
1.222181739809538
 10
6.341449440665524
 20
1.264289637821928
  0
LWPOLYLINE
  5
CB
100
AcDbEntity
  8
USP-GEO
100
AcDbPolyline
 90
        5
 70
   128
 43
0.0
 10
6.44671918569649
 20
0.8632119092539376
 10
6.44671918569649
 20
0.8842658582601323
 10
6.425665236690299
 20
0.9063725047166357
 10
6.44671918569649
 20
0.9484804027290216
 10
6.44671918569649
 20
0.9695343517352164
  0
LWPOLYLINE
  5
CC
100
AcDbEntity
  8
USP-GEO
100
AcDbPolyline
 90
       12
 70
   129
 43
0.0
 10
6.467773134702685
 20
0.9063725047166357
 10
6.44671918569649
 20
0.9484804027290216
 10
6.467773134702685
 20
0.9905883007414111
 10
6.48882708370888
 20
0.9905883007414111
 10
6.509881032715071
 20
0.9905883007414111
 10
6.530934981721266
 20
0.9484804027290216
 10
6.530934981721266
 20
0.9063725047166357
 10
6.530934981721266
 20
0.8842658582601323
 10
6.509881032715071
 20
0.8421579602477464
 10
6.48882708370888
 20
0.8421579602477464
 10
6.467773134702685
 20
0.8421579602477464
 10
6.44671918569649
 20
0.8842658582601323
  0
LWPOLYLINE
  5
CD
100
AcDbEntity
  8
USP-GEO
100
AcDbPolyline
 90
        2
 70
   128
 43
0.0
 10
6.509881032715071
 20
1.580098872914831
 10
6.509881032715071
 20
1.537990974902445
  0
LWPOLYLINE
  5
CE
100
AcDbEntity
  8
USP-GEO
100
AcDbPolyline
 90
        8
 70
   128
 43
0.0
 10
6.236179695634554
 20
5.416128381843313
 10
6.236179695634554
 20
5.521398126874281
 10
6.236179695634554
 20
5.605613922899054
 10
6.236179695634554
 20
5.68982971892383
 10
6.341449440665524
 20
5.68982971892383
 10
6.341449440665524
 20
5.605613922899054
 10
6.341449440665524
 20
5.521398126874281
 10
6.341449440665524
 20
5.416128381843313
  0
LWPOLYLINE
  5
CF
100
AcDbEntity
  8
USP-GEO
100
AcDbPolyline
 90
        4
 70
   128
 43
0.0
 10
6.341449440665524
 20
3.624437321416234
 10
6.341449440665524
 20
4.425540081101901
 10
6.236179695634554
 20
4.425540081101901
 10
6.236179695634554
 20
3.624437321416234
  0
LWPOLYLINE
  5
D0
100
AcDbEntity
  8
USP-GEO
100
AcDbPolyline
 90
        7
 70
   128
 43
0.0
 10
6.341449440665524
 20
2.823334561730565
 10
6.425665236690299
 20
2.865442459742954
 10
6.551988930727461
 20
2.991766153780115
 10
6.594096828739846
 20
3.161250443279975
 10
6.551988930727461
 20
3.350735984335717
 10
6.425665236690299
 20
3.477059678372878
 10
6.341449440665524
 20
3.498113627379073
  0
LWPOLYLINE
  5
D1
100
AcDbEntity
  8
USP-GEO
100
AcDbPolyline
 90
        8
 70
   128
 43
0.0
 10
6.341449440665524
 20
2.27593188756953
 10
6.341449440665524
 20
2.675956918687209
 10
6.341449440665524
 20
3.14019649427378
 10
6.341449440665524
 20
3.624437321416234
 10
6.236179695634554
 20
3.624437321416234
 10
6.236179695634554
 20
3.14019649427378
 10
6.236179695634554
 20
2.675956918687209
 10
6.236179695634554
 20
2.27593188756953
  0
LWPOLYLINE
  5
D2
100
AcDbEntity
  8
USP-GEO
100
AcDbPolyline
 90
        2
 70
   128
 43
0.0
 10
6.888852114826558
 20
2.528579275643856
 10
6.699366573770817
 20
2.528579275643856
  0
LWPOLYLINE
  5
D3
100
AcDbEntity
  8
USP-GEO
100
AcDbPolyline
 90
        2
 70
   128
 43
0.0
 10
6.699366573770817
 20
2.697010867693403
 10
6.888852114826558
 20
2.697010867693403
  0
LWPOLYLINE
  5
D4
100
AcDbEntity
  8
USP-GEO
100
AcDbPolyline
 90
       14
 70
   129
 43
0.0
 10
6.952013961845139
 20
2.570687173656242
 10
6.930960012838944
 20
2.549633224650047
 10
6.888852114826558
 20
2.528579275643856
 10
6.699366573770817
 20
2.528579275643856
 10
6.657258675758427
 20
2.549633224650047
 10
6.636204726752232
 20
2.570687173656242
 10
6.615150777746041
 20
2.612795071668628
 10
6.636204726752232
 20
2.654902969681018
 10
6.657258675758427
 20
2.697010867693403
 10
6.699366573770817
 20
2.697010867693403
 10
6.888852114826558
 20
2.697010867693403
 10
6.930960012838944
 20
2.697010867693403
 10
6.952013961845139
 20
2.654902969681018
 10
6.973067910851334
 20
2.612795071668628
  0
LWPOLYLINE
  5
D5
100
AcDbEntity
  8
USP-GEO
100
AcDbPolyline
 90
        4
 70
   128
 43
0.0
 10
6.44671918569649
 20
3.224412290298555
 10
6.44671918569649
 20
3.203358341292361
 10
6.425665236690299
 20
3.161250443279975
 10
6.44671918569649
 20
3.118089847817277
  0
LWPOLYLINE
  5
D6
100
AcDbEntity
  8
USP-GEO
100
AcDbPolyline
 90
       12
 70
   129
 43
0.0
 10
6.530934981721266
 20
3.161250443279975
 10
6.530934981721266
 20
3.203358341292361
 10
6.509881032715071
 20
3.245466239304747
 10
6.48882708370888
 20
3.245466239304747
 10
6.467773134702685
 20
3.245466239304747
 10
6.44671918569649
 20
3.203358341292361
 10
6.467773134702685
 20
3.161250443279975
 10
6.44671918569649
 20
3.118089847817277
 10
6.467773134702685
 20
3.097035898811082
 10
6.48882708370888
 20
3.097035898811082
 10
6.509881032715071
 20
3.097035898811082
 10
6.530934981721266
 20
3.118089847817277
  0
LWPOLYLINE
  5
D7
100
AcDbEntity
  8
USP-GEO
100
AcDbPolyline
 90
        4
 70
   128
 43
0.0
 10
6.509881032715071
 20
3.37178993334191
 10
6.509881032715071
 20
3.392843882348104
 10
6.467773134702685
 20
3.43495178036049
 10
6.468825832152994
 20
3.43495178036049
  0
LWPOLYLINE
  5
D8
100
AcDbEntity
  8
USP-GEO
100
AcDbPolyline
 90
        2
 70
   128
 43
0.0
 10
6.425665236690299
 20
5.015050653275324
 10
6.341449440665524
 20
5.015050653275324
  0
LWPOLYLINE
  5
D9
100
AcDbEntity
  8
USP-GEO
100
AcDbPolyline
 90
        9
 70
   128
 43
0.0
 10
6.341449440665524
 20
5.183482245324873
 10
6.425665236690299
 20
5.183482245324873
 10
6.467773134702685
 20
5.183482245324873
 10
6.509881032715071
 20
5.141374347312485
 10
6.509881032715071
 20
5.099266449300097
 10
6.509881032715071
 20
5.057158551287711
 10
6.467773134702685
 20
5.036104602281517
 10
6.425665236690299
 20
5.015050653275324
 10
6.341449440665524
 20
5.015050653275324
  0
LWPOLYLINE
  5
DA
100
AcDbEntity
  8
USP-GEO
100
AcDbPolyline
 90
        2
 70
   128
 43
0.0
 10
6.341449440665524
 20
5.183482245324873
 10
6.425665236690299
 20
5.183482245324873
  0
LWPOLYLINE
  5
DB
100
AcDbEntity
  8
USP-GEO
100
AcDbPolyline
 90
        7
 70
   128
 43
0.0
 10
6.341449440665524
 20
3.961300505515332
 10
6.425665236690299
 20
3.982354454521525
 10
6.551988930727461
 20
4.108678148558688
 10
6.594096828739846
 20
4.29921638706474
 10
6.551988930727461
 20
4.467647979114289
 10
6.425665236690299
 20
4.59397167315145
 10
6.341449440665524
 20
4.636079571163838
  0
LWPOLYLINE
  5
DC
100
AcDbEntity
  8
USP-GEO
100
AcDbPolyline
 90
        8
 70
   128
 43
0.0
 10
6.236179695634554
 20
4.425540081101901
 10
6.236179695634554
 20
4.59397167315145
 10
6.236179695634554
 20
4.741349316194806
 10
6.236179695634554
 20
4.846619061225775
 10
6.341449440665524
 20
4.846619061225775
 10
6.341449440665524
 20
4.741349316194806
 10
6.341449440665524
 20
4.59397167315145
 10
6.341449440665524
 20
4.425540081101901
  0
LWPOLYLINE
  5
DD
100
AcDbEntity
  8
USP-GEO
100
AcDbPolyline
 90
        8
 70
   128
 43
0.0
 10
6.341449440665524
 20
4.846619061225775
 10
6.341449440665524
 20
4.909780908244355
 10
6.341449440665524
 20
4.993996704269129
 10
6.341449440665524
 20
5.099266449300097
 10
6.236179695634554
 20
5.099266449300097
 10
6.236179695634554
 20
4.993996704269129
 10
6.236179695634554
 20
4.909780908244355
 10
6.236179695634554
 20
4.846619061225775
  0
LWPOLYLINE
  5
DE
100
AcDbEntity
  8
USP-GEO
100
AcDbPolyline
 90
        4
 70
   128
 43
0.0
 10
6.341449440665524
 20
5.099266449300097
 10
6.341449440665524
 20
5.416128381843313
 10
6.236179695634554
 20
5.416128381843313
 10
6.236179695634554
 20
5.099266449300097
  0
LWPOLYLINE
  5
DF
100
AcDbEntity
  8
USP-GEO
100
AcDbPolyline
 90
        2
 70
   128
 43
0.0
 10
6.699366573770817
 20
4.446594030108094
 10
6.888852114826558
 20
4.446594030108094
  0
LWPOLYLINE
  5
E0
100
AcDbEntity
  8
USP-GEO
100
AcDbPolyline
 90
        2
 70
   128
 43
0.0
 10
6.888852114826558
 20
4.278162438058545
 10
6.699366573770817
 20
4.278162438058545
  0
LWPOLYLINE
  5
E1
100
AcDbEntity
  8
USP-GEO
100
AcDbPolyline
 90
       14
 70
   129
 43
0.0
 10
6.952013961845139
 20
4.320270336070933
 10
6.930960012838944
 20
4.29921638706474
 10
6.888852114826558
 20
4.278162438058545
 10
6.699366573770817
 20
4.278162438058545
 10
6.657258675758427
 20
4.29921638706474
 10
6.636204726752232
 20
4.320270336070933
 10
6.615150777746041
 20
4.362378234083321
 10
6.636204726752232
 20
4.404486132095708
 10
6.657258675758427
 20
4.446594030108094
 10
6.699366573770817
 20
4.446594030108094
 10
6.888852114826558
 20
4.446594030108094
 10
6.930960012838944
 20
4.446594030108094
 10
6.952013961845139
 20
4.404486132095708
 10
6.973067910851334
 20
4.362378234083321
  0
LWPOLYLINE
  5
E2
100
AcDbEntity
  8
USP-GEO
100
AcDbPolyline
 90
       17
 70
   128
 43
0.0
 10
6.447771883146803
 20
4.341324285077128
 10
6.44671918569649
 20
4.341324285077128
 10
6.425665236690299
 20
4.29921638706474
 10
6.44671918569649
 20
4.257108489052352
 10
6.467773134702685
 20
4.235001842595849
 10
6.48882708370888
 20
4.213947893589656
 10
6.509881032715071
 20
4.235001842595849
 10
6.530934981721266
 20
4.257108489052352
 10
6.530934981721266
 20
4.29921638706474
 10
6.530934981721266
 20
4.341324285077128
 10
6.509881032715071
 20
4.362378234083321
 10
6.48882708370888
 20
4.362378234083321
 10
6.467773134702685
 20
4.362378234083321
 10
6.44671918569649
 20
4.341324285077128
 10
6.467773134702685
 20
4.29921638706474
 10
6.44671918569649
 20
4.257108489052352
 10
6.44671918569649
 20
4.235001842595849
  0
LWPOLYLINE
  5
E3
100
AcDbEntity
  8
USP-GEO
100
AcDbPolyline
 90
        2
 70
   128
 43
0.0
 10
6.425665236690299
 20
5.183482245324873
 10
6.467773134702685
 20
5.183482245324873
  0
LWPOLYLINE
  5
E4
100
AcDbEntity
  8
USP-GEO
100
AcDbPolyline
 90
        2
 70
   128
 43
0.0
 10
7.457308737993784
 20
2.21277004055095
 10
7.478362686999979
 20
2.149608193532369
  0
LWPOLYLINE
  5
E5
100
AcDbEntity
  8
USP-GEO
100
AcDbPolyline
 90
        2
 70
   128
 43
0.0
 10
7.330985043956623
 20
3.498113627379073
 10
7.373092941969012
 20
3.498113627379073
  0
LWPOLYLINE
  5
E6
100
AcDbEntity
  8
USP-GEO
100
AcDbPolyline
 90
       11
 70
   128
 43
0.0
 10
7.457308737993784
 20
3.37178993334191
 10
7.415200839981398
 20
3.329682035329522
 10
7.373092941969012
 20
3.329682035329522
 10
7.330985043956623
 20
3.329682035329522
 10
7.309931094950432
 20
3.37178993334191
 10
7.288877145944237
 20
3.413897831354297
 10
7.309931094950432
 20
3.456005729366685
 10
7.330985043956623
 20
3.498113627379073
 10
7.373092941969012
 20
3.498113627379073
 10
7.415200839981398
 20
3.498113627379073
 10
7.457308737993784
 20
3.456005729366685
  0
LWPOLYLINE
  5
E7
100
AcDbEntity
  8
USP-GEO
100
AcDbPolyline
 90
        3
 70
   128
 43
0.0
 10
7.457308737993784
 20
3.456005729366685
 10
7.478362686999979
 20
3.413897831354297
 10
7.457308737993784
 20
3.37178993334191
  0
LWPOLYLINE
  5
E8
100
AcDbEntity
  8
USP-GEO
100
AcDbPolyline
 90
       12
 70
   129
 43
0.0
 10
8.047872007617517
 20
3.054928000798696
 10
8.026818058611322
 20
3.097035898811082
 10
8.005764109605131
 20
3.118089847817277
 10
7.963656211592741
 20
3.14019649427378
 10
7.921548313580355
 20
3.118089847817277
 10
7.87944041556797
 20
3.097035898811082
 10
7.858386466561775
 20
3.054928000798696
 10
7.87944041556797
 20
3.01282010278631
 10
7.921548313580355
 20
2.970712204773921
 10
7.963656211592741
 20
2.949658255767726
 10
8.005764109605131
 20
2.970712204773921
 10
8.026818058611322
 20
3.01282010278631
  0
LWPOLYLINE
  5
E9
100
AcDbEntity
  8
USP-GEO
100
AcDbPolyline
 90
       11
 70
   128
 43
0.0
 10
7.457308737993784
 20
4.615025622157645
 10
7.415200839981398
 20
4.572917724145257
 10
7.373092941969012
 20
4.572917724145257
 10
7.330985043956623
 20
4.572917724145257
 10
7.309931094950432
 20
4.615025622157645
 10
7.288877145944237
 20
4.657133520170031
 10
7.309931094950432
 20
4.699241418182419
 10
7.330985043956623
 20
4.741349316194806
 10
7.373092941969012
 20
4.741349316194806
 10
7.415200839981398
 20
4.741349316194806
 10
7.457308737993784
 20
4.699241418182419
  0
LWPOLYLINE
  5
EA
100
AcDbEntity
  8
USP-GEO
100
AcDbPolyline
 90
        2
 70
   128
 43
0.0
 10
7.330985043956623
 20
4.741349316194806
 10
7.373092941969012
 20
4.741349316194806
  0
LWPOLYLINE
  5
EB
100
AcDbEntity
  8
USP-GEO
100
AcDbPolyline
 90
        3
 70
   128
 43
0.0
 10
7.457308737993784
 20
4.699241418182419
 10
7.478362686999979
 20
4.657133520170031
 10
7.457308737993784
 20
4.615025622157645
  0
LWPOLYLINE
  5
EC
100
AcDbEntity
  8
USP-GEO
100
AcDbPolyline
 90
       12
 70
   129
 43
0.0
 10
8.047872007617517
 20
4.29921638706474
 10
8.026818058611322
 20
4.341324285077128
 10
8.005764109605131
 20
4.383432183089514
 10
7.963656211592741
 20
4.383432183089514
 10
7.921548313580355
 20
4.383432183089514
 10
7.87944041556797
 20
4.341324285077128
 10
7.858386466561775
 20
4.29921638706474
 10
7.87944041556797
 20
4.257108489052352
 10
7.921548313580355
 20
4.213947893589656
 10
7.963656211592741
 20
4.213947893589656
 10
8.005764109605131
 20
4.213947893589656
 10
8.026818058611322
 20
4.257108489052352
  0
LWPOLYLINE
  5
ED
100
AcDbEntity
  8
USP-GEO
100
AcDbPolyline
 90
        4
 70
   128
 43
0.0
 10
6.341449440665524
 20
6.975173305751951
 10
6.341449440665524
 20
7.290982540844856
 10
6.236179695634554
 20
7.290982540844856
 10
6.236179695634554
 20
6.975173305751951
  0
LWPOLYLINE
  5
EE
100
AcDbEntity
  8
USP-GEO
100
AcDbPolyline
 90
        2
 70
   128
 43
0.0
 10
6.425665236690299
 20
6.764633815690014
 10
6.341449440665524
 20
6.764633815690014
  0
LWPOLYLINE
  5
EF
100
AcDbEntity
  8
USP-GEO
100
AcDbPolyline
 90
        9
 70
   128
 43
0.0
 10
6.341449440665524
 20
6.954119356745756
 10
6.425665236690299
 20
6.954119356745756
 10
6.467773134702685
 20
6.933065407739563
 10
6.509881032715071
 20
6.890957509727176
 10
6.509881032715071
 20
6.84884961171479
 10
6.509881032715071
 20
6.806741713702402
 10
6.467773134702685
 20
6.785687764696207
 10
6.425665236690299
 20
6.764633815690014
 10
6.341449440665524
 20
6.764633815690014
  0
LWPOLYLINE
  5
F0
100
AcDbEntity
  8
USP-GEO
100
AcDbPolyline
 90
        2
 70
   128
 43
0.0
 10
6.341449440665524
 20
6.954119356745756
 10
6.425665236690299
 20
6.954119356745756
  0
LWPOLYLINE
  5
F1
100
AcDbEntity
  8
USP-GEO
100
AcDbPolyline
 90
        7
 70
   128
 43
0.0
 10
6.341449440665524
 20
5.837207361967184
 10
6.425665236690299
 20
5.858261310973379
 10
6.551988930727461
 20
5.98458500501054
 10
6.594096828739846
 20
6.174070546066284
 10
6.551988930727461
 20
6.342502138115833
 10
6.425665236690299
 20
6.468825832152994
 10
6.341449440665524
 20
6.51198642761569
  0
LWPOLYLINE
  5
F2
100
AcDbEntity
  8
USP-GEO
100
AcDbPolyline
 90
        4
 70
   128
 43
0.0
 10
6.341449440665524
 20
6.110908699047701
 10
6.341449440665524
 20
6.300394240103445
 10
6.236179695634554
 20
6.300394240103445
 10
6.236179695634554
 20
6.110908699047701
  0
LWPOLYLINE
  5
F3
100
AcDbEntity
  8
USP-GEO
100
AcDbPolyline
 90
        8
 70
   128
 43
0.0
 10
6.341449440665524
 20
5.68982971892383
 10
6.341449440665524
 20
5.795099463954798
 10
6.341449440665524
 20
5.942477106998152
 10
6.341449440665524
 20
6.110908699047701
 10
6.236179695634554
 20
6.110908699047701
 10
6.236179695634554
 20
5.942477106998152
 10
6.236179695634554
 20
5.795099463954798
 10
6.236179695634554
 20
5.68982971892383
  0
LWPOLYLINE
  5
F4
100
AcDbEntity
  8
USP-GEO
100
AcDbPolyline
 90
        8
 70
   128
 43
0.0
 10
6.341449440665524
 20
6.300394240103445
 10
6.341449440665524
 20
6.468825832152994
 10
6.341449440665524
 20
6.617256172646658
 10
6.341449440665524
 20
6.722525917677627
 10
6.236179695634554
 20
6.722525917677627
 10
6.236179695634554
 20
6.617256172646658
 10
6.236179695634554
 20
6.468825832152994
 10
6.236179695634554
 20
6.300394240103445
  0
LWPOLYLINE
  5
F5
100
AcDbEntity
  8
USP-GEO
100
AcDbPolyline
 90
        8
 70
   128
 43
0.0
 10
6.341449440665524
 20
6.722525917677627
 10
6.341449440665524
 20
6.785687764696207
 10
6.341449440665524
 20
6.890957509727176
 10
6.341449440665524
 20
6.975173305751951
 10
6.236179695634554
 20
6.975173305751951
 10
6.236179695634554
 20
6.890957509727176
 10
6.236179695634554
 20
6.785687764696207
 10
6.236179695634554
 20
6.722525917677627
  0
LWPOLYLINE
  5
F6
100
AcDbEntity
  8
USP-GEO
100
AcDbPolyline
 90
        2
 70
   128
 43
0.0
 10
6.888852114826558
 20
6.026692903022928
 10
6.699366573770817
 20
6.026692903022928
  0
LWPOLYLINE
  5
F7
100
AcDbEntity
  8
USP-GEO
100
AcDbPolyline
 90
        2
 70
   128
 43
0.0
 10
6.699366573770817
 20
6.21617844407867
 10
6.888852114826558
 20
6.21617844407867
  0
LWPOLYLINE
  5
F8
100
AcDbEntity
  8
USP-GEO
100
AcDbPolyline
 90
       14
 70
   129
 43
0.0
 10
6.952013961845139
 20
6.068800801035315
 10
6.973067910851334
 20
6.110908699047701
 10
6.952013961845139
 20
6.153016597060089
 10
6.930960012838944
 20
6.195124495072477
 10
6.888852114826558
 20
6.21617844407867
 10
6.699366573770817
 20
6.21617844407867
 10
6.657258675758427
 20
6.195124495072477
 10
6.636204726752232
 20
6.153016597060089
 10
6.615150777746041
 20
6.110908699047701
 10
6.636204726752232
 20
6.068800801035315
 10
6.657258675758427
 20
6.047746852029121
 10
6.699366573770817
 20
6.026692903022928
 10
6.888852114826558
 20
6.026692903022928
 10
6.930960012838944
 20
6.047746852029121
  0
LWPOLYLINE
  5
F9
100
AcDbEntity
  8
USP-GEO
100
AcDbPolyline
 90
       17
 70
   128
 43
0.0
 10
6.44671918569649
 20
6.110908699047701
 10
6.44671918569649
 20
6.131962648053896
 10
6.467773134702685
 20
6.174070546066284
 10
6.44671918569649
 20
6.21617844407867
 10
6.467773134702685
 20
6.237232393084864
 10
6.48882708370888
 20
6.237232393084864
 10
6.509881032715071
 20
6.237232393084864
 10
6.530934981721266
 20
6.21617844407867
 10
6.530934981721266
 20
6.174070546066284
 10
6.530934981721266
 20
6.131962648053896
 10
6.509881032715071
 20
6.110908699047701
 10
6.48882708370888
 20
6.089854750041508
 10
6.467773134702685
 20
6.110908699047701
 10
6.44671918569649
 20
6.131962648053896
 10
6.425665236690299
 20
6.174070546066284
 10
6.44671918569649
 20
6.21617844407867
 10
6.447771883146803
 20
6.21617844407867
  0
LWPOLYLINE
  5
FA
100
AcDbEntity
  8
USP-GEO
100
AcDbPolyline
 90
        2
 70
   128
 43
0.0
 10
6.425665236690299
 20
6.954119356745756
 10
6.467773134702685
 20
6.933065407739563
  0
LWPOLYLINE
  5
FB
100
AcDbEntity
  8
USP-GEO
100
AcDbPolyline
 90
        7
 70
   128
 43
0.0
 10
6.341449440665524
 20
7.713114218419038
 10
6.425665236690299
 20
7.734168167425231
 10
6.551988930727461
 20
7.860491861462394
 10
6.594096828739846
 20
8.049977402518136
 10
6.551988930727461
 20
8.218408994567685
 10
6.425665236690299
 20
8.344732688604846
 10
6.341449440665524
 20
8.386840586617234
  0
LWPOLYLINE
  5
FC
100
AcDbEntity
  8
USP-GEO
100
AcDbPolyline
 90
        8
 70
   128
 43
0.0
 10
6.341449440665524
 20
7.564683877925373
 10
6.341449440665524
 20
7.67100632040665
 10
6.341449440665524
 20
7.818383963450006
 10
6.341449440665524
 20
7.986815555499555
 10
6.236179695634554
 20
7.986815555499555
 10
6.236179695634554
 20
7.818383963450006
 10
6.236179695634554
 20
7.67100632040665
 10
6.236179695634554
 20
7.564683877925373
  0
LWPOLYLINE
  5
FD
100
AcDbEntity
  8
USP-GEO
100
AcDbPolyline
 90
        8
 70
   128
 43
0.0
 10
6.341449440665524
 20
7.290982540844856
 10
6.341449440665524
 20
7.396252285875824
 10
6.341449440665524
 20
7.480468081900598
 10
6.341449440665524
 20
7.564683877925373
 10
6.236179695634554
 20
7.564683877925373
 10
6.236179695634554
 20
7.480468081900598
 10
6.236179695634554
 20
7.396252285875824
 10
6.236179695634554
 20
7.290982540844856
  0
LWPOLYLINE
  5
FE
100
AcDbEntity
  8
USP-GEO
100
AcDbPolyline
 90
        8
 70
   128
 43
0.0
 10
6.341449440665524
 20
8.176301096555297
 10
6.341449440665524
 20
8.344732688604846
 10
6.341449440665524
 20
8.492110331648202
 10
6.341449440665524
 20
8.59738007667917
 10
6.236179695634554
 20
8.59738007667917
 10
6.236179695634554
 20
8.492110331648202
 10
6.236179695634554
 20
8.344732688604846
 10
6.236179695634554
 20
8.176301096555297
  0
LWPOLYLINE
  5
FF
100
AcDbEntity
  8
USP-GEO
100
AcDbPolyline
 90
        4
 70
   128
 43
0.0
 10
6.341449440665524
 20
7.986815555499555
 10
6.341449440665524
 20
8.176301096555297
 10
6.236179695634554
 20
8.176301096555297
 10
6.236179695634554
 20
7.986815555499555
  0
LWPOLYLINE
  5
100
100
AcDbEntity
  8
USP-GEO
100
AcDbPolyline
 90
        2
 70
   128
 43
0.0
 10
6.699366573770817
 20
8.197355045561492
 10
6.888852114826558
 20
8.197355045561492
  0
LWPOLYLINE
  5
101
100
AcDbEntity
  8
USP-GEO
100
AcDbPolyline
 90
        2
 70
   128
 43
0.0
 10
6.888852114826558
 20
8.028923453511943
 10
6.699366573770817
 20
8.028923453511943
  0
LWPOLYLINE
  5
102
100
AcDbEntity
  8
USP-GEO
100
AcDbPolyline
 90
       14
 70
   129
 43
0.0
 10
6.973067910851334
 20
8.113139249536716
 10
6.952013961845139
 20
8.071031351524329
 10
6.930960012838944
 20
8.049977402518136
 10
6.888852114826558
 20
8.028923453511943
 10
6.699366573770817
 20
8.028923453511943
 10
6.657258675758427
 20
8.049977402518136
 10
6.636204726752232
 20
8.071031351524329
 10
6.615150777746041
 20
8.113139249536716
 10
6.636204726752232
 20
8.155247147549104
 10
6.657258675758427
 20
8.197355045561492
 10
6.699366573770817
 20
8.197355045561492
 10
6.888852114826558
 20
8.197355045561492
 10
6.930960012838944
 20
8.197355045561492
 10
6.952013961845139
 20
8.155247147549104
  0
LWPOLYLINE
  5
103
100
AcDbEntity
  8
USP-GEO
100
AcDbPolyline
 90
       17
 70
   128
 43
0.0
 10
6.447771883146803
 20
8.092085300530523
 10
6.44671918569649
 20
8.092085300530523
 10
6.425665236690299
 20
8.049977402518136
 10
6.44671918569649
 20
8.007869504505748
 10
6.467773134702685
 20
7.986815555499555
 10
6.48882708370888
 20
7.965761606493362
 10
6.509881032715071
 20
7.986815555499555
 10
6.530934981721266
 20
8.007869504505748
 10
6.530934981721266
 20
8.049977402518136
 10
6.530934981721266
 20
8.092085300530523
 10
6.509881032715071
 20
8.113139249536716
 10
6.48882708370888
 20
8.134193198542911
 10
6.467773134702685
 20
8.113139249536716
 10
6.44671918569649
 20
8.092085300530523
 10
6.467773134702685
 20
8.049977402518136
 10
6.44671918569649
 20
8.007869504505748
 10
6.44671918569649
 20
7.986815555499555
  0
LWPOLYLINE
  5
104
100
AcDbEntity
  8
USP-GEO
100
AcDbPolyline
 90
       11
 70
   128
 43
0.0
 10
7.457308737993784
 20
5.858261310973379
 10
7.415200839981398
 20
5.837207361967184
 10
7.373092941969012
 20
5.816153412960991
 10
7.330985043956623
 20
5.837207361967184
 10
7.309931094950432
 20
5.858261310973379
 10
7.288877145944237
 20
5.921423157991959
 10
7.309931094950432
 20
5.963531056004347
 10
7.330985043956623
 20
5.98458500501054
 10
7.373092941969012
 20
6.005638954016735
 10
7.415200839981398
 20
5.98458500501054
 10
7.457308737993784
 20
5.963531056004347
  0
LWPOLYLINE
  5
105
100
AcDbEntity
  8
USP-GEO
100
AcDbPolyline
 90
        3
 70
   128
 43
0.0
 10
7.457308737993784
 20
5.963531056004347
 10
7.478362686999979
 20
5.921423157991959
 10
7.457308737993784
 20
5.858261310973379
  0
LWPOLYLINE
  5
106
100
AcDbEntity
  8
USP-GEO
100
AcDbPolyline
 90
       11
 70
   128
 43
0.0
 10
7.457308737993784
 20
6.806741713702402
 10
7.415200839981398
 20
6.785687764696207
 10
7.373092941969012
 20
6.764633815690014
 10
7.330985043956623
 20
6.785687764696207
 10
7.309931094950432
 20
6.806741713702402
 10
7.288877145944237
 20
6.869903560720983
 10
7.309931094950432
 20
6.91201145873337
 10
7.330985043956623
 20
6.933065407739563
 10
7.373092941969012
 20
6.954119356745756
 10
7.415200839981398
 20
6.933065407739563
 10
7.457308737993784
 20
6.91201145873337
  0
LWPOLYLINE
  5
107
100
AcDbEntity
  8
USP-GEO
100
AcDbPolyline
 90
        3
 70
   128
 43
0.0
 10
7.457308737993784
 20
6.91201145873337
 10
7.478362686999979
 20
6.869903560720983
 10
7.457308737993784
 20
6.806741713702402
  0
LWPOLYLINE
  5
108
100
AcDbEntity
  8
USP-GEO
100
AcDbPolyline
 90
       12
 70
   129
 43
0.0
 10
8.047872007617517
 20
5.626667871905249
 10
8.026818058611322
 20
5.68982971892383
 10
8.005764109605131
 20
5.710883667930023
 10
7.963656211592741
 20
5.731937616936217
 10
7.921548313580355
 20
5.710883667930023
 10
7.87944041556797
 20
5.68982971892383
 10
7.858386466561775
 20
5.626667871905249
 10
7.87944041556797
 20
5.584559973892861
 10
7.921548313580355
 20
5.563506024886667
 10
7.963656211592741
 20
5.542452075880474
 10
8.005764109605131
 20
5.563506024886667
 10
8.026818058611322
 20
5.584559973892861
  0
LWPOLYLINE
  5
109
100
AcDbEntity
  8
USP-GEO
100
AcDbPolyline
 90
       12
 70
   129
 43
0.0
 10
8.047872007617517
 20
6.680418019665239
 10
8.026818058611322
 20
6.638310121652853
 10
8.005764109605131
 20
6.596202223640466
 10
7.963656211592741
 20
6.596202223640466
 10
7.921548313580355
 20
6.596202223640466
 10
7.87944041556797
 20
6.638310121652853
 10
7.858386466561775
 20
6.680418019665239
 10
7.87944041556797
 20
6.722525917677627
 10
7.921548313580355
 20
6.764633815690014
 10
7.963656211592741
 20
6.764633815690014
 10
8.005764109605131
 20
6.764633815690014
 10
8.026818058611322
 20
6.722525917677627
  0
LWPOLYLINE
  5
10A
100
AcDbEntity
  8
USP-GEO
100
AcDbPolyline
 90
        2
 70
   128
 43
0.0
 10
7.921548313580355
 20
6.764633815690014
 10
7.963656211592741
 20
6.764633815690014
  0
LWPOLYLINE
  5
10B
100
AcDbEntity
  8
USP-GEO
100
AcDbPolyline
 90
        2
 70
   128
 43
0.0
 10
7.330985043956623
 20
7.818383963450006
 10
7.373092941969012
 20
7.818383963450006
  0
LWPOLYLINE
  5
10C
100
AcDbEntity
  8
USP-GEO
100
AcDbPolyline
 90
       11
 70
   128
 43
0.0
 10
7.457308737993784
 20
7.692060269412845
 10
7.415200839981398
 20
7.649952371400457
 10
7.373092941969012
 20
7.649952371400457
 10
7.330985043956623
 20
7.649952371400457
 10
7.309931094950432
 20
7.692060269412845
 10
7.288877145944237
 20
7.734168167425231
 10
7.309931094950432
 20
7.776276065437619
 10
7.330985043956623
 20
7.818383963450006
 10
7.373092941969012
 20
7.818383963450006
 10
7.415200839981398
 20
7.818383963450006
 10
7.457308737993784
 20
7.776276065437619
  0
LWPOLYLINE
  5
10D
100
AcDbEntity
  8
USP-GEO
100
AcDbPolyline
 90
        3
 70
   128
 43
0.0
 10
7.457308737993784
 20
7.776276065437619
 10
7.478362686999979
 20
7.734168167425231
 10
7.457308737993784
 20
7.692060269412845
  0
LWPOLYLINE
  5
10E
100
AcDbEntity
  8
USP-GEO
100
AcDbPolyline
 90
       12
 70
   129
 43
0.0
 10
8.047872007617517
 20
8.30262479059246
 10
8.026818058611322
 20
8.344732688604846
 10
8.005764109605131
 20
8.365786637611041
 10
7.963656211592741
 20
8.386840586617234
 10
7.921548313580355
 20
8.365786637611041
 10
7.87944041556797
 20
8.344732688604846
 10
7.858386466561775
 20
8.30262479059246
 10
7.87944041556797
 20
8.260516892580072
 10
7.921548313580355
 20
8.218408994567685
 10
7.963656211592741
 20
8.218408994567685
 10
8.005764109605131
 20
8.218408994567685
 10
8.026818058611322
 20
8.260516892580072
  0
LWPOLYLINE
  5
10F
100
AcDbEntity
  8
USP-GEO
100
AcDbPolyline
 90
        2
 70
   128
 43
0.0
 10
7.921548313580355
 20
8.365786637611041
 10
7.963656211592741
 20
8.386840586617234
  0
LWPOLYLINE
  5
110
100
AcDbEntity
  8
USP-GEO
100
AcDbPolyline
 90
        2
 70
   128
 43
0.0
 10
8.46895098774139
 20
3.624437321416234
 10
8.46895098774139
 20
4.425540081101901
  0
LWPOLYLINE
  5
111
100
AcDbEntity
  8
USP-GEO
100
AcDbPolyline
 90
        2
 70
   128
 43
0.0
 10
8.574220732772356
 20
4.741349316194806
 10
8.700544426809521
 20
4.846619061225775
  0
LWPOLYLINE
  5
112
100
AcDbEntity
  8
USP-GEO
100
AcDbPolyline
 90
        2
 70
   128
 43
0.0
 10
8.490004936747585
 20
5.183482245324873
 10
8.532112834759971
 20
5.183482245324873
  0
LWPOLYLINE
  5
113
100
AcDbEntity
  8
USP-GEO
100
AcDbPolyline
 90
       12
 70
   129
 43
0.0
 10
8.616328630784746
 20
5.057158551287711
 10
8.616328630784746
 20
5.099266449300097
 10
8.616328630784746
 20
5.141374347312485
 10
8.574220732772356
 20
5.183482245324873
 10
8.532112834759971
 20
5.183482245324873
 10
8.490004936747585
 20
5.183482245324873
 10
8.447897038735195
 20
5.141374347312485
 10
8.447897038735195
 20
5.099266449300097
 10
8.447897038735195
 20
5.057158551287711
 10
8.490004936747585
 20
5.015050653275324
 10
8.532112834759971
 20
5.015050653275324
 10
8.574220732772356
 20
5.015050653275324
  0
LWPOLYLINE
  5
114
100
AcDbEntity
  8
USP-GEO
100
AcDbPolyline
 90
        2
 70
   128
 43
0.0
 10
8.784760222834293
 20
4.909780908244355
 10
8.826868120846683
 20
4.993996704269129
  0
LWPOLYLINE
  5
115
100
AcDbEntity
  8
USP-GEO
100
AcDbPolyline
 90
        2
 70
   128
 43
0.0
 10
8.847922069852874
 20
5.099266449300097
 10
8.847922069852874
 20
5.416128381843313
  0
LWPOLYLINE
  5
116
100
AcDbEntity
  8
USP-GEO
100
AcDbPolyline
 90
        2
 70
   128
 43
0.0
 10
8.847922069852874
 20
6.975173305751951
 10
8.847922069852874
 20
7.290982540844856
  0
LWPOLYLINE
  5
117
100
AcDbEntity
  8
USP-GEO
100
AcDbPolyline
 90
        2
 70
   128
 43
0.0
 10
8.46895098774139
 20
6.110908699047701
 10
8.46895098774139
 20
6.300394240103445
  0
LWPOLYLINE
  5
118
100
AcDbEntity
  8
USP-GEO
100
AcDbPolyline
 90
       12
 70
   129
 43
0.0
 10
8.616328630784746
 20
6.806741713702402
 10
8.616328630784746
 20
6.84884961171479
 10
8.616328630784746
 20
6.890957509727176
 10
8.574220732772356
 20
6.933065407739563
 10
8.532112834759971
 20
6.954119356745756
 10
8.490004936747585
 20
6.933065407739563
 10
8.447897038735195
 20
6.890957509727176
 10
8.447897038735195
 20
6.84884961171479
 10
8.447897038735195
 20
6.806741713702402
 10
8.490004936747585
 20
6.785687764696207
 10
8.532112834759971
 20
6.764633815690014
 10
8.574220732772356
 20
6.785687764696207
  0
LWPOLYLINE
  5
119
100
AcDbEntity
  8
USP-GEO
100
AcDbPolyline
 90
        2
 70
   128
 43
0.0
 10
8.574220732772356
 20
8.492110331648202
 10
8.700544426809521
 20
8.59738007667917
  0
LWPOLYLINE
  5
11A
100
AcDbEntity
  8
USP-GEO
100
AcDbPolyline
 90
        2
 70
   128
 43
0.0
 10
8.46895098774139
 20
7.986815555499555
 10
8.46895098774139
 20
8.176301096555297
  0
LWPOLYLINE
  5
11B
100
AcDbEntity
  8
USP-GEO
100
AcDbPolyline
 90
       12
 70
   129
 43
0.0
 10
0.9695343517352164
 20
10.41012508611244
 10
0.9484804027290252
 20
10.43117903511863
 10
0.9063725047166357
 20
10.45223298412482
 10
0.8432106576980551
 20
10.43117903511863
 10
0.8221567086918604
 20
10.41012508611244
 10
0.8011027596856692
 20
10.36801718810005
 10
0.8221567086918604
 20
10.32590929008766
 10
0.8432106576980551
 20
10.28380139207528
 10
0.9063725047166357
 20
10.26274744306908
 10
0.9484804027290252
 20
10.28380139207528
 10
0.9695343517352164
 20
10.32590929008766
 10
0.9905883007414111
 20
10.36801718810005
  0
LWPOLYLINE
  5
11C
100
AcDbEntity
  8
USP-GEO
100
AcDbPolyline
 90
        2
 70
   128
 43
0.0
 10
1.51693702589625
 20
9.587968377420581
 10
1.474829127883864
 20
9.587968377420581
  0
LWPOLYLINE
  5
11D
100
AcDbEntity
  8
USP-GEO
100
AcDbPolyline
 90
        8
 70
   128
 43
0.0
 10
1.474829127883864
 20
9.75639996947013
 10
1.51693702589625
 20
9.75639996947013
 10
1.55904492390864
 20
9.714292071457743
 10
1.55904492390864
 20
9.672184173445355
 10
1.55904492390864
 20
9.630076275432969
 10
1.51693702589625
 20
9.587968377420581
 10
1.474829127883864
 20
9.587968377420581
 10
1.432721229871479
 20
9.587968377420581
  0
LWPOLYLINE
  5
11E
100
AcDbEntity
  8
USP-GEO
100
AcDbPolyline
 90
        6
 70
   128
 43
0.0
 10
1.432721229871479
 20
9.587968377420581
 10
1.390613331859089
 20
9.630076275432969
 10
1.390613331859089
 20
9.672184173445355
 10
1.390613331859089
 20
9.714292071457743
 10
1.432721229871479
 20
9.75639996947013
 10
1.474829127883864
 20
9.75639996947013
  0
LWPOLYLINE
  5
11F
100
AcDbEntity
  8
USP-GEO
100
AcDbPolyline
 90
       11
 70
   128
 43
0.0
 10
2.612795071668632
 20
10.59961062716818
 10
2.612795071668632
 20
10.49434088213721
 10
2.612795071668632
 20
10.34696323909386
 10
2.612795071668632
 20
10.17853164704431
 10
2.507525326637662
 20
10.17853164704431
 10
2.507525326637662
 20
10.34696323909386
 10
2.507525326637662
 20
10.49434088213721
 10
2.507525326637662
 20
10.59961062716818
 10
2.507525326637662
 20
10.66277247418676
 10
2.507525326637662
 20
10.76804221921773
 10
2.507525326637662
 20
10.8522580152425
  0
LWPOLYLINE
  5
120
100
AcDbEntity
  8
USP-GEO
100
AcDbPolyline
 90
        7
 70
   128
 43
0.0
 10
2.507525326637662
 20
9.904830309963795
 10
2.444363479619081
 20
9.92588425896999
 10
2.31803978558192
 20
10.05220795300715
 10
2.25382524111303
 20
10.24169349406289
 10
2.31803978558192
 20
10.41012508611244
 10
2.444363479619081
 20
10.5364487801496
 10
2.507525326637662
 20
10.57855667816199
  0
LWPOLYLINE
  5
121
100
AcDbEntity
  8
USP-GEO
100
AcDbPolyline
 90
        2
 70
   128
 43
0.0
 10
2.423309530612886
 20
8.893188060216191
 10
2.507525326637662
 20
8.893188060216191
  0
LWPOLYLINE
  5
122
100
AcDbEntity
  8
USP-GEO
100
AcDbPolyline
 90
       14
 70
   128
 43
0.0
 10
1.938016006020124
 20
10.13642374903192
 10
1.980123904032513
 20
10.15747769803811
 10
2.14855549608206
 20
10.15747769803811
 10
2.190663394094446
 20
10.13642374903192
 10
2.211717343100641
 20
10.09431585101953
 10
2.232771292106836
 20
10.05220795300715
 10
2.211717343100641
 20
10.01010005499476
 10
2.190663394094446
 20
9.98904610598857
 10
2.14855549608206
 20
9.967992156982376
 10
1.980123904032513
 20
9.967992156982376
 10
1.938016006020124
 20
9.98904610598857
 10
1.895908108007738
 20
10.01010005499476
 10
1.895908108007738
 20
10.05220795300715
 10
1.895908108007738
 20
10.09431585101953
  0
LWPOLYLINE
  5
123
100
AcDbEntity
  8
USP-GEO
100
AcDbPolyline
 90
        2
 70
   128
 43
0.0
 10
1.980123904032513
 20
10.15747769803811
 10
2.14855549608206
 20
10.15747769803811
  0
LWPOLYLINE
  5
124
100
AcDbEntity
  8
USP-GEO
100
AcDbPolyline
 90
        2
 70
   128
 43
0.0
 10
2.14855549608206
 20
9.967992156982376
 10
1.980123904032513
 20
9.967992156982376
  0
LWPOLYLINE
  5
125
100
AcDbEntity
  8
USP-GEO
100
AcDbPolyline
 90
        2
 70
   128
 43
0.0
 10
1.895908108007738
 20
10.09431585101953
 10
1.938016006020124
 20
10.13642374903192
  0
LWPOLYLINE
  5
126
100
AcDbEntity
  8
USP-GEO
100
AcDbPolyline
 90
       12
 70
   129
 43
0.0
 10
2.402255581606695
 20
10.30485534108147
 10
2.423309530612886
 20
10.28380139207528
 10
2.423309530612886
 20
10.24169349406289
 10
2.423309530612886
 20
10.1995855960505
 10
2.402255581606695
 20
10.17853164704431
 10
2.360147683594306
 20
10.15747769803811
 10
2.339093734588114
 20
10.17853164704431
 10
2.31803978558192
 20
10.1995855960505
 10
2.31803978558192
 20
10.24169349406289
 10
2.31803978558192
 20
10.28380139207528
 10
2.339093734588114
 20
10.30485534108147
 10
2.360147683594306
 20
10.30485534108147
  0
LWPOLYLINE
  5
127
100
AcDbEntity
  8
USP-GEO
100
AcDbPolyline
 90
        2
 70
   128
 43
0.0
 10
2.211717343100641
 20
10.01010005499476
 10
2.190663394094446
 20
9.98904610598857
  0
LWPOLYLINE
  5
128
100
AcDbEntity
  8
USP-GEO
100
AcDbPolyline
 90
        5
 70
   128
 43
0.0
 10
2.403308279057004
 20
10.28380139207528
 10
2.402255581606695
 20
10.28380139207528
 10
2.402255581606695
 20
10.24169349406289
 10
2.402255581606695
 20
10.1995855960505
 10
2.402255581606695
 20
10.17853164704431
  0
LWPOLYLINE
  5
129
100
AcDbEntity
  8
USP-GEO
100
AcDbPolyline
 90
        8
 70
   128
 43
0.0
 10
2.612795071668632
 20
9.566914428414387
 10
2.612795071668632
 20
9.482698632389613
 10
2.612795071668632
 20
9.398482836364838
 10
2.612795071668632
 20
9.293213091333869
 10
2.507525326637662
 20
9.293213091333869
 10
2.507525326637662
 20
9.398482836364838
 10
2.507525326637662
 20
9.482698632389613
 10
2.507525326637662
 20
9.566914428414387
  0
LWPOLYLINE
  5
12A
100
AcDbEntity
  8
USP-GEO
100
AcDbPolyline
 90
        4
 70
   128
 43
0.0
 10
2.507525326637662
 20
9.293213091333869
 10
2.507525326637662
 20
8.851080162203803
 10
2.612795071668632
 20
8.851080162203803
 10
2.612795071668632
 20
9.293213091333869
  0
LWPOLYLINE
  5
12B
100
AcDbEntity
  8
USP-GEO
100
AcDbPolyline
 90
       10
 70
   128
 43
0.0
 10
2.507525326637662
 20
10.17853164704431
 10
2.507525326637662
 20
9.98904610598857
 10
2.507525326637662
 20
9.819561816488711
 10
2.507525326637662
 20
9.672184173445355
 10
2.507525326637662
 20
9.566914428414387
 10
2.612795071668632
 20
9.566914428414387
 10
2.612795071668632
 20
9.672184173445355
 10
2.612795071668632
 20
9.819561816488711
 10
2.612795071668632
 20
9.98904610598857
 10
2.612795071668632
 20
10.17853164704431
  0
LWPOLYLINE
  5
12C
100
AcDbEntity
  8
USP-GEO
100
AcDbPolyline
 90
        2
 70
   128
 43
0.0
 10
2.612795071668632
 20
9.98904610598857
 10
2.507525326637662
 20
9.98904610598857
  0
LWPOLYLINE
  5
12D
100
AcDbEntity
  8
USP-GEO
100
AcDbPolyline
 90
        2
 70
   128
 43
0.0
 10
2.423309530612886
 20
10.89436591325489
 10
2.507525326637662
 20
10.89436591325489
  0
LWPOLYLINE
  5
12E
100
AcDbEntity
  8
USP-GEO
100
AcDbPolyline
 90
        8
 70
   128
 43
0.0
 10
2.423309530612886
 20
10.70488037219915
 10
2.3812016326005
 20
10.72593432120534
 10
2.360147683594306
 20
10.74698827021154
 10
2.339093734588114
 20
10.78909616822392
 10
2.360147683594306
 20
10.8522580152425
 10
2.3812016326005
 20
10.8733119642487
 10
2.423309530612886
 20
10.89436591325489
 10
2.507525326637662
 20
10.89436591325489
  0
LWPOLYLINE
  5
12F
100
AcDbEntity
  8
USP-GEO
100
AcDbPolyline
 90
        2
 70
   129
 43
0.0
 10
2.423309530612886
 20
10.70488037219915
 10
2.507525326637662
 20
10.70488037219915
  0
LWPOLYLINE
  5
130
100
AcDbEntity
  8
USP-GEO
100
AcDbPolyline
 90
        5
 70
   128
 43
0.0
 10
2.612795071668632
 20
10.8522580152425
 10
2.612795071668632
 20
10.76804221921773
 10
2.612795071668632
 20
10.66277247418676
 10
2.612795071668632
 20
10.59961062716818
 10
2.507525326637662
 20
10.59961062716818
  0
LWPOLYLINE
  5
131
100
AcDbEntity
  8
USP-GEO
100
AcDbPolyline
 90
        4
 70
   129
 43
0.0
 10
2.612795071668632
 20
11.16911994778572
 10
2.507525326637662
 20
11.16911994778572
 10
2.507525326637662
 20
10.8522580152425
 10
2.612795071668632
 20
10.8522580152425
  0
LWPOLYLINE
  5
132
100
AcDbEntity
  8
USP-GEO
100
AcDbPolyline
 90
        2
 70
   128
 43
0.0
 10
8.847922069852874
 20
11.16911994778572
 10
6.341449440665524
 20
11.16911994778572
  0
LWPOLYLINE
  5
133
100
AcDbEntity
  8
USP-GEO
100
AcDbPolyline
 90
        8
 70
   128
 43
0.0
 10
6.341449440665524
 20
10.17853164704431
 10
6.341449440665524
 20
10.34696323909386
 10
6.341449440665524
 20
10.49434088213721
 10
6.341449440665524
 20
10.59961062716818
 10
6.236179695634554
 20
10.59961062716818
 10
6.236179695634554
 20
10.49434088213721
 10
6.236179695634554
 20
10.34696323909386
 10
6.236179695634554
 20
10.17853164704431
  0
LWPOLYLINE
  5
134
100
AcDbEntity
  8
USP-GEO
100
AcDbPolyline
 90
        7
 70
   128
 43
0.0
 10
6.341449440665524
 20
10.38907113710624
 10
6.425665236690299
 20
10.34696323909386
 10
6.551988930727461
 20
10.2206395450567
 10
6.594096828739846
 20
10.05220795300715
 10
6.551988930727461
 20
9.862722411951407
 10
6.425665236690299
 20
9.735346020463936
 10
6.341449440665524
 20
9.714292071457743
  0
LWPOLYLINE
  5
135
100
AcDbEntity
  8
USP-GEO
100
AcDbPolyline
 90
        2
 70
   128
 43
0.0
 10
6.425665236690299
 20
8.76686436617903
 10
6.341449440665524
 20
8.76686436617903
  0
LWPOLYLINE
  5
136
100
AcDbEntity
  8
USP-GEO
100
AcDbPolyline
 90
        9
 70
   128
 43
0.0
 10
6.341449440665524
 20
8.956349907234772
 10
6.425665236690299
 20
8.956349907234772
 10
6.467773134702685
 20
8.935295958228579
 10
6.509881032715071
 20
8.893188060216191
 10
6.509881032715071
 20
8.851080162203803
 10
6.509881032715071
 20
8.808972264191417
 10
6.467773134702685
 20
8.787918315185223
 10
6.425665236690299
 20
8.76686436617903
 10
6.341449440665524
 20
8.76686436617903
  0
LWPOLYLINE
  5
137
100
AcDbEntity
  8
USP-GEO
100
AcDbPolyline
 90
        2
 70
   128
 43
0.0
 10
6.341449440665524
 20
8.956349907234772
 10
6.425665236690299
 20
8.956349907234772
  0
LWPOLYLINE
  5
138
100
AcDbEntity
  8
USP-GEO
100
AcDbPolyline
 90
        8
 70
   128
 43
0.0
 10
6.341449440665524
 20
9.293213091333869
 10
6.341449440665524
 20
9.398482836364838
 10
6.341449440665524
 20
9.482698632389613
 10
6.341449440665524
 20
9.566914428414387
 10
6.236179695634554
 20
9.566914428414387
 10
6.236179695634554
 20
9.482698632389613
 10
6.236179695634554
 20
9.398482836364838
 10
6.236179695634554
 20
9.293213091333869
  0
LWPOLYLINE
  5
139
100
AcDbEntity
  8
USP-GEO
100
AcDbPolyline
 90
        4
 70
   128
 43
0.0
 10
6.341449440665524
 20
8.851080162203803
 10
6.341449440665524
 20
9.293213091333869
 10
6.236179695634554
 20
9.293213091333869
 10
6.236179695634554
 20
8.851080162203803
  0
LWPOLYLINE
  5
13A
100
AcDbEntity
  8
USP-GEO
100
AcDbPolyline
 90
        8
 70
   128
 43
0.0
 10
6.341449440665524
 20
9.566914428414387
 10
6.341449440665524
 20
9.672184173445355
 10
6.341449440665524
 20
9.819561816488711
 10
6.341449440665524
 20
9.98904610598857
 10
6.236179695634554
 20
9.98904610598857
 10
6.236179695634554
 20
9.819561816488711
 10
6.236179695634554
 20
9.672184173445355
 10
6.236179695634554
 20
9.566914428414387
  0
LWPOLYLINE
  5
13B
100
AcDbEntity
  8
USP-GEO
100
AcDbPolyline
 90
        4
 70
   128
 43
0.0
 10
6.341449440665524
 20
9.98904610598857
 10
6.341449440665524
 20
10.17853164704431
 10
6.236179695634554
 20
10.17853164704431
 10
6.236179695634554
 20
9.98904610598857
  0
LWPOLYLINE
  5
13C
100
AcDbEntity
  8
USP-GEO
100
AcDbPolyline
 90
        2
 70
   128
 43
0.0
 10
6.509881032715071
 20
8.893188060216191
 10
6.509881032715071
 20
8.851080162203803
  0
LWPOLYLINE
  5
13D
100
AcDbEntity
  8
USP-GEO
100
AcDbPolyline
 90
        3
 70
   128
 43
0.0
 10
6.699366573770817
 20
10.1995855960505
 10
6.888852114826558
 20
10.1995855960505
 10
6.930960012838944
 20
10.1995855960505
  0
LWPOLYLINE
  5
13E
100
AcDbEntity
  8
USP-GEO
100
AcDbPolyline
 90
        2
 70
   128
 43
0.0
 10
6.888852114826558
 20
10.03115400400095
 10
6.699366573770817
 20
10.03115400400095
  0
LWPOLYLINE
  5
13F
100
AcDbEntity
  8
USP-GEO
100
AcDbPolyline
 90
       14
 70
   129
 43
0.0
 10
6.952013961845139
 20
10.07326190201334
 10
6.930960012838944
 20
10.05220795300715
 10
6.888852114826558
 20
10.03115400400095
 10
6.699366573770817
 20
10.03115400400095
 10
6.657258675758427
 20
10.05220795300715
 10
6.636204726752232
 20
10.07326190201334
 10
6.615150777746041
 20
10.11536980002573
 10
6.636204726752232
 20
10.15747769803811
 10
6.657258675758427
 20
10.1995855960505
 10
6.699366573770817
 20
10.1995855960505
 10
6.888852114826558
 20
10.1995855960505
 10
6.930960012838944
 20
10.1995855960505
 10
6.952013961845139
 20
10.15747769803811
 10
6.973067910851334
 20
10.11536980002573
  0
LWPOLYLINE
  5
140
100
AcDbEntity
  8
USP-GEO
100
AcDbPolyline
 90
        5
 70
   128
 43
0.0
 10
6.44671918569649
 20
9.98904610598857
 10
6.44671918569649
 20
10.01010005499476
 10
6.425665236690299
 20
10.05220795300715
 10
6.44671918569649
 20
10.09431585101953
 10
6.447771883146803
 20
10.09431585101953
  0
LWPOLYLINE
  5
141
100
AcDbEntity
  8
USP-GEO
100
AcDbPolyline
 90
       12
 70
   129
 43
0.0
 10
6.467773134702685
 20
10.05220795300715
 10
6.44671918569649
 20
10.09431585101953
 10
6.467773134702685
 20
10.11536980002573
 10
6.48882708370888
 20
10.13642374903192
 10
6.509881032715071
 20
10.11536980002573
 10
6.530934981721266
 20
10.09431585101953
 10
6.530934981721266
 20
10.05220795300715
 10
6.530934981721266
 20
10.01010005499476
 10
6.509881032715071
 20
9.98904610598857
 10
6.48882708370888
 20
9.967992156982376
 10
6.467773134702685
 20
9.98904610598857
 10
6.44671918569649
 20
10.01010005499476
  0
LWPOLYLINE
  5
142
100
AcDbEntity
  8
USP-GEO
100
AcDbPolyline
 90
        2
 70
   128
 43
0.0
 10
6.425665236690299
 20
10.76804221921773
 10
6.341449440665524
 20
10.76804221921773
  0
LWPOLYLINE
  5
143
100
AcDbEntity
  8
USP-GEO
100
AcDbPolyline
 90
        9
 70
   128
 43
0.0
 10
6.341449440665524
 20
10.95858045772378
 10
6.425665236690299
 20
10.95858045772378
 10
6.467773134702685
 20
10.93647381126728
 10
6.509881032715071
 20
10.89436591325489
 10
6.509881032715071
 20
10.8522580152425
 10
6.509881032715071
 20
10.81015011723012
 10
6.467773134702685
 20
10.78909616822392
 10
6.425665236690299
 20
10.76804221921773
 10
6.341449440665524
 20
10.76804221921773
  0
LWPOLYLINE
  5
144
100
AcDbEntity
  8
USP-GEO
100
AcDbPolyline
 90
        2
 70
   128
 43
0.0
 10
6.341449440665524
 20
10.95858045772378
 10
6.425665236690299
 20
10.95858045772378
  0
LWPOLYLINE
  5
145
100
AcDbEntity
  8
USP-GEO
100
AcDbPolyline
 90
        7
 70
   128
 43
0.0
 10
6.341449440665524
 20
10.66277247418676
 10
6.341449440665524
 20
10.76804221921773
 10
6.341449440665524
 20
10.8522580152425
 10
6.236179695634554
 20
10.8522580152425
 10
6.236179695634554
 20
10.76804221921773
 10
6.236179695634554
 20
10.66277247418676
 10
6.236179695634554
 20
10.59961062716818
  0
LWPOLYLINE
  5
146
100
AcDbEntity
  8
USP-GEO
100
AcDbPolyline
 90
        2
 70
   128
 43
0.0
 10
6.341449440665524
 20
10.59961062716818
 10
6.341449440665524
 20
10.66277247418676
  0
LWPOLYLINE
  5
147
100
AcDbEntity
  8
USP-GEO
100
AcDbPolyline
 90
        4
 70
   128
 43
0.0
 10
6.341449440665524
 20
10.8522580152425
 10
6.341449440665524
 20
11.16911994778572
 10
6.236179695634554
 20
11.16911994778572
 10
6.236179695634554
 20
10.8522580152425
  0
LWPOLYLINE
  5
148
100
AcDbEntity
  8
USP-GEO
100
AcDbPolyline
 90
        2
 70
   128
 43
0.0
 10
7.921548313580355
 20
10.36801718810005
 10
7.963656211592741
 20
10.38907113710624
  0
LWPOLYLINE
  5
149
100
AcDbEntity
  8
USP-GEO
100
AcDbPolyline
 90
       12
 70
   128
 43
0.0
 10
7.921548313580355
 20
10.36801718810005
 10
7.963656211592741
 20
10.38907113710624
 10
8.005764109605131
 20
10.36801718810005
 10
8.026818058611322
 20
10.34696323909386
 10
8.047872007617517
 20
10.30485534108147
 10
8.026818058611322
 20
10.26274744306908
 10
8.005764109605131
 20
10.2206395450567
 10
7.963656211592741
 20
10.2206395450567
 10
7.921548313580355
 20
10.2206395450567
 10
7.87944041556797
 20
10.26274744306908
 10
7.858386466561775
 20
10.30485534108147
 10
7.87944041556797
 20
10.34696323909386
  0
LWPOLYLINE
  5
14A
100
AcDbEntity
  8
USP-GEO
100
AcDbPolyline
 90
       10
 70
   128
 43
0.0
 10
7.457308737993784
 20
9.69323812245155
 10
7.415200839981398
 20
9.651130224439162
 10
7.373092941969012
 20
9.651130224439162
 10
7.330985043956623
 20
9.651130224439162
 10
7.309931094950432
 20
9.69323812245155
 10
7.288877145944237
 20
9.735346020463936
 10
7.309931094950432
 20
9.777453918476323
 10
7.330985043956623
 20
9.819561816488711
 10
7.373092941969012
 20
9.819561816488711
 10
7.415200839981398
 20
9.819561816488711
  0
LWPOLYLINE
  5
14B
100
AcDbEntity
  8
USP-GEO
100
AcDbPolyline
 90
        2
 70
   128
 43
0.0
 10
7.457308737993784
 20
9.777453918476323
 10
7.478362686999979
 20
9.735346020463936
  0
LWPOLYLINE
  5
14C
100
AcDbEntity
  8
USP-GEO
100
AcDbPolyline
 90
        4
 70
   128
 43
0.0
 10
7.415200839981398
 20
9.819561816488711
 10
7.457308737993784
 20
9.777453918476323
 10
7.478362686999979
 20
9.735346020463936
 10
7.457308737993784
 20
9.69323812245155
  0
LWPOLYLINE
  5
14D
100
AcDbEntity
  8
USP-GEO
100
AcDbPolyline
 90
        2
 70
   128
 43
0.0
 10
7.87944041556797
 20
10.34696323909386
 10
7.921548313580355
 20
10.36801718810005
  0
LWPOLYLINE
  5
14E
100
AcDbEntity
  8
USP-GEO
100
AcDbPolyline
 90
       12
 70
   129
 43
0.0
 10
8.616328630784746
 20
8.893188060216191
 10
8.574220732772356
 20
8.935295958228579
 10
8.532112834759971
 20
8.956349907234772
 10
8.490004936747585
 20
8.935295958228579
 10
8.447897038735195
 20
8.893188060216191
 10
8.447897038735195
 20
8.851080162203803
 10
8.447897038735195
 20
8.808972264191417
 10
8.490004936747585
 20
8.787918315185223
 10
8.532112834759971
 20
8.76686436617903
 10
8.574220732772356
 20
8.787918315185223
 10
8.616328630784746
 20
8.808972264191417
 10
8.616328630784746
 20
8.851080162203803
  0
LWPOLYLINE
  5
14F
100
AcDbEntity
  8
USP-GEO
100
AcDbPolyline
 90
        2
 70
   128
 43
0.0
 10
8.847922069852874
 20
8.851080162203803
 10
8.847922069852874
 20
9.293213091333869
  0
LWPOLYLINE
  5
150
100
AcDbEntity
  8
USP-GEO
100
AcDbPolyline
 90
        2
 70
   128
 43
0.0
 10
8.46895098774139
 20
9.98904610598857
 10
8.46895098774139
 20
10.17853164704431
  0
LWPOLYLINE
  5
151
100
AcDbEntity
  8
USP-GEO
100
AcDbPolyline
 90
       12
 70
   128
 43
0.0
 10
8.490004936747585
 20
10.93647381126728
 10
8.532112834759971
 20
10.95858045772378
 10
8.574220732772356
 20
10.93647381126728
 10
8.616328630784746
 20
10.89436591325489
 10
8.616328630784746
 20
10.8522580152425
 10
8.616328630784746
 20
10.81015011723012
 10
8.574220732772356
 20
10.78909616822392
 10
8.532112834759971
 20
10.76804221921773
 10
8.490004936747585
 20
10.78909616822392
 10
8.447897038735195
 20
10.81015011723012
 10
8.447897038735195
 20
10.8522580152425
 10
8.447897038735195
 20
10.89436591325489
  0
LWPOLYLINE
  5
152
100
AcDbEntity
  8
USP-GEO
100
AcDbPolyline
 90
        2
 70
   128
 43
0.0
 10
8.447897038735195
 20
10.89436591325489
 10
8.490004936747585
 20
10.93647381126728
  0
LWPOLYLINE
  5
153
100
AcDbEntity
  8
USP-GEO
100
AcDbPolyline
 90
        2
 70
   128
 43
0.0
 10
8.616328630784746
 20
10.8522580152425
 10
8.616328630784746
 20
10.81015011723012
  0
ENDBLK
  5
155
100
AcDbEntity
  8
0
100
AcDbBlockEnd
  0
BLOCK
  5
1C6
100
AcDbEntity
  8
0
100
AcDbBlockBegin
  2
THDH412_S
 70
     0
 10
0.0
 20
0.0
 30
0.0
  3
THDH412_S
  1

  0
LWPOLYLINE
  5
158
100
AcDbEntity
  8
USP-GEO
100
AcDbPolyline
 90
        7
 70
   128
 43
0.0
 10
0.1894855410557419
 20
8.702649821710139
 10
0.2315934390681296
 20
8.724756468166642
 10
0.2737013370805172
 20
8.745810417172835
 10
0.2737013370805172
 20
8.787918315185223
 10
0.2737013370805172
 20
8.851080162203803
 10
0.2315934390681296
 20
8.872134111209998
 10
0.1894855410557419
 20
8.893188060216191
  0
LWPOLYLINE
  5
159
100
AcDbEntity
  8
USP-GEO
100
AcDbPolyline
 90
      119
 70
   128
 43
0.0
 10
0.2315934390681296
 20
0.1052697450309665
 10
0.2315934390681296
 20
0.0
 10
4.233949145145539
 20
0.0
 10
4.233949145145539
 20
0.1052697450309665
 10
4.212895196139346
 20
0.294755286086712
 10
4.12867940011457
 20
0.4631868781362592
 10
4.023409655083602
 20
0.6105645211796152
 10
2.507525326637662
 20
2.27593188756953
 10
2.211717343100641
 20
2.675956918687209
 10
2.04328575105109
 20
3.14019649427378
 10
1.98012390403251
 20
3.624437321416234
 10
1.98012390403251
 20
4.425540081101901
 10
1.959069955026317
 20
4.59397167315145
 10
1.874854159001541
 20
4.741349316194806
 10
1.74853046496438
 20
4.846619061225775
 10
1.664314668939606
 20
4.909780908244355
 10
1.622206770927219
 20
4.993996704269129
 10
1.601152821921024
 20
5.099266449300097
 10
1.601152821921024
 20
5.416128381843313
 10
1.622206770927219
 20
5.521398126874281
 10
1.664314668939606
 20
5.605613922899054
 10
1.74853046496438
 20
5.68982971892383
 10
1.874854159001541
 20
5.795099463954798
 10
1.959069955026317
 20
5.942477106998152
 10
1.98012390403251
 20
6.110908699047701
 10
1.98012390403251
 20
6.300394240103445
 10
1.959069955026317
 20
6.468825832152994
 10
1.874854159001541
 20
6.617256172646658
 10
1.74853046496438
 20
6.722525917677627
 10
1.664314668939606
 20
6.785687764696207
 10
1.622206770927219
 20
6.890957509727176
 10
1.601152821921024
 20
6.975173305751951
 10
1.601152821921024
 20
7.290982540844856
 10
1.622206770927219
 20
7.396252285875824
 10
1.664314668939606
 20
7.480468081900598
 10
1.74853046496438
 20
7.564683877925373
 10
1.874854159001541
 20
7.67100632040665
 10
1.959069955026317
 20
7.818383963450006
 10
1.98012390403251
 20
7.986815555499555
 10
1.98012390403251
 20
8.176301096555297
 10
1.959069955026317
 20
8.344732688604846
 10
1.874854159001541
 20
8.492110331648202
 10
1.74853046496438
 20
8.59738007667917
 10
1.664314668939606
 20
8.660541923697751
 10
1.622206770927219
 20
8.76686436617903
 10
1.601152821921024
 20
8.851080162203803
 10
1.601152821921024
 20
9.293213091333869
 10
1.622206770927219
 20
9.398482836364838
 10
1.664314668939606
 20
9.482698632389613
 10
1.74853046496438
 20
9.566914428414387
 10
1.874854159001541
 20
9.672184173445355
 10
1.959069955026317
 20
9.819561816488711
 10
1.98012390403251
 20
9.98904610598857
 10
1.98012390403251
 20
10.17853164704431
 10
1.959069955026317
 20
10.34696323909386
 10
1.874854159001541
 20
10.49434088213721
 10
1.74853046496438
 20
10.59961062716818
 10
1.664314668939606
 20
10.66277247418676
 10
1.622206770927219
 20
10.76804221921773
 10
1.601152821921024
 20
10.8522580152425
 10
1.601152821921024
 20
11.16911994778572
 10
0.1052697450309665
 20
11.16911994778572
 10
0.1052697450309665
 20
10.8522580152425
 10
0.1052697450309665
 20
10.76804221921773
 10
0.1052697450309665
 20
10.66277247418676
 10
0.1052697450309665
 20
10.59961062716818
 10
0.1052697450309665
 20
10.49434088213721
 10
0.1052697450309665
 20
10.34696323909386
 10
0.1052697450309665
 20
10.17853164704431
 10
0.1052697450309665
 20
9.98904610598857
 10
0.1052697450309665
 20
9.819561816488711
 10
0.1052697450309665
 20
9.672184173445355
 10
0.1052697450309665
 20
9.566914428414387
 10
0.1052697450309665
 20
9.482698632389613
 10
0.1052697450309665
 20
9.398482836364838
 10
0.1052697450309665
 20
9.293213091333869
 10
0.1052697450309665
 20
8.851080162203803
 10
0.1052697450309665
 20
8.76686436617903
 10
0.1052697450309665
 20
8.660541923697751
 10
0.1052697450309665
 20
8.59738007667917
 10
0.1052697450309665
 20
8.492110331648202
 10
0.1052697450309665
 20
8.344732688604846
 10
0.1052697450309665
 20
8.176301096555297
 10
0.1052697450309665
 20
7.986815555499555
 10
0.1052697450309665
 20
7.818383963450006
 10
0.1052697450309665
 20
7.67100632040665
 10
0.1052697450309665
 20
7.564683877925373
 10
0.1052697450309665
 20
7.480468081900598
 10
0.1052697450309665
 20
7.396252285875824
 10
0.1052697450309665
 20
7.290982540844856
 10
0.1052697450309665
 20
6.975173305751951
 10
0.1052697450309665
 20
6.890957509727176
 10
0.1052697450309665
 20
6.785687764696207
 10
0.1052697450309665
 20
6.722525917677627
 10
0.1052697450309665
 20
6.617256172646658
 10
0.1052697450309665
 20
6.468825832152994
 10
0.1052697450309665
 20
6.300394240103445
 10
0.1052697450309665
 20
6.110908699047701
 10
0.1052697450309665
 20
5.942477106998152
 10
0.1052697450309665
 20
5.795099463954798
 10
0.1052697450309665
 20
5.68982971892383
 10
0.1052697450309665
 20
5.605613922899054
 10
0.1052697450309665
 20
5.521398126874281
 10
0.1052697450309665
 20
5.416128381843313
 10
0.1052697450309665
 20
5.099266449300097
 10
0.1052697450309665
 20
4.993996704269129
 10
0.1052697450309665
 20
4.909780908244355
 10
0.1052697450309665
 20
4.846619061225775
 10
0.1052697450309665
 20
4.741349316194806
 10
0.1052697450309665
 20
4.59397167315145
 10
0.1052697450309665
 20
4.425540081101901
 10
0.1052697450309665
 20
3.624437321416234
 10
0.1052697450309665
 20
3.14019649427378
 10
0.1052697450309665
 20
2.675956918687209
 10
0.1052697450309665
 20
2.27593188756953
 10
0.1052697450309665
 20
0.6105645211796152
 10
0.1052697450309665
 20
0.5895105721734204
 10
0.1052697450309665
 20
0.5474026741610345
 10
0.1052697450309665
 20
0.5052947761486486
  0
LWPOLYLINE
  5
15A
100
AcDbEntity
  8
USP-GEO
100
AcDbPolyline
 90
        6
 70
   128
 43
0.0
 10
0.1052697450309665
 20
8.851080162203803
 10
0.0
 20
8.851080162203803
 10
0.0
 20
8.76686436617903
 10
0.0
 20
8.660541923697751
 10
0.0
 20
8.59738007667917
 10
0.1052697450309665
 20
8.59738007667917
  0
LWPOLYLINE
  5
15B
100
AcDbEntity
  8
USP-GEO
100
AcDbPolyline
 90
      128
 70
   128
 43
0.0
 10
0.0
 20
0.6105645211796152
 10
0.0
 20
0.5895105721734204
 10
0.0
 20
0.5474026741610345
 10
0.0
 20
0.5052947761486486
 10
0.1052697450309665
 20
0.5052947761486486
 10
0.1052697450309665
 20
0.5474026741610345
 10
0.1052697450309665
 20
0.5895105721734204
 10
0.1052697450309665
 20
0.6105645211796152
 10
0.1052697450309665
 20
2.27593188756953
 10
0.1052697450309665
 20
2.675956918687209
 10
0.1052697450309665
 20
3.14019649427378
 10
0.1052697450309665
 20
3.624437321416234
 10
0.1052697450309665
 20
4.425540081101901
 10
0.1052697450309665
 20
4.59397167315145
 10
0.1052697450309665
 20
4.741349316194806
 10
0.1052697450309665
 20
4.846619061225775
 10
0.1052697450309665
 20
4.909780908244355
 10
0.1052697450309665
 20
4.993996704269129
 10
0.1052697450309665
 20
5.099266449300097
 10
0.1052697450309665
 20
5.416128381843313
 10
0.1052697450309665
 20
5.521398126874281
 10
0.1052697450309665
 20
5.605613922899054
 10
0.1052697450309665
 20
5.68982971892383
 10
0.1052697450309665
 20
5.795099463954798
 10
0.1052697450309665
 20
5.942477106998152
 10
0.1052697450309665
 20
6.110908699047701
 10
0.1052697450309665
 20
6.300394240103445
 10
0.1052697450309665
 20
6.468825832152994
 10
0.1052697450309665
 20
6.617256172646658
 10
0.1052697450309665
 20
6.722525917677627
 10
0.1052697450309665
 20
6.785687764696207
 10
0.1052697450309665
 20
6.890957509727176
 10
0.1052697450309665
 20
6.975173305751951
 10
0.1052697450309665
 20
7.290982540844856
 10
0.1052697450309665
 20
7.396252285875824
 10
0.1052697450309665
 20
7.480468081900598
 10
0.1052697450309665
 20
7.564683877925373
 10
0.1052697450309665
 20
7.67100632040665
 10
0.1052697450309665
 20
7.818383963450006
 10
0.1052697450309665
 20
7.986815555499555
 10
0.1052697450309665
 20
8.176301096555297
 10
0.1052697450309665
 20
8.344732688604846
 10
0.1052697450309665
 20
8.492110331648202
 10
0.1052697450309665
 20
8.59738007667917
 10
0.1052697450309665
 20
8.660541923697751
 10
0.1052697450309665
 20
8.76686436617903
 10
0.1052697450309665
 20
8.851080162203803
 10
0.1052697450309665
 20
9.293213091333869
 10
0.1052697450309665
 20
9.398482836364838
 10
0.1052697450309665
 20
9.482698632389613
 10
0.1052697450309665
 20
9.566914428414387
 10
0.1052697450309665
 20
9.672184173445355
 10
0.1052697450309665
 20
9.819561816488711
 10
0.1052697450309665
 20
9.98904610598857
 10
0.1052697450309665
 20
10.17853164704431
 10
0.1052697450309665
 20
10.34696323909386
 10
0.1052697450309665
 20
10.49434088213721
 10
0.1052697450309665
 20
10.59961062716818
 10
0.1052697450309665
 20
10.66277247418676
 10
0.1052697450309665
 20
10.76804221921773
 10
0.1052697450309665
 20
10.8522580152425
 10
0.1052697450309665
 20
11.16911994778572
 10
0.0
 20
11.16911994778572
 10
0.0
 20
10.8522580152425
 10
0.0
 20
10.76804221921773
 10
0.0
 20
10.66277247418676
 10
0.0
 20
10.59961062716818
 10
0.0
 20
10.49434088213721
 10
0.0
 20
10.34696323909386
 10
0.0
 20
10.17853164704431
 10
0.0
 20
9.98904610598857
 10
0.0
 20
9.819561816488711
 10
0.0
 20
9.672184173445355
 10
0.0
 20
9.566914428414387
 10
0.0
 20
9.482698632389613
 10
0.0
 20
9.398482836364838
 10
0.0
 20
9.293213091333869
 10
0.0
 20
8.851080162203803
 10
0.0
 20
8.76686436617903
 10
0.0
 20
8.660541923697751
 10
0.0
 20
8.59738007667917
 10
0.0
 20
8.492110331648202
 10
0.0
 20
8.344732688604846
 10
0.0
 20
8.176301096555297
 10
0.0
 20
7.986815555499555
 10
0.0
 20
7.818383963450006
 10
0.0
 20
7.67100632040665
 10
0.0
 20
7.564683877925373
 10
0.0
 20
7.480468081900598
 10
0.0
 20
7.396252285875824
 10
0.0
 20
7.290982540844856
 10
0.0
 20
6.975173305751951
 10
0.0
 20
6.890957509727176
 10
0.0
 20
6.785687764696207
 10
0.0
 20
6.722525917677627
 10
0.0
 20
6.617256172646658
 10
0.0
 20
6.468825832152994
 10
0.0
 20
6.300394240103445
 10
0.0
 20
6.110908699047701
 10
0.0
 20
5.942477106998152
 10
0.0
 20
5.795099463954798
 10
0.0
 20
5.68982971892383
 10
0.0
 20
5.605613922899054
 10
0.0
 20
5.521398126874281
 10
0.0
 20
5.416128381843313
 10
0.0
 20
5.099266449300097
 10
0.0
 20
4.993996704269129
 10
0.0
 20
4.909780908244355
 10
0.0
 20
4.846619061225775
 10
0.0
 20
4.741349316194806
 10
0.0
 20
4.59397167315145
 10
0.0
 20
4.425540081101901
 10
0.0
 20
3.624437321416234
 10
0.0
 20
3.14019649427378
 10
0.0
 20
2.675956918687209
 10
0.0
 20
2.27593188756953
 10
0.0
 20
0.6105645211796152
 10
0.0
 20
0.5895105721734204
 10
0.0
 20
0.5474026741610345
 10
0.0
 20
0.5052947761486486
 10
0.1052697450309665
 20
0.5052947761486486
 10
0.1684315920495489
 20
0.3789710821114838
 10
0.2105394900619348
 20
0.2526473880743225
 10
0.2315934390681296
 20
0.1052697450309665
 10
0.2315934390681296
 20
0.0
 10
4.233949145145539
 20
0.0
 10
4.233949145145539
 20
0.1052697450309665
 10
4.235001842595849
 20
0.1052697450309665
  0
TEXT
  5
15C
100
AcDbEntity
  8
USP-TXT
100
AcDbText
 10
-0.4885828745598318
 20
-1.831887632505875
 30
0.0
 40
0.296875
  1
THDH412 - SIDE VIEW
 72
     1
 11
2.232771292106834
 21
-1.831887632505875
 31
0.0
100
AcDbText
  0
LWPOLYLINE
  5
15D
100
AcDbEntity
  8
USP-GEO
100
AcDbPolyline
 90
        2
 70
   128
 43
0.0
 10
4.023409655083602
 20
0.6105645211796152
 10
2.507525326637662
 20
2.27593188756953
  0
LWPOLYLINE
  5
15E
100
AcDbEntity
  8
USP-GEO
100
AcDbPolyline
 90
        3
 70
   128
 43
0.0
 10
0.1052697450309665
 20
0.6105645211796152
 10
0.0
 20
0.6105645211796152
 10
0.0
 20
2.27593188756953
  0
LWPOLYLINE
  5
15F
100
AcDbEntity
  8
USP-GEO
100
AcDbPolyline
 90
       12
 70
   129
 43
0.0
 10
1.116911994778572
 20
2.065392397507594
 10
1.243235688815733
 20
1.938016006020124
 10
1.411667280865282
 20
1.895908108007738
 10
1.580098872914831
 20
1.938016006020124
 10
1.706422566951992
 20
2.065392397507594
 10
1.74853046496438
 20
2.233823989557144
 10
1.706422566951992
 20
2.402255581606691
 10
1.580098872914831
 20
2.528579275643856
 10
1.411667280865282
 20
2.570687173656242
 10
1.243235688815733
 20
2.528579275643856
 10
1.116911994778572
 20
2.402255581606691
 10
1.074804096766184
 20
2.233823989557144
  0
LWPOLYLINE
  5
160
100
AcDbEntity
  8
USP-GEO
100
AcDbPolyline
 90
       12
 70
   129
 43
0.0
 10
1.243235688815733
 20
0.800050062235357
 10
1.116911994778572
 20
0.9274264537228305
 10
1.074804096766184
 20
1.095858045772377
 10
1.116911994778572
 20
1.264289637821928
 10
1.243235688815733
 20
1.390613331859089
 10
1.411667280865282
 20
1.432721229871475
 10
1.580098872914831
 20
1.390613331859089
 10
1.706422566951992
 20
1.264289637821928
 10
1.74853046496438
 20
1.095858045772377
 10
1.706422566951992
 20
0.9274264537228305
 10
1.580098872914831
 20
0.800050062235357
 10
1.411667280865282
 20
0.7579421642229712
  0
LWPOLYLINE
  5
161
100
AcDbEntity
  8
USP-GEO
100
AcDbPolyline
 90
        4
 70
   129
 43
0.0
 10
1.159019892790958
 20
1.790638362976768
 10
1.285343586828121
 20
1.664314668939606
 10
1.159019892790958
 20
1.537990974902445
 10
1.032696198753797
 20
1.664314668939606
  0
LWPOLYLINE
  5
162
100
AcDbEntity
  8
USP-GEO
100
AcDbPolyline
 90
        4
 70
   129
 43
0.0
 10
1.159019892790958
 20
1.537990974902445
 10
1.032696198753797
 20
1.664314668939606
 10
1.159019892790958
 20
1.790638362976768
 10
1.285343586828121
 20
1.664314668939606
  0
LWPOLYLINE
  5
163
100
AcDbEntity
  8
USP-GEO
100
AcDbPolyline
 90
        2
 70
   128
 43
0.0
 10
0.1684315920495489
 20
0.3789710821114838
 10
0.2105394900619348
 20
0.2526473880743225
  0
LWPOLYLINE
  5
164
100
AcDbEntity
  8
USP-GEO
100
AcDbPolyline
 90
        7
 70
   128
 43
0.0
 10
0.1894855410557419
 20
1.495883076890056
 10
0.2315934390681296
 20
1.495883076890056
 10
0.2737013370805172
 20
1.45377517887767
 10
0.2737013370805172
 20
1.411667280865284
 10
0.2737013370805172
 20
1.369559382852894
 10
0.2315934390681296
 20
1.348505433846703
 10
0.1894855410557419
 20
1.327451484840509
  0
LWPOLYLINE
  5
165
100
AcDbEntity
  8
USP-GEO
100
AcDbPolyline
 90
        2
 70
   129
 43
0.0
 10
0.1894855410557419
 20
1.495883076890056
 10
0.1052697450309665
 20
1.495883076890056
  0
LWPOLYLINE
  5
166
100
AcDbEntity
  8
USP-GEO
100
AcDbPolyline
 90
        2
 70
   129
 43
0.0
 10
0.1052697450309665
 20
1.327451484840509
 10
0.1894855410557419
 20
1.327451484840509
  0
LWPOLYLINE
  5
167
100
AcDbEntity
  8
USP-GEO
100
AcDbPolyline
 90
        3
 70
   128
 43
0.0
 10
0.2526473880743225
 20
1.474829127883864
 10
0.2315934390681296
 20
1.474829127883864
 10
0.1894855410557419
 20
1.45377517887767
  0
LWPOLYLINE
  5
168
100
AcDbEntity
  8
USP-GEO
100
AcDbPolyline
 90
        2
 70
   129
 43
0.0
 10
0.1052697450309665
 20
1.45377517887767
 10
0.1894855410557419
 20
1.45377517887767
  0
LWPOLYLINE
  5
169
100
AcDbEntity
  8
USP-GEO
100
AcDbPolyline
 90
        2
 70
   129
 43
0.0
 10
1.159019892790958
 20
1.601152821921026
 10
1.137965943784765
 20
1.580098872914831
  0
LWPOLYLINE
  5
16A
100
AcDbEntity
  8
USP-GEO
100
AcDbPolyline
 90
        2
 70
   129
 43
0.0
 10
1.201127790803345
 20
1.580098872914831
 10
1.159019892790958
 20
1.601152821921026
  0
LWPOLYLINE
  5
16B
100
AcDbEntity
  8
USP-GEO
100
AcDbPolyline
 90
        4
 70
   128
 43
0.0
 10
1.622206770927219
 20
1.159019892790958
 10
1.622206770927219
 20
1.137965943784767
 10
1.643260719933412
 20
1.095858045772377
 10
1.622206770927219
 20
1.053750147759991
  0
LWPOLYLINE
  5
16C
100
AcDbEntity
  8
USP-GEO
100
AcDbPolyline
 90
       12
 70
   129
 43
0.0
 10
1.601152821921024
 20
1.053750147759991
 10
1.622206770927219
 20
1.032696198753797
 10
1.664314668939606
 20
1.032696198753797
 10
1.685368617945799
 20
1.032696198753797
 10
1.706422566951992
 20
1.053750147759991
 10
1.706422566951992
 20
1.095858045772377
 10
1.706422566951992
 20
1.137965943784767
 10
1.685368617945799
 20
1.180073841797153
 10
1.664314668939606
 20
1.180073841797153
 10
1.622206770927219
 20
1.180073841797153
 10
1.601152821921024
 20
1.137965943784767
 10
1.601152821921024
 20
1.095858045772377
  0
LWPOLYLINE
  5
16D
100
AcDbEntity
  8
USP-GEO
100
AcDbPolyline
 90
        2
 70
   129
 43
0.0
 10
1.623259468377527
 20
1.053750147759991
 10
1.622206770927219
 20
1.053750147759991
  0
LWPOLYLINE
  5
16E
100
AcDbEntity
  8
USP-GEO
100
AcDbPolyline
 90
        5
 70
   128
 43
0.0
 10
0.1052697450309665
 20
5.416128381843313
 10
0.0
 20
5.416128381843313
 10
0.0
 20
5.521398126874281
 10
0.0
 20
5.605613922899054
 10
0.0
 20
5.68982971892383
  0
LWPOLYLINE
  5
16F
100
AcDbEntity
  8
USP-GEO
100
AcDbPolyline
 90
       12
 70
   129
 43
0.0
 10
1.074804096766184
 20
3.350735984335717
 10
1.116911994778572
 20
3.519167576385266
 10
1.243235688815733
 20
3.645491270422427
 10
1.411667280865282
 20
3.687599168434815
 10
1.580098872914831
 20
3.645491270422427
 10
1.706422566951992
 20
3.519167576385266
 10
1.74853046496438
 20
3.350735984335717
 10
1.706422566951992
 20
3.182304392286166
 10
1.580098872914831
 20
3.054928000798696
 10
1.411667280865282
 20
3.01282010278631
 10
1.243235688815733
 20
3.054928000798696
 10
1.116911994778572
 20
3.182304392286166
  0
LWPOLYLINE
  5
170
100
AcDbEntity
  8
USP-GEO
100
AcDbPolyline
 90
       12
 70
   129
 43
0.0
 10
1.116911994778572
 20
4.657133520170031
 10
1.243235688815733
 20
4.783457214207194
 10
1.411667280865282
 20
4.82556511221958
 10
1.580098872914831
 20
4.783457214207194
 10
1.706422566951992
 20
4.657133520170031
 10
1.74853046496438
 20
4.488701928120482
 10
1.706422566951992
 20
4.320270336070933
 10
1.580098872914831
 20
4.192893944583461
 10
1.411667280865282
 20
4.150786046571075
 10
1.243235688815733
 20
4.192893944583461
 10
1.116911994778572
 20
4.320270336070933
 10
1.074804096766184
 20
4.488701928120482
  0
LWPOLYLINE
  5
171
100
AcDbEntity
  8
USP-GEO
100
AcDbPolyline
 90
        3
 70
   128
 43
0.0
 10
0.1052697450309665
 20
3.624437321416234
 10
0.0
 20
3.624437321416234
 10
0.0
 20
4.425540081101901
  0
LWPOLYLINE
  5
172
100
AcDbEntity
  8
USP-GEO
100
AcDbPolyline
 90
        5
 70
   128
 43
0.0
 10
0.0
 20
3.624437321416234
 10
0.0
 20
3.14019649427378
 10
0.0
 20
2.675956918687209
 10
0.0
 20
2.27593188756953
 10
0.1052697450309665
 20
2.27593188756953
  0
LWPOLYLINE
  5
173
100
AcDbEntity
  8
USP-GEO
100
AcDbPolyline
 90
        7
 70
   128
 43
0.0
 10
0.1894855410557419
 20
3.37178993334191
 10
0.2315934390681296
 20
3.37178993334191
 10
0.2737013370805172
 20
3.329682035329522
 10
0.2737013370805172
 20
3.287574137317136
 10
0.2737013370805172
 20
3.245466239304747
 10
0.2315934390681296
 20
3.224412290298555
 10
0.1894855410557419
 20
3.203358341292361
  0
LWPOLYLINE
  5
174
100
AcDbEntity
  8
USP-GEO
100
AcDbPolyline
 90
        4
 70
   128
 43
0.0
 10
0.2737013370805172
 20
3.329682035329522
 10
0.2737013370805172
 20
3.308628086323331
 10
0.2315934390681296
 20
3.287574137317136
 10
0.1894855410557419
 20
3.266520188310941
  0
LWPOLYLINE
  5
175
100
AcDbEntity
  8
USP-GEO
100
AcDbPolyline
 90
        2
 70
   129
 43
0.0
 10
0.1052697450309665
 20
3.203358341292361
 10
0.1894855410557419
 20
3.203358341292361
  0
LWPOLYLINE
  5
176
100
AcDbEntity
  8
USP-GEO
100
AcDbPolyline
 90
        2
 70
   129
 43
0.0
 10
0.1052697450309665
 20
3.266520188310941
 10
0.1894855410557419
 20
3.266520188310941
  0
LWPOLYLINE
  5
177
100
AcDbEntity
  8
USP-GEO
100
AcDbPolyline
 90
        2
 70
   129
 43
0.0
 10
0.1894855410557419
 20
3.37178993334191
 10
0.1052697450309665
 20
3.37178993334191
  0
LWPOLYLINE
  5
178
100
AcDbEntity
  8
USP-GEO
100
AcDbPolyline
 90
        5
 70
   128
 43
0.0
 10
0.1052697450309665
 20
4.425540081101901
 10
0.0
 20
4.425540081101901
 10
0.0
 20
4.59397167315145
 10
0.0
 20
4.741349316194806
 10
0.0
 20
4.846619061225775
  0
LWPOLYLINE
  5
179
100
AcDbEntity
  8
USP-GEO
100
AcDbPolyline
 90
        7
 70
   128
 43
0.0
 10
0.1894855410557419
 20
4.951888806256743
 10
0.2315934390681296
 20
4.972942755262936
 10
0.2737013370805172
 20
4.993996704269129
 10
0.2737013370805172
 20
5.036104602281517
 10
0.2737013370805172
 20
5.078212500293904
 10
0.2315934390681296
 20
5.120320398306292
 10
0.1894855410557419
 20
5.120320398306292
  0
LWPOLYLINE
  5
17A
100
AcDbEntity
  8
USP-GEO
100
AcDbPolyline
 90
        2
 70
   128
 43
0.0
 10
0.2737013370805172
 20
4.993996704269129
 10
0.2315934390681296
 20
4.972942755262936
  0
LWPOLYLINE
  5
17B
100
AcDbEntity
  8
USP-GEO
100
AcDbPolyline
 90
        4
 70
   128
 43
0.0
 10
0.2737013370805172
 20
5.078212500293904
 10
0.2737013370805172
 20
5.057158551287711
 10
0.2315934390681296
 20
5.036104602281517
 10
0.1894855410557419
 20
5.015050653275324
  0
LWPOLYLINE
  5
17C
100
AcDbEntity
  8
USP-GEO
100
AcDbPolyline
 90
        5
 70
   128
 43
0.0
 10
0.1052697450309665
 20
4.846619061225775
 10
0.0
 20
4.846619061225775
 10
0.0
 20
4.909780908244355
 10
0.0
 20
4.993996704269129
 10
0.0
 20
5.099266449300097
  0
LWPOLYLINE
  5
17D
100
AcDbEntity
  8
USP-GEO
100
AcDbPolyline
 90
        2
 70
   129
 43
0.0
 10
0.1052697450309665
 20
4.951888806256743
 10
0.1894855410557419
 20
4.951888806256743
  0
LWPOLYLINE
  5
17E
100
AcDbEntity
  8
USP-GEO
100
AcDbPolyline
 90
        3
 70
   128
 43
0.0
 10
0.1052697450309665
 20
5.099266449300097
 10
0.0
 20
5.099266449300097
 10
0.0
 20
5.416128381843313
  0
LWPOLYLINE
  5
17F
100
AcDbEntity
  8
USP-GEO
100
AcDbPolyline
 90
        2
 70
   129
 43
0.0
 10
0.1894855410557419
 20
5.120320398306292
 10
0.1052697450309665
 20
5.120320398306292
  0
LWPOLYLINE
  5
180
100
AcDbEntity
  8
USP-GEO
100
AcDbPolyline
 90
        2
 70
   129
 43
0.0
 10
0.1052697450309665
 20
5.015050653275324
 10
0.1894855410557419
 20
5.015050653275324
  0
LWPOLYLINE
  5
181
100
AcDbEntity
  8
USP-GEO
100
AcDbPolyline
 90
        4
 70
   129
 43
0.0
 10
0.9905883007414093
 20
4.930834857250548
 10
1.116911994778572
 20
4.783457214207194
 10
0.9905883007414093
 20
4.657133520170031
 10
0.864264606704248
 20
4.783457214207194
  0
LWPOLYLINE
  5
182
100
AcDbEntity
  8
USP-GEO
100
AcDbPolyline
 90
        4
 70
   129
 43
0.0
 10
0.9905883007414093
 20
4.657133520170031
 10
0.864264606704248
 20
4.783457214207194
 10
0.9905883007414093
 20
4.930834857250548
 10
1.116911994778572
 20
4.783457214207194
  0
LWPOLYLINE
  5
183
100
AcDbEntity
  8
USP-GEO
100
AcDbPolyline
 90
        2
 70
   129
 43
0.0
 10
0.9905883007414093
 20
4.741349316194806
 10
0.9484804027290216
 20
4.699241418182419
  0
LWPOLYLINE
  5
184
100
AcDbEntity
  8
USP-GEO
100
AcDbPolyline
 90
        2
 70
   129
 43
0.0
 10
1.011642249747604
 20
4.699241418182419
 10
0.9905883007414093
 20
4.741349316194806
  0
LWPOLYLINE
  5
185
100
AcDbEntity
  8
USP-GEO
100
AcDbPolyline
 90
        2
 70
   128
 43
0.0
 10
1.98012390403251
 20
3.624437321416234
 10
1.98012390403251
 20
4.425540081101901
  0
LWPOLYLINE
  5
186
100
AcDbEntity
  8
USP-GEO
100
AcDbPolyline
 90
       18
 70
   128
 43
0.0
 10
1.623259468377527
 20
2.27593188756953
 10
1.622206770927219
 20
2.27593188756953
 10
1.643260719933412
 20
2.233823989557144
 10
1.622206770927219
 20
2.191716091544758
 10
1.622206770927219
 20
2.170662142538564
 10
1.601152821921024
 20
2.191716091544758
 10
1.601152821921024
 20
2.233823989557144
 10
1.601152821921024
 20
2.27593188756953
 10
1.622206770927219
 20
2.296985836575725
 10
1.664314668939606
 20
2.296985836575725
 10
1.685368617945799
 20
2.296985836575725
 10
1.706422566951992
 20
2.27593188756953
 10
1.706422566951992
 20
2.233823989557144
 10
1.706422566951992
 20
2.191716091544758
 10
1.685368617945799
 20
2.170662142538564
 10
1.664314668939606
 20
2.149608193532369
 10
1.622206770927219
 20
2.170662142538564
 10
1.623259468377527
 20
2.170662142538564
  0
LWPOLYLINE
  5
187
100
AcDbEntity
  8
USP-GEO
100
AcDbPolyline
 90
        4
 70
   128
 43
0.0
 10
1.622206770927219
 20
3.413897831354297
 10
1.622206770927219
 20
3.392843882348104
 10
1.643260719933412
 20
3.350735984335717
 10
1.622206770927219
 20
3.308628086323331
  0
LWPOLYLINE
  5
188
100
AcDbEntity
  8
USP-GEO
100
AcDbPolyline
 90
       12
 70
   129
 43
0.0
 10
1.601152821921024
 20
3.308628086323331
 10
1.622206770927219
 20
3.287574137317136
 10
1.664314668939606
 20
3.287574137317136
 10
1.685368617945799
 20
3.287574137317136
 10
1.706422566951992
 20
3.308628086323331
 10
1.706422566951992
 20
3.350735984335717
 10
1.706422566951992
 20
3.392843882348104
 10
1.685368617945799
 20
3.413897831354297
 10
1.664314668939606
 20
3.43495178036049
 10
1.622206770927219
 20
3.413897831354297
 10
1.601152821921024
 20
3.392843882348104
 10
1.601152821921024
 20
3.350735984335717
  0
LWPOLYLINE
  5
189
100
AcDbEntity
  8
USP-GEO
100
AcDbPolyline
 90
        2
 70
   129
 43
0.0
 10
1.623259468377527
 20
3.308628086323331
 10
1.622206770927219
 20
3.308628086323331
  0
LWPOLYLINE
  5
18A
100
AcDbEntity
  8
USP-GEO
100
AcDbPolyline
 90
        6
 70
   128
 43
0.0
 10
1.622206770927219
 20
4.53080982613287
 10
1.622206770927219
 20
4.509755877126677
 10
1.643260719933412
 20
4.488701928120482
 10
1.622206770927219
 20
4.446594030108094
 10
1.622206770927219
 20
4.425540081101901
 10
1.623259468377527
 20
4.425540081101901
  0
LWPOLYLINE
  5
18B
100
AcDbEntity
  8
USP-GEO
100
AcDbPolyline
 90
       12
 70
   129
 43
0.0
 10
1.601152821921024
 20
4.446594030108094
 10
1.622206770927219
 20
4.404486132095708
 10
1.664314668939606
 20
4.404486132095708
 10
1.685368617945799
 20
4.404486132095708
 10
1.706422566951992
 20
4.446594030108094
 10
1.706422566951992
 20
4.488701928120482
 10
1.706422566951992
 20
4.509755877126677
 10
1.685368617945799
 20
4.551863775139063
 10
1.664314668939606
 20
4.551863775139063
 10
1.622206770927219
 20
4.551863775139063
 10
1.601152821921024
 20
4.509755877126677
 10
1.601152821921024
 20
4.488701928120482
  0
LWPOLYLINE
  5
18C
100
AcDbEntity
  8
USP-GEO
100
AcDbPolyline
 90
        3
 70
   128
 43
0.0
 10
1.622206770927219
 20
4.993996704269129
 10
1.601152821921024
 20
5.099266449300097
 10
1.601152821921024
 20
5.416128381843313
  0
LWPOLYLINE
  5
18D
100
AcDbEntity
  8
USP-GEO
100
AcDbPolyline
 90
       12
 70
   129
 43
0.0
 10
1.116911994778572
 20
6.533040376621885
 10
1.243235688815733
 20
6.659364070659046
 10
1.411667280865282
 20
6.701471968671434
 10
1.580098872914831
 20
6.659364070659046
 10
1.706422566951992
 20
6.533040376621885
 10
1.74853046496438
 20
6.363556087122026
 10
1.706422566951992
 20
6.195124495072477
 10
1.580098872914831
 20
6.068800801035315
 10
1.411667280865282
 20
6.026692903022928
 10
1.243235688815733
 20
6.068800801035315
 10
1.116911994778572
 20
6.195124495072477
 10
1.074804096766184
 20
6.363556087122026
  0
LWPOLYLINE
  5
18E
100
AcDbEntity
  8
USP-GEO
100
AcDbPolyline
 90
       12
 70
   129
 43
0.0
 10
1.243235688815733
 20
7.944707657487168
 10
1.116911994778572
 20
8.071031351524329
 10
1.074804096766184
 20
8.239462943573879
 10
1.116911994778572
 20
8.407894535623428
 10
1.243235688815733
 20
8.53421822966059
 10
1.411667280865282
 20
8.576326127672977
 10
1.580098872914831
 20
8.53421822966059
 10
1.706422566951992
 20
8.407894535623428
 10
1.74853046496438
 20
8.239462943573879
 10
1.706422566951992
 20
8.071031351524329
 10
1.580098872914831
 20
7.944707657487168
 10
1.411667280865282
 20
7.90259975947478
  0
LWPOLYLINE
  5
18F
100
AcDbEntity
  8
USP-GEO
100
AcDbPolyline
 90
        3
 70
   128
 43
0.0
 10
0.1052697450309665
 20
6.975173305751951
 10
0.0
 20
6.975173305751951
 10
0.0
 20
7.290982540844856
  0
LWPOLYLINE
  5
190
100
AcDbEntity
  8
USP-GEO
100
AcDbPolyline
 90
        3
 70
   128
 43
0.0
 10
0.1052697450309665
 20
6.110908699047701
 10
0.0
 20
6.110908699047701
 10
0.0
 20
6.300394240103445
  0
LWPOLYLINE
  5
191
100
AcDbEntity
  8
USP-GEO
100
AcDbPolyline
 90
        5
 70
   128
 43
0.0
 10
0.1052697450309665
 20
5.68982971892383
 10
0.0
 20
5.68982971892383
 10
0.0
 20
5.795099463954798
 10
0.0
 20
5.942477106998152
 10
0.0
 20
6.110908699047701
  0
LWPOLYLINE
  5
192
100
AcDbEntity
  8
USP-GEO
100
AcDbPolyline
 90
        7
 70
   128
 43
0.0
 10
0.1894855410557419
 20
6.701471968671434
 10
0.2315934390681296
 20
6.722525917677627
 10
0.2737013370805172
 20
6.743579866683822
 10
0.2737013370805172
 20
6.785687764696207
 10
0.2737013370805172
 20
6.84884961171479
 10
0.2315934390681296
 20
6.869903560720983
 10
0.1894855410557419
 20
6.890957509727176
  0
LWPOLYLINE
  5
193
100
AcDbEntity
  8
USP-GEO
100
AcDbPolyline
 90
        4
 70
   128
 43
0.0
 10
0.2737013370805172
 20
6.827795662708595
 10
0.2737013370805172
 20
6.806741713702402
 10
0.2315934390681296
 20
6.785687764696207
 10
0.1894855410557419
 20
6.764633815690014
  0
LWPOLYLINE
  5
194
100
AcDbEntity
  8
USP-GEO
100
AcDbPolyline
 90
        5
 70
   128
 43
0.0
 10
0.1052697450309665
 20
6.300394240103445
 10
0.0
 20
6.300394240103445
 10
0.0
 20
6.468825832152994
 10
0.0
 20
6.617256172646658
 10
0.0
 20
6.722525917677627
  0
LWPOLYLINE
  5
195
100
AcDbEntity
  8
USP-GEO
100
AcDbPolyline
 90
        5
 70
   128
 43
0.0
 10
0.1052697450309665
 20
6.722525917677627
 10
0.0
 20
6.722525917677627
 10
0.0
 20
6.785687764696207
 10
0.0
 20
6.890957509727176
 10
0.0
 20
6.975173305751951
  0
LWPOLYLINE
  5
196
100
AcDbEntity
  8
USP-GEO
100
AcDbPolyline
 90
        2
 70
   129
 43
0.0
 10
0.1894855410557419
 20
6.890957509727176
 10
0.1052697450309665
 20
6.890957509727176
  0
LWPOLYLINE
  5
197
100
AcDbEntity
  8
USP-GEO
100
AcDbPolyline
 90
        2
 70
   129
 43
0.0
 10
0.1052697450309665
 20
6.701471968671434
 10
0.1894855410557419
 20
6.701471968671434
  0
LWPOLYLINE
  5
198
100
AcDbEntity
  8
USP-GEO
100
AcDbPolyline
 90
        2
 70
   128
 43
0.0
 10
0.1894855410557419
 20
6.890957509727176
 10
0.2315934390681296
 20
6.869903560720983
  0
LWPOLYLINE
  5
199
100
AcDbEntity
  8
USP-GEO
100
AcDbPolyline
 90
        2
 70
   129
 43
0.0
 10
0.1052697450309665
 20
6.764633815690014
 10
0.1894855410557419
 20
6.764633815690014
  0
LWPOLYLINE
  5
19A
100
AcDbEntity
  8
USP-GEO
100
AcDbPolyline
 90
        4
 70
   129
 43
0.0
 10
0.9905883007414093
 20
6.806741713702402
 10
1.116911994778572
 20
6.680418019665239
 10
0.9905883007414093
 20
6.533040376621885
 10
0.864264606704248
 20
6.680418019665239
  0
LWPOLYLINE
  5
19B
100
AcDbEntity
  8
USP-GEO
100
AcDbPolyline
 90
        4
 70
   129
 43
0.0
 10
0.9905883007414093
 20
6.533040376621885
 10
0.864264606704248
 20
6.680418019665239
 10
0.9905883007414093
 20
6.806741713702402
 10
1.116911994778572
 20
6.680418019665239
  0
LWPOLYLINE
  5
19C
100
AcDbEntity
  8
USP-GEO
100
AcDbPolyline
 90
        2
 70
   129
 43
0.0
 10
0.9905883007414093
 20
6.617256172646658
 10
0.9484804027290216
 20
6.575148274634273
  0
LWPOLYLINE
  5
19D
100
AcDbEntity
  8
USP-GEO
100
AcDbPolyline
 90
        2
 70
   129
 43
0.0
 10
1.011642249747604
 20
6.575148274634273
 10
0.9905883007414093
 20
6.617256172646658
  0
LWPOLYLINE
  5
19E
100
AcDbEntity
  8
USP-GEO
100
AcDbPolyline
 90
        6
 70
   128
 43
0.0
 10
0.1052697450309665
 20
7.986815555499555
 10
0.0
 20
7.986815555499555
 10
0.0
 20
7.818383963450006
 10
0.0
 20
7.67100632040665
 10
0.0
 20
7.564683877925373
 10
0.1052697450309665
 20
7.564683877925373
  0
LWPOLYLINE
  5
19F
100
AcDbEntity
  8
USP-GEO
100
AcDbPolyline
 90
        5
 70
   128
 43
0.0
 10
0.1052697450309665
 20
7.290982540844856
 10
0.0
 20
7.290982540844856
 10
0.0
 20
7.396252285875824
 10
0.0
 20
7.480468081900598
 10
0.0
 20
7.564683877925373
  0
LWPOLYLINE
  5
1A0
100
AcDbEntity
  8
USP-GEO
100
AcDbPolyline
 90
        5
 70
   128
 43
0.0
 10
0.0
 20
8.59738007667917
 10
0.0
 20
8.492110331648202
 10
0.0
 20
8.344732688604846
 10
0.0
 20
8.176301096555297
 10
0.1052697450309665
 20
8.176301096555297
  0
LWPOLYLINE
  5
1A1
100
AcDbEntity
  8
USP-GEO
100
AcDbPolyline
 90
        2
 70
   128
 43
0.0
 10
0.0
 20
8.176301096555297
 10
0.0
 20
7.986815555499555
  0
LWPOLYLINE
  5
1A2
100
AcDbEntity
  8
USP-GEO
100
AcDbPolyline
 90
        2
 70
   129
 43
0.0
 10
0.1052697450309665
 20
8.702649821710139
 10
0.1894855410557419
 20
8.702649821710139
  0
LWPOLYLINE
  5
1A3
100
AcDbEntity
  8
USP-GEO
100
AcDbPolyline
 90
        4
 70
   129
 43
0.0
 10
0.9905883007414093
 20
8.681595872703946
 10
1.116911994778572
 20
8.555272178666783
 10
0.9905883007414093
 20
8.428948484629621
 10
0.864264606704248
 20
8.555272178666783
  0
LWPOLYLINE
  5
1A4
100
AcDbEntity
  8
USP-GEO
100
AcDbPolyline
 90
        4
 70
   129
 43
0.0
 10
0.9905883007414093
 20
8.428948484629621
 10
0.864264606704248
 20
8.555272178666783
 10
0.9905883007414093
 20
8.681595872703946
 10
1.116911994778572
 20
8.555272178666783
  0
LWPOLYLINE
  5
1A5
100
AcDbEntity
  8
USP-GEO
100
AcDbPolyline
 90
        2
 70
   129
 43
0.0
 10
0.9905883007414093
 20
8.492110331648202
 10
0.9484804027290216
 20
8.450002433635814
  0
LWPOLYLINE
  5
1A6
100
AcDbEntity
  8
USP-GEO
100
AcDbPolyline
 90
        2
 70
   129
 43
0.0
 10
1.011642249747604
 20
8.450002433635814
 10
0.9905883007414093
 20
8.492110331648202
  0
LWPOLYLINE
  5
1A7
100
AcDbEntity
  8
USP-GEO
100
AcDbPolyline
 90
        2
 70
   128
 43
0.0
 10
1.601152821921024
 20
6.975173305751951
 10
1.601152821921024
 20
7.290982540844856
  0
LWPOLYLINE
  5
1A8
100
AcDbEntity
  8
USP-GEO
100
AcDbPolyline
 90
        2
 70
   128
 43
0.0
 10
1.664314668939606
 20
5.605613922899054
 10
1.74853046496438
 20
5.68982971892383
  0
LWPOLYLINE
  5
1A9
100
AcDbEntity
  8
USP-GEO
100
AcDbPolyline
 90
        6
 70
   128
 43
0.0
 10
1.623259468377527
 20
6.405663985134413
 10
1.622206770927219
 20
6.405663985134413
 10
1.643260719933412
 20
6.363556087122026
 10
1.622206770927219
 20
6.321448189109638
 10
1.622206770927219
 20
6.300394240103445
 10
1.623259468377527
 20
6.300394240103445
  0
LWPOLYLINE
  5
1AA
100
AcDbEntity
  8
USP-GEO
100
AcDbPolyline
 90
       12
 70
   129
 43
0.0
 10
1.601152821921024
 20
6.363556087122026
 10
1.601152821921024
 20
6.321448189109638
 10
1.622206770927219
 20
6.279340291097252
 10
1.664314668939606
 20
6.279340291097252
 10
1.685368617945799
 20
6.279340291097252
 10
1.706422566951992
 20
6.321448189109638
 10
1.706422566951992
 20
6.363556087122026
 10
1.706422566951992
 20
6.405663985134413
 10
1.685368617945799
 20
6.426717934140606
 10
1.664314668939606
 20
6.426717934140606
 10
1.622206770927219
 20
6.426717934140606
 10
1.601152821921024
 20
6.405663985134413
  0
LWPOLYLINE
  5
1AB
100
AcDbEntity
  8
USP-GEO
100
AcDbPolyline
 90
        2
 70
   128
 43
0.0
 10
1.98012390403251
 20
6.110908699047701
 10
1.98012390403251
 20
6.300394240103445
  0
LWPOLYLINE
  5
1AC
100
AcDbEntity
  8
USP-GEO
100
AcDbPolyline
 90
        2
 70
   128
 43
0.0
 10
1.664314668939606
 20
7.480468081900598
 10
1.74853046496438
 20
7.564683877925373
  0
LWPOLYLINE
  5
1AD
100
AcDbEntity
  8
USP-GEO
100
AcDbPolyline
 90
       18
 70
   128
 43
0.0
 10
1.623259468377527
 20
8.281570841586265
 10
1.622206770927219
 20
8.281570841586265
 10
1.643260719933412
 20
8.239462943573879
 10
1.622206770927219
 20
8.197355045561492
 10
1.622206770927219
 20
8.176301096555297
 10
1.601152821921024
 20
8.197355045561492
 10
1.601152821921024
 20
8.239462943573879
 10
1.601152821921024
 20
8.281570841586265
 10
1.622206770927219
 20
8.30262479059246
 10
1.664314668939606
 20
8.30262479059246
 10
1.685368617945799
 20
8.30262479059246
 10
1.706422566951992
 20
8.281570841586265
 10
1.706422566951992
 20
8.239462943573879
 10
1.706422566951992
 20
8.197355045561492
 10
1.685368617945799
 20
8.176301096555297
 10
1.664314668939606
 20
8.155247147549104
 10
1.622206770927219
 20
8.176301096555297
 10
1.623259468377527
 20
8.176301096555297
  0
LWPOLYLINE
  5
1AE
100
AcDbEntity
  8
USP-GEO
100
AcDbPolyline
 90
        2
 70
   128
 43
0.0
 10
1.98012390403251
 20
7.986815555499555
 10
1.98012390403251
 20
8.176301096555297
  0
LWPOLYLINE
  5
1AF
100
AcDbEntity
  8
USP-GEO
100
AcDbPolyline
 90
        2
 70
   129
 43
0.0
 10
4.235001842595849
 20
0.0
 10
4.233949145145539
 20
0.0
  0
LWPOLYLINE
  5
1B0
100
AcDbEntity
  8
USP-GEO
100
AcDbPolyline
 90
        6
 70
   128
 43
0.0
 10
0.1052697450309665
 20
10.8522580152425
 10
0.0
 20
10.8522580152425
 10
0.0
 20
11.16911994778572
 10
0.1052697450309665
 20
11.16911994778572
 10
1.601152821921024
 20
11.16911994778572
 10
1.601152821921024
 20
10.8522580152425
  0
LWPOLYLINE
  5
1B1
100
AcDbEntity
  8
USP-GEO
100
AcDbPolyline
 90
       12
 70
   129
 43
0.0
 10
1.074804096766184
 20
10.24169349406289
 10
1.116911994778572
 20
10.07326190201334
 10
1.243235688815733
 20
9.946938207976183
 10
1.411667280865282
 20
9.904830309963795
 10
1.580098872914831
 20
9.946938207976183
 10
1.706422566951992
 20
10.07326190201334
 10
1.74853046496438
 20
10.24169349406289
 10
1.706422566951992
 20
10.41012508611244
 10
1.580098872914831
 20
10.5364487801496
 10
1.411667280865282
 20
10.57855667816199
 10
1.243235688815733
 20
10.5364487801496
 10
1.116911994778572
 20
10.41012508611244
  0
LWPOLYLINE
  5
1B2
100
AcDbEntity
  8
USP-GEO
100
AcDbPolyline
 90
        6
 70
   128
 43
0.0
 10
0.1052697450309665
 20
10.59961062716818
 10
0.0
 20
10.59961062716818
 10
0.0
 20
10.49434088213721
 10
0.0
 20
10.34696323909386
 10
0.0
 20
10.17853164704431
 10
0.1052697450309665
 20
10.17853164704431
  0
LWPOLYLINE
  5
1B3
100
AcDbEntity
  8
USP-GEO
100
AcDbPolyline
 90
        5
 70
   128
 43
0.0
 10
0.1052697450309665
 20
9.566914428414387
 10
0.0
 20
9.566914428414387
 10
0.0
 20
9.482698632389613
 10
0.0
 20
9.398482836364838
 10
0.0
 20
9.293213091333869
  0
LWPOLYLINE
  5
1B4
100
AcDbEntity
  8
USP-GEO
100
AcDbPolyline
 90
        6
 70
   128
 43
0.0
 10
0.2737013370805172
 20
8.83002621319761
 10
0.2737013370805172
 20
8.808972264191417
 10
0.2315934390681296
 20
8.787918315185223
 10
0.1894855410557419
 20
8.76686436617903
 10
0.1052697450309665
 20
8.76686436617903
 10
0.1894855410557419
 20
8.76686436617903
  0
LWPOLYLINE
  5
1B5
100
AcDbEntity
  8
USP-GEO
100
AcDbPolyline
 90
        3
 70
   128
 43
0.0
 10
0.1052697450309665
 20
9.293213091333869
 10
0.0
 20
9.293213091333869
 10
0.0
 20
8.851080162203803
  0
LWPOLYLINE
  5
1B6
100
AcDbEntity
  8
USP-GEO
100
AcDbPolyline
 90
        2
 70
   129
 43
0.0
 10
0.1894855410557419
 20
8.893188060216191
 10
0.1052697450309665
 20
8.893188060216191
  0
LWPOLYLINE
  5
1B7
100
AcDbEntity
  8
USP-GEO
100
AcDbPolyline
 90
        5
 70
   128
 43
0.0
 10
0.1052697450309665
 20
9.98904610598857
 10
0.0
 20
9.98904610598857
 10
0.0
 20
9.819561816488711
 10
0.0
 20
9.672184173445355
 10
0.0
 20
9.566914428414387
  0
LWPOLYLINE
  5
1B8
100
AcDbEntity
  8
USP-GEO
100
AcDbPolyline
 90
        2
 70
   128
 43
0.0
 10
0.0
 20
10.17853164704431
 10
0.0
 20
9.98904610598857
  0
LWPOLYLINE
  5
1B9
100
AcDbEntity
  8
USP-GEO
100
AcDbPolyline
 90
        7
 70
   128
 43
0.0
 10
0.1894855410557419
 20
10.70488037219915
 10
0.2315934390681296
 20
10.72593432120534
 10
0.2737013370805172
 20
10.74698827021154
 10
0.2737013370805172
 20
10.78909616822392
 10
0.2737013370805172
 20
10.8522580152425
 10
0.2315934390681296
 20
10.8733119642487
 10
0.1894855410557419
 20
10.89436591325489
  0
LWPOLYLINE
  5
1BA
100
AcDbEntity
  8
USP-GEO
100
AcDbPolyline
 90
        6
 70
   128
 43
0.0
 10
0.2737013370805172
 20
10.83120406623631
 10
0.2737013370805172
 20
10.81015011723012
 10
0.2315934390681296
 20
10.78909616822392
 10
0.1894855410557419
 20
10.76804221921773
 10
0.1052697450309665
 20
10.76804221921773
 10
0.1894855410557419
 20
10.76804221921773
  0
LWPOLYLINE
  5
1BB
100
AcDbEntity
  8
USP-GEO
100
AcDbPolyline
 90
        4
 70
   128
 43
0.0
 10
0.0
 20
10.8522580152425
 10
0.0
 20
10.76804221921773
 10
0.0
 20
10.66277247418676
 10
0.0
 20
10.59961062716818
  0
LWPOLYLINE
  5
1BC
100
AcDbEntity
  8
USP-GEO
100
AcDbPolyline
 90
        2
 70
   129
 43
0.0
 10
0.1052697450309665
 20
10.70488037219915
 10
0.1894855410557419
 20
10.70488037219915
  0
LWPOLYLINE
  5
1BD
100
AcDbEntity
  8
USP-GEO
100
AcDbPolyline
 90
        2
 70
   129
 43
0.0
 10
0.1894855410557419
 20
10.89436591325489
 10
0.1052697450309665
 20
10.89436591325489
  0
LWPOLYLINE
  5
1BE
100
AcDbEntity
  8
USP-GEO
100
AcDbPolyline
 90
        2
 70
   128
 43
0.0
 10
0.1894855410557419
 20
10.89436591325489
 10
0.2315934390681296
 20
10.8733119642487
  0
LWPOLYLINE
  5
1BF
100
AcDbEntity
  8
USP-GEO
100
AcDbPolyline
 90
        4
 70
   129
 43
0.0
 10
0.864264606704248
 20
10.55750272915579
 10
0.9905883007414093
 20
10.68382642319295
 10
1.116911994778572
 20
10.55750272915579
 10
0.9905883007414093
 20
10.43117903511863
  0
LWPOLYLINE
  5
1C0
100
AcDbEntity
  8
USP-GEO
100
AcDbPolyline
 90
        4
 70
   129
 43
0.0
 10
0.864264606704248
 20
10.55750272915579
 10
0.9905883007414093
 20
10.68382642319295
 10
1.116911994778572
 20
10.55750272915579
 10
0.9905883007414093
 20
10.43117903511863
  0
LWPOLYLINE
  5
1C1
100
AcDbEntity
  8
USP-GEO
100
AcDbPolyline
 90
        2
 70
   129
 43
0.0
 10
0.9905883007414093
 20
10.49434088213721
 10
0.9484804027290216
 20
10.45223298412482
  0
LWPOLYLINE
  5
1C2
100
AcDbEntity
  8
USP-GEO
100
AcDbPolyline
 90
        2
 70
   129
 43
0.0
 10
1.011642249747604
 20
10.45223298412482
 10
0.9905883007414093
 20
10.49434088213721
  0
LWPOLYLINE
  5
1C3
100
AcDbEntity
  8
USP-GEO
100
AcDbPolyline
 90
        2
 70
   128
 43
0.0
 10
1.601152821921024
 20
8.851080162203803
 10
1.601152821921024
 20
9.293213091333869
  0
LWPOLYLINE
  5
1C4
100
AcDbEntity
  8
USP-GEO
100
AcDbPolyline
 90
       18
 70
   128
 43
0.0
 10
1.623259468377527
 20
10.28380139207528
 10
1.622206770927219
 20
10.28380139207528
 10
1.643260719933412
 20
10.24169349406289
 10
1.622206770927219
 20
10.1995855960505
 10
1.622206770927219
 20
10.17853164704431
 10
1.601152821921024
 20
10.1995855960505
 10
1.601152821921024
 20
10.24169349406289
 10
1.601152821921024
 20
10.28380139207528
 10
1.622206770927219
 20
10.30485534108147
 10
1.664314668939606
 20
10.30485534108147
 10
1.685368617945799
 20
10.30485534108147
 10
1.706422566951992
 20
10.28380139207528
 10
1.706422566951992
 20
10.24169349406289
 10
1.706422566951992
 20
10.1995855960505
 10
1.685368617945799
 20
10.17853164704431
 10
1.664314668939606
 20
10.15747769803811
 10
1.622206770927219
 20
10.17853164704431
 10
1.623259468377527
 20
10.17853164704431
  0
LWPOLYLINE
  5
1C5
100
AcDbEntity
  8
USP-GEO
100
AcDbPolyline
 90
        2
 70
   128
 43
0.0
 10
1.98012390403251
 20
9.98904610598857
 10
1.98012390403251
 20
10.17853164704431
  0
ENDBLK
  5
1C7
100
AcDbEntity
  8
0
100
AcDbBlockEnd
  0
ENDSEC
  0
SECTION
  2
ENTITIES
  0
INSERT
  5
3
100
AcDbEntity
  8
USP
100
AcDbBlockReference
  2
THDH412_T
 10
7.759925358184741
 20
16.87975250161658
 30
0.0
  0
INSERT
  5
30
100
AcDbEntity
  8
USP
100
AcDbBlockReference
  2
THDH412_F
 10
7.759925358184741
 20
1.833547844340301
 30
0.0
  0
INSERT
  5
156
100
AcDbEntity
  8
USP
100
AcDbBlockReference
  2
THDH412_S
 10
0.5763179572714741
 20
1.833547844340301
 30
0.0
  0
ENDSEC
  0
SECTION
  2
OBJECTS
  0
DICTIONARY
  5
1E0
102
{ACAD_XDICTIONARY
360
1E1
102
}
100
AcDbDictionary
  3
ACAD_GROUP
350
1DE
  3
ACAD_MLINESTYLE
350
1DF
  0
DICTIONARY
  5
9
100
AcDbDictionary
280
     1
  3
ACAD_XREC_ROUNDTRIP
360
A
  0
DICTIONARY
  5
E
100
AcDbDictionary
280
     1
  3
ACAD_XREC_ROUNDTRIP
360
F
  0
DICTIONARY
  5
1C8
100
AcDbDictionary
280
     1
  3
ACAD_LAYOUTSELFREF
360
1C9
  0
DICTIONARY
  5
1CD
100
AcDbDictionary
280
     1
  3
ACAD_LAYOUTSELFREF
360
1CE
  0
DICTIONARY
  5
1E1
100
AcDbDictionary
280
     1
  3
ACAD_XREC_ROUNDTRIP
360
1E2
  0
DICTIONARY
  5
1DE
102
{ACAD_REACTORS
330
1E0
102
}
100
AcDbDictionary
  0
DICTIONARY
  5
1DF
102
{ACAD_REACTORS
330
1E0
102
}
100
AcDbDictionary
  3
STANDARD
350
1E3
  0
XRECORD
  5
A
102
{ACAD_REACTORS
330
9
102
}
100
AcDbXrecord
102
EXTNAMES
  1
USP-GEO
  2
USP-Geo
  0
XRECORD
  5
F
102
{ACAD_REACTORS
330
E
102
}
100
AcDbXrecord
102
EXTNAMES
  1
USP-TXT
  2
USP-Txt
  0
XRECORD
  5
1C9
102
{ACAD_REACTORS
330
1C8
102
}
100
AcDbXrecord
340
18
  0
XRECORD
  5
1CE
102
{ACAD_REACTORS
330
1CD
102
}
100
AcDbXrecord
340
15
  0
XRECORD
  5
1E2
102
{ACAD_REACTORS
330
1E1
102
}
100
AcDbXrecord
102
EXTNAMES
  1
ACDBVARIABLEDICTIONARY
  2
AcDbVariableDictionary
  0
MLINESTYLE
  5
1E3
102
{ACAD_REACTORS
330
1DF
102
}
100
AcDbMlineStyle
  2
STANDARD
 70
     0
  3

 62
     0
 51
90.0
 52
90.0
 71
     2
 49
0.5
 62
   256
  6
BYLAYER
 49
-0.5
 62
   256
  6
BYLAYER
  0
ENDSEC
  0
EOF
