  0
SECTION
  2
HEADER
  9
$ACADVER
  1
AC1014
  9
$ACADMAINTVER
 70
     8
  9
$DWGCODEPAGE
  3
ANSI_1252
  9
$INSBASE
 10
0.0
 20
0.0
 30
0.0
  9
$EXTMIN
 10
-0.0046560461852074
 20
0.0003252731914909
 30
0.0
  9
$EXTMAX
 10
12.63322977041753
 20
13.46238564480197
 30
0.0
  9
$LIMMIN
 10
0.0
 20
0.0
  9
$LIMMAX
 10
12.0
 20
9.0
  9
$ORTHOMODE
 70
     0
  9
$REGENMODE
 70
     1
  9
$FILLMODE
 70
     1
  9
$QTEXTMODE
 70
     0
  9
$MIRRTEXT
 70
     0
  9
$DRAGMODE
 70
     2
  9
$LTSCALE
 40
1.5
  9
$OSMODE
 70
     0
  9
$ATTMODE
 70
     1
  9
$TEXTSIZE
 40
0.25
  9
$TRACEWID
 40
0.05
  9
$TEXTSTYLE
  7
STANDARD
  9
$CLAYER
  8
USP
  9
$CELTYPE
  6
BYLAYER
  9
$CECOLOR
 62
   256
  9
$CELTSCALE
 40
1.0
  9
$DELOBJ
 70
     1
  9
$DISPSILH
 70
     1
  9
$DIMSCALE
 40
5.0
  9
$DIMASZ
 40
0.125
  9
$DIMEXO
 40
0.0625
  9
$DIMDLI
 40
0.38
  9
$DIMRND
 40
0.0
  9
$DIMDLE
 40
0.0
  9
$DIMEXE
 40
0.09375
  9
$DIMTP
 40
0.0
  9
$DIMTM
 40
0.0
  9
$DIMTXT
 40
0.109375
  9
$DIMCEN
 40
0.0
  9
$DIMTSZ
 40
0.0
  9
$DIMTOL
 70
     0
  9
$DIMLIM
 70
     0
  9
$DIMTIH
 70
     1
  9
$DIMTOH
 70
     1
  9
$DIMSE1
 70
     0
  9
$DIMSE2
 70
     0
  9
$DIMTAD
 70
     0
  9
$DIMZIN
 70
     8
  9
$DIMBLK
  1

  9
$DIMASO
 70
     1
  9
$DIMSHO
 70
     1
  9
$DIMPOST
  1

  9
$DIMAPOST
  1

  9
$DIMALT
 70
     0
  9
$DIMALTD
 70
     2
  9
$DIMALTF
 40
25.4
  9
$DIMLFAC
 40
1.0
  9
$DIMTOFL
 70
     0
  9
$DIMTVP
 40
0.0
  9
$DIMTIX
 70
     0
  9
$DIMSOXD
 70
     0
  9
$DIMSAH
 70
     0
  9
$DIMBLK1
  1

  9
$DIMBLK2
  1

  9
$DIMSTYLE
  2
STANDARD
  9
$DIMCLRD
 70
   256
  9
$DIMCLRE
 70
   256
  9
$DIMCLRT
 70
   256
  9
$DIMTFAC
 40
1.0
  9
$DIMGAP
 40
0.09
  9
$DIMJUST
 70
     0
  9
$DIMSD1
 70
     0
  9
$DIMSD2
 70
     0
  9
$DIMTOLJ
 70
     1
  9
$DIMTZIN
 70
     0
  9
$DIMALTZ
 70
     0
  9
$DIMALTTZ
 70
     0
  9
$DIMFIT
 70
     3
  9
$DIMUPT
 70
     1
  9
$DIMUNIT
 70
     7
  9
$DIMDEC
 70
     4
  9
$DIMTDEC
 70
     4
  9
$DIMALTU
 70
     2
  9
$DIMALTTD
 70
     2
  9
$DIMTXSTY
  7
STANDARD
  9
$DIMAUNIT
 70
     0
  9
$LUNITS
 70
     5
  9
$LUPREC
 70
     6
  9
$SKETCHINC
 40
0.1
  9
$FILLETRAD
 40
0.0
  9
$AUNITS
 70
     0
  9
$AUPREC
 70
     1
  9
$MENU
  1
CUSTOM
  9
$ELEVATION
 40
0.0
  9
$PELEVATION
 40
0.0
  9
$THICKNESS
 40
0.0
  9
$LIMCHECK
 70
     0
  9
$BLIPMODE
 70
     0
  9
$CHAMFERA
 40
0.0
  9
$CHAMFERB
 40
0.0
  9
$CHAMFERC
 40
0.0
  9
$CHAMFERD
 40
0.0
  9
$SKPOLY
 70
     0
  9
$TDCREATE
 40
2451263.621564698
  9
$TDUPDATE
 40
2453025.974543900
  9
$TDINDWG
 40
1.0590248611
  9
$TDUSRTIMER
 40
1.0590248611
  9
$USRTIMER
 70
     1
  9
$ANGBASE
 50
0.0
  9
$ANGDIR
 70
     0
  9
$PDMODE
 70
     0
  9
$PDSIZE
 40
0.0
  9
$PLINEWID
 40
0.0
  9
$COORDS
 70
     2
  9
$SPLFRAME
 70
     0
  9
$SPLINETYPE
 70
     6
  9
$SPLINESEGS
 70
     8
  9
$ATTDIA
 70
     0
  9
$ATTREQ
 70
     0
  9
$HANDLING
 70
     1
  9
$HANDSEED
  5
149
  9
$SURFTAB1
 70
     6
  9
$SURFTAB2
 70
     6
  9
$SURFTYPE
 70
     6
  9
$SURFU
 70
     6
  9
$SURFV
 70
     6
  9
$UCSNAME
  2

  9
$UCSORG
 10
0.0
 20
0.0
 30
0.0
  9
$UCSXDIR
 10
1.0
 20
0.0
 30
0.0
  9
$UCSYDIR
 10
0.0
 20
1.0
 30
0.0
  9
$PUCSNAME
  2

  9
$PUCSORG
 10
0.0
 20
0.0
 30
0.0
  9
$PUCSXDIR
 10
1.0
 20
0.0
 30
0.0
  9
$PUCSYDIR
 10
0.0
 20
1.0
 30
0.0
  9
$USERI1
 70
     0
  9
$USERI2
 70
     0
  9
$USERI3
 70
     0
  9
$USERI4
 70
     0
  9
$USERI5
 70
     0
  9
$USERR1
 40
0.0
  9
$USERR2
 40
0.0
  9
$USERR3
 40
0.0
  9
$USERR4
 40
0.0
  9
$USERR5
 40
0.0
  9
$WORLDVIEW
 70
     1
  9
$SHADEDGE
 70
     3
  9
$SHADEDIF
 70
    70
  9
$TILEMODE
 70
     1
  9
$MAXACTVP
 70
    16
  9
$PINSBASE
 10
0.0
 20
0.0
 30
0.0
  9
$PLIMCHECK
 70
     0
  9
$PEXTMIN
 10
1.000000000000000E+20
 20
1.000000000000000E+20
 30
1.000000000000000E+20
  9
$PEXTMAX
 10
-1.000000000000000E+20
 20
-1.000000000000000E+20
 30
-1.000000000000000E+20
  9
$PLIMMIN
 10
0.0
 20
0.0
  9
$PLIMMAX
 10
12.0
 20
9.0
  9
$UNITMODE
 70
     0
  9
$VISRETAIN
 70
     0
  9
$PLINEGEN
 70
     0
  9
$PSLTSCALE
 70
     0
  9
$TREEDEPTH
 70
  3020
  9
$PICKSTYLE
 70
     1
  9
$CMLSTYLE
  2
STANDARD
  9
$CMLJUST
 70
     0
  9
$CMLSCALE
 40
1.0
  9
$PROXYGRAPHICS
 70
     1
  9
$MEASUREMENT
 70
     0
  0
ENDSEC
  0
SECTION
  2
CLASSES
  0
CLASS
  1
ACDBDICTIONARYWDFLT
  2
AcDbDictionaryWithDefault
  3
AutoCAD 2000
 90
        0
280
     0
281
     0
  0
CLASS
  1
ACDBPLACEHOLDER
  2
AcDbPlaceHolder
  3
AutoCAD 2000
 90
        0
280
     0
281
     0
  0
CLASS
  1
LAYOUT
  2
AcDbLayout
  3
AutoCAD 2000
 90
        0
280
     0
281
     0
  0
CLASS
  1
DICTIONARYVAR
  2
AcDbDictionaryVar
  3
"AutoCAD"
 90
        0
280
     0
281
     0
  0
CLASS
  1
SORTENTSTABLE
  2
AcDbSortentsTable
  3
"AutoCAD"
 90
        0
280
     0
281
     0
  0
CLASS
  1
LONG_TRANSACTION
  2
AcDbLongTransaction
  3
AutoCAD 2000
 90
        0
280
     0
281
     0
  0
CLASS
  1
LWPOLYLINE
  2
AcDbPolyline
  3
"AutoCAD"
 90
        0
280
     0
281
     1
  0
CLASS
  1
HATCH
  2
AcDbHatch
  3
"ACAD_SEDONA"
 90
        0
280
     0
281
     1
  0
CLASS
  1
XRECORD
  2
AcDbXrecord
  3
"<Built In>"
 90
        0
280
     0
281
     0
  0
CLASS
  1
LONG_TRANSACTION
  2
AcDbLongTransaction
  3
AutoCAD 2000
 90
        0
280
     0
281
     0
  0
CLASS
  1
LWPOLYLINE
  2
AcDbPolyline
  3
"AutoCAD"
 90
        0
280
     0
281
     1
  0
CLASS
  1
HATCH
  2
AcDbHatch
  3
"ACAD_SEDONA"
 90
        0
280
     0
281
     1
  0
CLASS
  1
XRECORD
  2
AcDbXrecord
  3
"<Built In>"
 90
        0
280
     0
281
     0
  0
CLASS
  1
LONG_TRANSACTION
  2
AcDbLongTransaction
  3
AutoCAD 2000
 90
        0
280
     0
281
     0
  0
CLASS
  1
LWPOLYLINE
  2
AcDbPolyline
  3
"AutoCAD"
 90
        0
280
     0
281
     1
  0
CLASS
  1
HATCH
  2
AcDbHatch
  3
"ACAD_SEDONA"
 90
        0
280
     0
281
     1
  0
CLASS
  1
XRECORD
  2
AcDbXrecord
  3
"<Built In>"
 90
        0
280
     0
281
     0
  0
CLASS
  1
LONG_TRANSACTION
  2
AcDbLongTransaction
  3
AutoCAD 2000
 90
        0
280
     0
281
     0
  0
CLASS
  1
LWPOLYLINE
  2
AcDbPolyline
  3
"AutoCAD"
 90
        0
280
     0
281
     1
  0
CLASS
  1
HATCH
  2
AcDbHatch
  3
"ACAD_SEDONA"
 90
        0
280
     0
281
     1
  0
CLASS
  1
XRECORD
  2
AcDbXrecord
  3
"<Built In>"
 90
        0
280
     0
281
     0
  0
CLASS
  1
LONG_TRANSACTION
  2
AcDbLongTransaction
  3
AutoCAD 2000
 90
        0
280
     0
281
     0
  0
CLASS
  1
LWPOLYLINE
  2
AcDbPolyline
  3
"AutoCAD"
 90
        0
280
     0
281
     1
  0
CLASS
  1
HATCH
  2
AcDbHatch
  3
"ACAD_SEDONA"
 90
        0
280
     0
281
     1
  0
CLASS
  1
XRECORD
  2
AcDbXrecord
  3
"<Built In>"
 90
        0
280
     0
281
     0
  0
ENDSEC
  0
SECTION
  2
TABLES
  0
TABLE
  2
VPORT
  5
13A
100
AcDbSymbolTable
 70
     1
  0
VPORT
  5
13B
100
AcDbSymbolTableRecord
100
AcDbViewportTableRecord
  2
*ACTIVE
 70
     0
 10
0.0
 20
0.0
 11
1.0
 21
1.0
 12
0.2459077885550851
 22
11.11909976146551
 13
0.0
 23
0.0
 14
1.0
 24
1.0
 15
0.0
 25
0.0
 16
0.0
 26
0.0
 36
1.0
 17
6.06837910298595
 27
-3.729210327646862
 37
-0.3056132789984319
 40
14.8775743660434
 41
1.379227053140096
 42
50.0
 43
0.0
 44
0.0
 50
0.0
 51
0.0
 71
     0
 72
   100
 73
     1
 74
     1
 75
     0
 76
     0
 77
     0
 78
     0
  0
ENDTAB
  0
TABLE
  2
LTYPE
  5
135
100
AcDbSymbolTable
 70
     1
  0
LTYPE
  5
136
100
AcDbSymbolTableRecord
100
AcDbLinetypeTableRecord
  2
BYBLOCK
 70
     0
  3

 72
    65
 73
     0
 40
0.0
  0
LTYPE
  5
137
100
AcDbSymbolTableRecord
100
AcDbLinetypeTableRecord
  2
BYLAYER
 70
     0
  3

 72
    65
 73
     0
 40
0.0
  0
LTYPE
  5
5
100
AcDbSymbolTableRecord
100
AcDbLinetypeTableRecord
  2
CONTINUOUS
 70
     0
  3
Solid line
 72
    65
 73
     0
 40
0.0
  0
ENDTAB
  0
TABLE
  2
LAYER
  5
133
100
AcDbSymbolTable
 70
     4
  0
LAYER
  5
7A
100
AcDbSymbolTableRecord
100
AcDbLayerTableRecord
  2
0
 70
     0
 62
     7
  6
CONTINUOUS
  0
LAYER
  5
8
102
{ACAD_XDICTIONARY
360
9
102
}
100
AcDbSymbolTableRecord
100
AcDbLayerTableRecord
  2
USP-GEO
 70
     0
 62
     7
  6
CONTINUOUS
  0
LAYER
  5
75
102
{ACAD_XDICTIONARY
360
76
102
}
100
AcDbSymbolTableRecord
100
AcDbLayerTableRecord
  2
USP-TXT
 70
     0
 62
     7
  6
CONTINUOUS
  0
LAYER
  5
4
100
AcDbSymbolTableRecord
100
AcDbLayerTableRecord
  2
USP
 70
     0
 62
     7
  6
CONTINUOUS
  0
ENDTAB
  0
TABLE
  2
STYLE
  5
134
100
AcDbSymbolTable
 70
     1
  0
STYLE
  5
78
100
AcDbSymbolTableRecord
100
AcDbTextStyleTableRecord
  2
STANDARD
 70
     0
 40
0.0
 41
1.0
 50
0.0
 71
     0
 42
0.25
  3
txt
  4

  0
ENDTAB
  0
TABLE
  2
VIEW
  5
138
100
AcDbSymbolTable
 70
     0
  0
ENDTAB
  0
TABLE
  2
UCS
  5
139
100
AcDbSymbolTable
 70
     0
  0
ENDTAB
  0
TABLE
  2
APPID
  5
13C
100
AcDbSymbolTable
 70
     1
  0
APPID
  5
19
100
AcDbSymbolTableRecord
100
AcDbRegAppTableRecord
  2
ACAD
 70
     0
  0
ENDTAB
  0
TABLE
  2
DIMSTYLE
  5
13D
100
AcDbSymbolTable
 70
     1
  0
DIMSTYLE
105
143
102
{ACAD_XDICTIONARY
360
144
102
}
100
AcDbSymbolTableRecord
100
AcDbDimStyleTableRecord
  2
STANDARD
 70
     0
  3

  4

  5

  6

  7

 40
1.0
 41
0.125
 42
0.0625
 43
0.38
 44
0.09375
 45
0.0
 46
0.0
 47
0.0
 48
0.0
140
0.109375
141
0.0
142
0.0
143
25.4
144
1.0
145
0.0
146
1.0
147
0.09
 71
     0
 72
     0
 73
     1
 74
     1
 75
     0
 76
     0
 77
     0
 78
     8
170
     0
171
     2
172
     0
173
     0
174
     0
175
     0
176
     0
177
     0
178
     0
270
     7
271
     4
272
     4
273
     2
274
     2
340
78
275
     0
280
     0
281
     0
282
     0
283
     1
284
     0
285
     0
286
     0
287
     3
288
     0
  0
ENDTAB
  0
TABLE
  2
BLOCK_RECORD
  5
1
100
AcDbSymbolTable
 70
     3
  0
BLOCK_RECORD
  5
2
102
{ACAD_XDICTIONARY
360
12A
102
}
100
AcDbSymbolTableRecord
100
AcDbBlockTableRecord
  2
*MODEL_SPACE
  0
BLOCK_RECORD
  5
12E
102
{ACAD_XDICTIONARY
360
12F
102
}
100
AcDbSymbolTableRecord
100
AcDbBlockTableRecord
  2
*PAPER_SPACE
  0
BLOCK_RECORD
  5
6
100
AcDbSymbolTableRecord
100
AcDbBlockTableRecord
  2
TMP175PR_T
  0
BLOCK_RECORD
  5
7D
100
AcDbSymbolTableRecord
100
AcDbBlockTableRecord
  2
TMP175PR_F
  0
BLOCK_RECORD
  5
EC
100
AcDbSymbolTableRecord
100
AcDbBlockTableRecord
  2
TMP175PR_S
  0
ENDTAB
  0
ENDSEC
  0
SECTION
  2
BLOCKS
  0
BLOCK
  5
12C
100
AcDbEntity
  8
0
100
AcDbBlockBegin
  2
*MODEL_SPACE
 70
     0
 10
0.0
 20
0.0
 30
0.0
  3
*MODEL_SPACE
  1

  0
ENDBLK
  5
12D
100
AcDbEntity
  8
0
100
AcDbBlockEnd
  0
BLOCK
  5
131
100
AcDbEntity
 67
     1
  8
0
100
AcDbBlockBegin
  2
*PAPER_SPACE
 70
     0
 10
0.0
 20
0.0
 30
0.0
  3
*PAPER_SPACE
  1

  0
ENDBLK
  5
132
100
AcDbEntity
 67
     1
  8
0
100
AcDbBlockEnd
  0
BLOCK
  5
79
100
AcDbEntity
  8
0
100
AcDbBlockBegin
  2
TMP175PR_T
 70
     0
 10
0.0
 20
0.0
 30
0.0
  3
TMP175PR_T
  1

  0
LWPOLYLINE
  5
7
100
AcDbEntity
  8
USP-GEO
100
AcDbPolyline
 90
        2
 70
   128
 43
0.0
 10
3.689296304635263
 20
3.596778970446701
 10
3.689296304635263
 20
4.080148520808689
  0
LWPOLYLINE
  5
B
100
AcDbEntity
  8
USP-GEO
100
AcDbPolyline
 90
        2
 70
   128
 43
0.0
 10
3.742929541846025
 20
4.080148520808689
 10
3.689296304635263
 20
4.080148520808689
  0
LWPOLYLINE
  5
C
100
AcDbEntity
  8
USP-GEO
100
AcDbPolyline
 90
        2
 70
   128
 43
0.0
 10
3.742929541846025
 20
4.080148520808689
 10
3.742929541846025
 20
3.596778970446701
  0
LWPOLYLINE
  5
D
100
AcDbEntity
  8
USP-GEO
100
AcDbPolyline
 90
        2
 70
   128
 43
0.0
 10
3.689296304635263
 20
3.596778970446701
 10
3.689296304635263
 20
2.321648755760843
  0
LWPOLYLINE
  5
E
100
AcDbEntity
  8
USP-GEO
100
AcDbPolyline
 90
        2
 70
   128
 43
0.0
 10
3.742929541846025
 20
3.596778970446701
 10
3.689296304635263
 20
3.596778970446701
  0
LWPOLYLINE
  5
F
100
AcDbEntity
  8
USP-GEO
100
AcDbPolyline
 90
        2
 70
   128
 43
0.0
 10
3.742929541846025
 20
3.596778970446701
 10
3.742929541846025
 20
2.321648755760843
  0
LWPOLYLINE
  5
10
100
AcDbEntity
  8
USP-GEO
100
AcDbPolyline
 90
        2
 70
   128
 43
0.0
 10
3.742929541846025
 20
2.321648755760843
 10
3.689296304635263
 20
2.321648755760843
  0
LWPOLYLINE
  5
11
100
AcDbEntity
  8
USP-GEO
100
AcDbPolyline
 90
        2
 70
   128
 43
0.0
 10
1.824200480631028
 20
4.080148520808689
 10
1.87783371784179
 20
4.080148520808689
  0
LWPOLYLINE
  5
12
100
AcDbEntity
  8
USP-GEO
100
AcDbPolyline
 90
        2
 70
   128
 43
0.0
 10
1.87783371784179
 20
3.596778970446701
 10
1.87783371784179
 20
4.080148520808689
  0
LWPOLYLINE
  5
13
100
AcDbEntity
  8
USP-GEO
100
AcDbPolyline
 90
        2
 70
   128
 43
0.0
 10
1.824200480631028
 20
4.080148520808689
 10
1.824200480631028
 20
3.596778970446701
  0
LWPOLYLINE
  5
14
100
AcDbEntity
  8
USP-GEO
100
AcDbPolyline
 90
        2
 70
   128
 43
0.0
 10
1.824200480631028
 20
3.596778970446701
 10
1.87783371784179
 20
3.596778970446701
  0
LWPOLYLINE
  5
15
100
AcDbEntity
  8
USP-GEO
100
AcDbPolyline
 90
        2
 70
   128
 43
0.0
 10
1.87783371784179
 20
3.596778970446701
 10
1.87783371784179
 20
2.321648755760843
  0
LWPOLYLINE
  5
16
100
AcDbEntity
  8
USP-GEO
100
AcDbPolyline
 90
        2
 70
   128
 43
0.0
 10
1.824200480631028
 20
3.596778970446701
 10
1.824200480631028
 20
2.321648755760843
  0
LWPOLYLINE
  5
17
100
AcDbEntity
  8
USP-GEO
100
AcDbPolyline
 90
        2
 70
   128
 43
0.0
 10
1.824200480631028
 20
2.321648755760843
 10
1.87783371784179
 20
2.321648755760843
  0
ELLIPSE
  5
18
100
AcDbEntity
  8
USP-GEO
  6
CONTINUOUS
100
AcDbEllipse
 10
1.677240244506007
 20
0.8808860905173467
 30
0.0
 11
-0.0541902340673357
 21
0.0561018585407597
 31
0.0
210
0.0
220
0.0
230
1.0
 40
0.1830127018922194
 41
4.011410779332244
 42
6.143740278054977
1001
ACAD
1000
RTLwPs
1070
   128
  0
ELLIPSE
  5
1A
100
AcDbEntity
  8
USP-GEO
  6
CONTINUOUS
100
AcDbEllipse
 10
1.677240244506007
 20
0.8808860905173467
 30
0.0
 11
-0.0541902340673357
 21
0.0561018585407597
 31
0.0
210
0.0
220
0.0
230
1.0
 40
0.1830127018922194
 41
6.110651851593162
 42
10.30815195977255
1001
ACAD
1000
RTLwPs
1070
   128
  0
LWPOLYLINE
  5
1B
100
AcDbEntity
  8
USP-GEO
100
AcDbPolyline
 90
        2
 70
   128
 43
0.0
 10
3.742929541846025
 20
0.4029196945458473
 10
3.742929541846025
 20
0.0
  0
LWPOLYLINE
  5
1C
100
AcDbEntity
  8
USP-GEO
100
AcDbPolyline
 90
        2
 70
   128
 43
0.0
 10
3.689296304635263
 20
0.0
 10
3.742929541846025
 20
0.0
  0
LWPOLYLINE
  5
1D
100
AcDbEntity
  8
USP-GEO
100
AcDbPolyline
 90
        2
 70
   128
 43
0.0
 10
3.742929541846025
 20
0.4029196945458473
 10
3.742929541846025
 20
2.268015518550082
  0
LWPOLYLINE
  5
1E
100
AcDbEntity
  8
USP-GEO
100
AcDbPolyline
 90
        2
 70
   128
 43
0.0
 10
3.689296304635263
 20
0.4029196945458473
 10
3.742929541846025
 20
0.4029196945458473
  0
LWPOLYLINE
  5
1F
100
AcDbEntity
  8
USP-GEO
100
AcDbPolyline
 90
        2
 70
   128
 43
0.0
 10
3.689296304635263
 20
0.4029196945458473
 10
3.689296304635263
 20
2.22779059064201
  0
LWPOLYLINE
  5
20
100
AcDbEntity
  8
USP-GEO
100
AcDbPolyline
 90
        2
 70
   128
 43
0.0
 10
3.689296304635263
 20
0.0
 10
3.689296304635263
 20
0.4029196945458473
  0
LWPOLYLINE
  5
21
100
AcDbEntity
  8
USP-GEO
100
AcDbPolyline
 90
        2
 70
   128
 43
0.0
 10
1.87783371784179
 20
2.22779059064201
 10
1.87783371784179
 20
0.4029196945458473
  0
LWPOLYLINE
  5
22
100
AcDbEntity
  8
USP-GEO
100
AcDbPolyline
 90
        2
 70
   128
 43
0.0
 10
1.87783371784179
 20
0.4029196945458473
 10
1.824200480631028
 20
0.4029196945458473
  0
LWPOLYLINE
  5
23
100
AcDbEntity
  8
USP-GEO
100
AcDbPolyline
 90
        2
 70
   128
 43
0.0
 10
1.87783371784179
 20
0.4029196945458473
 10
1.87783371784179
 20
0.0
  0
LWPOLYLINE
  5
24
100
AcDbEntity
  8
USP-GEO
100
AcDbPolyline
 90
        2
 70
   128
 43
0.0
 10
1.87783371784179
 20
0.0
 10
1.824200480631028
 20
0.0
  0
LWPOLYLINE
  5
25
100
AcDbEntity
  8
USP-GEO
100
AcDbPolyline
 90
        2
 70
   128
 43
0.0
 10
1.87783371784179
 20
1.32876345189662
 10
1.985770607728448
 20
1.301946833291239
  0
ELLIPSE
  5
26
100
AcDbEntity
  8
USP-GEO
  6
CONTINUOUS
100
AcDbEllipse
 10
1.914790995839009
 20
1.278436459415125
 30
0.0
 11
-0.09375
 21
0.0
 31
0.0
210
0.0
220
0.0
230
1.0
 40
0.2588190451025208
 41
4.049096300799408
 42
9.804516214835599
1001
ACAD
1000
RTLwPs
1070
   128
  0
LWPOLYLINE
  5
27
100
AcDbEntity
  8
USP-GEO
100
AcDbPolyline
 90
        2
 70
   128
 43
0.0
 10
2.012587226333828
 20
1.288538523988549
 10
2.012587226333828
 20
1.275130214685857
  0
ELLIPSE
  5
28
100
AcDbEntity
  8
USP-GEO
  6
CONTINUOUS
100
AcDbEllipse
 10
2.789840995837119
 20
1.278436459415125
 30
0.0
 11
-0.078
 21
0.0
 31
0.0
210
0.0
220
0.0
230
1.0
 40
0.2588190451025208
 41
3.587997076254557
 42
5.82937752949931
1001
ACAD
1000
RTLwPs
1070
   128
  0
LWPOLYLINE
  5
29
100
AcDbEntity
  8
USP-GEO
100
AcDbPolyline
 90
        2
 70
   128
 43
0.0
 10
2.870719021706014
 20
1.288538523988549
 10
2.870719021706014
 20
1.275130214685857
  0
ELLIPSE
  5
2A
100
AcDbEntity
  8
USP-GEO
  6
CONTINUOUS
100
AcDbEllipse
 10
3.664890995837533
 20
1.278436459415125
 30
0.0
 11
-0.09375
 21
0.0
 31
0.0
210
0.0
220
0.0
230
1.0
 40
0.2588190451025208
 41
5.897999121324192
 42
11.64834578424181
1001
ACAD
1000
RTLwPs
1070
   128
  0
LWPOLYLINE
  5
2B
100
AcDbEntity
  8
USP-GEO
100
AcDbPolyline
 90
        2
 70
   128
 43
0.0
 10
3.59543813951643
 20
1.301946833291239
 10
3.689296304635263
 20
1.32876345189662
  0
LWPOLYLINE
  5
2C
100
AcDbEntity
  8
USP-GEO
100
AcDbPolyline
 90
        2
 70
   128
 43
0.0
 10
3.689296304635263
 20
2.22779059064201
 10
1.87783371784179
 20
2.22779059064201
  0
LWPOLYLINE
  5
2D
100
AcDbEntity
  8
USP-GEO
100
AcDbPolyline
 90
        2
 70
   128
 43
0.0
 10
1.824200480631028
 20
0.4029196945458473
 10
1.824200480631028
 20
2.268015518550082
  0
LWPOLYLINE
  5
2E
100
AcDbEntity
  8
USP-GEO
100
AcDbPolyline
 90
        2
 70
   128
 43
0.0
 10
1.824200480631028
 20
0.4029196945458473
 10
1.824200480631028
 20
0.0
  0
ELLIPSE
  5
2F
100
AcDbEntity
  8
USP-GEO
  6
CONTINUOUS
100
AcDbEllipse
 10
3.902441747168753
 20
0.8808860905178441
 30
0.0
 11
0.0541902340673357
 21
0.0561018585407597
 31
0.0
210
0.0
220
0.0
230
1.0
 40
0.1830127018922187
 41
2.305193581198493
 42
2.905783553288538
1001
ACAD
1000
RTLwPs
1070
   128
  0
ELLIPSE
  5
30
100
AcDbEntity
  8
USP-GEO
  6
CONTINUOUS
100
AcDbEllipse
 10
3.902441747168753
 20
0.8808860905178441
 30
0.0
 11
0.0541902340673357
 21
0.0561018585407597
 31
0.0
210
0.0
220
0.0
230
1.0
 40
0.1830127018922187
 41
2.140693889786509
 42
2.290061393503676
1001
ACAD
1000
RTLwPs
1070
   128
  0
ELLIPSE
  5
31
100
AcDbEntity
  8
USP-GEO
  6
CONTINUOUS
100
AcDbEllipse
 10
3.902441747168753
 20
0.8808860905178441
 30
0.0
 11
0.0541902340673357
 21
0.0561018585407597
 31
0.0
210
0.0
220
0.0
230
1.0
 40
0.1830127018922187
 41
2.872687901399725
 42
3.66542546570938
1001
ACAD
1000
RTLwPs
1070
   128
  0
ELLIPSE
  5
32
100
AcDbEntity
  8
USP-GEO
  6
CONTINUOUS
100
AcDbEllipse
 10
3.902441747168753
 20
0.8808860905178441
 30
0.0
 11
0.0541902340673357
 21
0.0561018585407597
 31
0.0
210
0.0
220
0.0
230
1.0
 40
0.1830127018922187
 41
3.860989061806818
 42
9.91287188801029
1001
ACAD
1000
RTLwPs
1070
   128
  0
ELLIPSE
  5
33
100
AcDbEntity
  8
USP-GEO
  6
CONTINUOUS
100
AcDbEllipse
 10
3.902441747168753
 20
0.8808860905178441
 30
0.0
 11
0.0541902340673357
 21
0.0561018585407597
 31
0.0
210
0.0
220
0.0
230
1.0
 40
0.1830127018922187
 41
0.8461858347811819
 42
2.127994156483202
1001
ACAD
1000
RTLwPs
1070
   128
  0
ELLIPSE
  5
34
100
AcDbEntity
  8
USP-GEO
  6
CONTINUOUS
100
AcDbEllipse
 10
3.902441747168753
 20
0.8808860905178441
 30
0.0
 11
0.0541902340673357
 21
0.0561018585407597
 31
0.0
210
0.0
220
0.0
230
1.0
 40
0.1830127018922187
 41
3.819712680174281
 42
5.613603242159708
1001
ACAD
1000
RTLwPs
1070
   128
  0
ELLIPSE
  5
35
100
AcDbEntity
  8
USP-GEO
  6
CONTINUOUS
100
AcDbEllipse
 10
3.902441747168753
 20
0.8808860905178441
 30
0.0
 11
0.0541902340673357
 21
0.0561018585407597
 31
0.0
210
0.0
220
0.0
230
1.0
 40
0.1830127018922187
 41
0.0973027706065036
 42
0.8719072096515674
1001
ACAD
1000
RTLwPs
1070
   128
  0
ELLIPSE
  5
36
100
AcDbEntity
  8
USP-GEO
  6
CONTINUOUS
100
AcDbEllipse
 10
3.902441747168753
 20
0.8808860905178441
 30
0.0
 11
0.0541902340673357
 21
0.0561018585407597
 31
0.0
210
0.0
220
0.0
230
1.0
 40
0.1830127018922187
 41
5.587642940244096
 42
6.347679803818421
1001
ACAD
1000
RTLwPs
1070
   128
  0
LWPOLYLINE
  5
37
100
AcDbEntity
  8
USP-GEO
100
AcDbPolyline
 90
        2
 70
   128
 43
0.0
 10
3.689296304635263
 20
2.268015518550082
 10
3.742929541846025
 20
2.268015518550082
  0
LWPOLYLINE
  5
38
100
AcDbEntity
  8
USP-GEO
100
AcDbPolyline
 90
        2
 70
   128
 43
0.0
 10
3.689296304635263
 20
2.268015518550082
 10
1.87783371784179
 20
2.268015518550082
  0
LWPOLYLINE
  5
39
100
AcDbEntity
  8
USP-GEO
100
AcDbPolyline
 90
        2
 70
   128
 43
0.0
 10
1.87783371784179
 20
2.268015518550082
 10
1.824200480631028
 20
2.268015518550082
  0
LWPOLYLINE
  5
3A
100
AcDbEntity
  8
USP-GEO
100
AcDbPolyline
 90
        2
 70
   128
 43
0.0
 10
2.709819310073729
 20
1.275130214685857
 10
2.709819310073729
 20
1.288538523988549
  0
LWPOLYLINE
  5
3B
100
AcDbEntity
  8
USP-GEO
100
AcDbPolyline
 90
        2
 70
   128
 43
0.0
 10
3.568621520911049
 20
1.275130214685857
 10
3.568621520911049
 20
1.288538523988549
  0
LWPOLYLINE
  5
3C
100
AcDbEntity
  8
USP-GEO
100
AcDbPolyline
 90
        2
 70
   128
 43
0.0
 10
1.87783371784179
 20
2.321648755760843
 10
1.878504133306925
 20
2.321648755760843
  0
LWPOLYLINE
  5
3D
100
AcDbEntity
  8
USP-GEO
100
AcDbPolyline
 90
        2
 70
   128
 43
0.0
 10
1.824200480631028
 20
2.321648755760843
 10
1.87783371784179
 20
2.321648755760843
  0
LWPOLYLINE
  5
3E
100
AcDbEntity
  8
USP-GEO
100
AcDbPolyline
 90
        2
 70
   128
 43
0.0
 10
1.824200480631028
 20
2.321648755760843
 10
1.824870896096163
 20
2.321648755760843
  0
LWPOLYLINE
  5
3F
100
AcDbEntity
  8
USP-GEO
100
AcDbPolyline
 90
        2
 70
   128
 43
0.0
 10
2.870719021706014
 20
1.275130214685857
 10
3.568621520911049
 20
1.275130214685857
  0
LWPOLYLINE
  5
40
100
AcDbEntity
  8
USP-GEO
100
AcDbPolyline
 90
        2
 70
   128
 43
0.0
 10
2.012587226333828
 20
1.275130214685857
 10
2.709819310073729
 20
1.275130214685857
  0
CIRCLE
  5
41
100
AcDbEntity
  8
USP-GEO
100
AcDbCircle
 10
0.6516695894892131
 20
1.408562564411024
 30
0.0
 40
0.156
  0
CIRCLE
  5
42
100
AcDbEntity
  8
USP-GEO
100
AcDbCircle
 10
1.121040995837171
 20
1.568577869069791
 30
0.0
 40
0.078
  0
CIRCLE
  5
43
100
AcDbEntity
  8
USP-GEO
100
AcDbCircle
 10
0.3054843773987805
 20
1.808577869069829
 30
0.0
 40
0.078
  0
CIRCLE
  5
44
100
AcDbEntity
  8
USP-GEO
100
AcDbCircle
 10
4.928012402185084
 20
1.40856256441102
 30
0.0
 40
0.156
  0
CIRCLE
  5
45
100
AcDbEntity
  8
USP-GEO
100
AcDbCircle
 10
5.274197614275459
 20
1.808577869069825
 30
0.0
 40
0.078
  0
CIRCLE
  5
46
100
AcDbEntity
  8
USP-GEO
100
AcDbCircle
 10
4.458640995837066
 20
1.568577869069791
 30
0.0
 40
0.078
  0
CIRCLE
  5
47
100
AcDbEntity
  8
USP-GEO
100
AcDbCircle
 10
2.789840995837122
 20
3.766977869069751
 30
0.0
 40
0.078
  0
LWPOLYLINE
  5
48
100
AcDbEntity
  8
USP-GEO
100
AcDbPolyline
 90
        2
 70
   128
 43
0.0
 10
1.52921767597184
 20
1.074005575145502
 10
1.582850913182602
 20
1.127638812356263
  0
LWPOLYLINE
  5
49
100
AcDbEntity
  8
USP-GEO
100
AcDbPolyline
 90
        2
 70
   128
 43
0.0
 10
1.52921767597184
 20
1.074005575145502
 10
1.52921767597184
 20
1.020372337934739
  0
LWPOLYLINE
  5
4A
100
AcDbEntity
  8
USP-GEO
100
AcDbPolyline
 90
        2
 70
   128
 43
0.0
 10
0.0
 20
1.020372337934739
 10
1.52921767597184
 20
1.020372337934739
  0
LWPOLYLINE
  5
4B
100
AcDbEntity
  8
USP-GEO
100
AcDbPolyline
 90
        2
 70
   128
 43
0.0
 10
0.0
 20
2.133932425523177
 10
0.0
 20
1.020372337934739
  0
LWPOLYLINE
  5
4C
100
AcDbEntity
  8
USP-GEO
100
AcDbPolyline
 90
        2
 70
   128
 43
0.0
 10
1.824200480631028
 20
2.133932425523177
 10
0.0
 20
2.133932425523177
  0
ARC
  5
4D
100
AcDbEntity
  8
USP-GEO
100
AcDbCircle
 10
1.852290995834916
 20
2.223227869069791
 30
0.0
 40
0.09375
100
AcDbArc
 50
29.49564017745493
 51
75.45125639683559
  0
LWPOLYLINE
  5
4E
100
AcDbEntity
  8
USP-GEO
100
AcDbPolyline
 90
        2
 70
   128
 43
0.0
 10
1.87783371784179
 20
4.080148520808689
 10
3.689296304635263
 20
4.080148520808689
  0
ARC
  5
4F
100
AcDbEntity
  8
USP-GEO
100
AcDbCircle
 10
3.727390995838215
 20
2.223227869069791
 30
0.0
 40
0.09375
100
AcDbArc
 50
111.1593781540884
 51
150.2366024297833
  0
LWPOLYLINE
  5
50
100
AcDbEntity
  8
USP-GEO
100
AcDbPolyline
 90
        2
 70
   128
 43
0.0
 10
3.742929541846025
 20
2.133932425523177
 10
5.567800437942187
 20
2.133932425523177
  0
LWPOLYLINE
  5
51
100
AcDbEntity
  8
USP-GEO
100
AcDbPolyline
 90
        2
 70
   128
 43
0.0
 10
5.567800437942187
 20
1.020372337934739
 10
5.567800437942187
 20
2.133932425523177
  0
LWPOLYLINE
  5
52
100
AcDbEntity
  8
USP-GEO
100
AcDbPolyline
 90
        2
 70
   128
 43
0.0
 10
5.567800437942187
 20
1.020372337934739
 10
4.051320655807904
 20
1.020372337934739
  0
LWPOLYLINE
  5
53
100
AcDbEntity
  8
USP-GEO
100
AcDbPolyline
 90
        2
 70
   128
 43
0.0
 10
4.051320655807904
 20
1.074005575145502
 10
4.051320655807904
 20
1.020372337934739
  0
LWPOLYLINE
  5
54
100
AcDbEntity
  8
USP-GEO
100
AcDbPolyline
 90
        2
 70
   128
 43
0.0
 10
4.051320655807904
 20
1.074005575145502
 10
3.997687418597141
 20
1.127638812356263
  0
LWPOLYLINE
  5
55
100
AcDbEntity
  8
USP-GEO
100
AcDbPolyline
 90
        2
 70
   128
 43
0.0
 10
3.742929541846025
 20
2.321648755760843
 10
3.689296304635263
 20
2.321648755760843
  0
LWPOLYLINE
  5
56
100
AcDbEntity
  8
USP-GEO
100
AcDbPolyline
 90
        2
 70
   128
 43
0.0
 10
3.742929541846025
 20
2.321648755760843
 10
3.743599957311159
 20
2.321648755760843
  0
LWPOLYLINE
  5
57
100
AcDbEntity
  8
USP-GEO
100
AcDbPolyline
 90
        2
 70
   128
 43
0.0
 10
3.689296304635263
 20
2.321648755760843
 10
3.689966720100398
 20
2.321648755760843
  0
LWPOLYLINE
  5
58
100
AcDbEntity
  8
USP-GEO
100
AcDbPolyline
 90
        2
 70
   128
 43
0.0
 10
1.757158934117576
 20
4.080148520808689
 10
1.743750624814886
 20
4.080148520808689
  0
LWPOLYLINE
  5
59
100
AcDbEntity
  8
USP-GEO
100
AcDbPolyline
 90
        2
 70
   128
 43
0.0
 10
1.743750624814886
 20
2.321648755760843
 10
1.757158934117576
 20
2.321648755760843
  0
LWPOLYLINE
  5
5A
100
AcDbEntity
  8
USP-GEO
100
AcDbPolyline
 90
        2
 70
   128
 43
0.0
 10
1.824200480631028
 20
4.080148520808689
 10
1.757158934117576
 20
4.080148520808689
  0
LWPOLYLINE
  5
5B
100
AcDbEntity
  8
USP-GEO
100
AcDbPolyline
 90
        2
 70
   128
 43
0.0
 10
1.757158934117576
 20
2.321648755760843
 10
1.824200480631028
 20
2.321648755760843
  0
LWPOLYLINE
  5
5C
100
AcDbEntity
  8
USP-GEO
100
AcDbPolyline
 90
        2
 70
   128
 43
0.0
 10
1.824200480631028
 20
3.825390644057572
 10
1.824200480631028
 20
2.684343522398618
  0
ELLIPSE
  5
5D
100
AcDbEntity
  8
USP-GEO
  6
CONTINUOUS
100
AcDbEllipse
 10
1.796538057278823
 20
3.797439739570311
 30
0.0
 11
0.0165925101613381
 21
0.068005063097164
 31
0.0
210
0.0
220
0.0
230
1.0
 40
0.4531577022195151
 41
5.358729131211489
 42
8.120055380633992
1001
ACAD
1000
RTLwPs
1070
   128
  0
LWPOLYLINE
  5
5E
100
AcDbEntity
  8
USP-GEO
100
AcDbPolyline
 90
        2
 70
   128
 43
0.0
 10
1.757158934117576
 20
2.630710285187857
 10
1.757158934117576
 20
3.785165716149499
  0
ELLIPSE
  5
5F
100
AcDbEntity
  8
USP-GEO
  6
CONTINUOUS
100
AcDbEllipse
 10
1.796528500904473
 20
2.646965029146716
 30
0.0
 11
0.0165925101613381
 21
0.068005063097164
 31
0.0
210
0.0
220
0.0
230
1.0
 40
0.4531577022195151
 41
1.890453004172778
 42
5.535276662308273
1001
ACAD
1000
RTLwPs
1070
   128
  0
LWPOLYLINE
  5
60
100
AcDbEntity
  8
USP-GEO
100
AcDbPolyline
 90
        2
 70
   128
 43
0.0
 10
1.810792171328338
 20
3.771757406846809
 10
1.810792171328338
 20
2.617301975885167
  0
ELLIPSE
  5
61
100
AcDbEntity
  8
USP-GEO
  6
CONTINUOUS
100
AcDbEllipse
 10
1.84157137827562
 20
3.786452499186228
 30
0.0
 11
0.0165925101613396
 21
0.0680050630971636
 31
0.0
210
0.0
220
0.0
230
1.0
 40
0.4531577022195478
 41
0.9323006769948754
 42
1.925196480223116
1001
ACAD
1000
RTLwPs
1070
   128
  0
ELLIPSE
  5
62
100
AcDbEntity
  8
USP-GEO
  6
CONTINUOUS
100
AcDbEllipse
 10
1.841561821901272
 20
2.635977788762634
 30
0.0
 11
0.0165925101613396
 21
0.0680050630971636
 31
0.0
210
0.0
220
0.0
230
1.0
 40
0.4531577022195478
 41
1.995847448932697
 42
2.246912016560244
1001
ACAD
1000
RTLwPs
1070
   128
  0
LWPOLYLINE
  5
63
100
AcDbEntity
  8
USP-GEO
100
AcDbPolyline
 90
        2
 70
   128
 43
0.0
 10
3.823379397662167
 20
4.080148520808689
 10
3.836787706964857
 20
4.080148520808689
  0
LWPOLYLINE
  5
64
100
AcDbEntity
  8
USP-GEO
100
AcDbPolyline
 90
        2
 70
   128
 43
0.0
 10
3.836787706964857
 20
2.321648755760843
 10
3.823379397662167
 20
2.321648755760843
  0
LWPOLYLINE
  5
65
100
AcDbEntity
  8
USP-GEO
100
AcDbPolyline
 90
        2
 70
   128
 43
0.0
 10
3.742929541846025
 20
4.080148520808689
 10
3.823379397662167
 20
4.080148520808689
  0
LWPOLYLINE
  5
66
100
AcDbEntity
  8
USP-GEO
100
AcDbPolyline
 90
        2
 70
   128
 43
0.0
 10
3.823379397662167
 20
2.321648755760843
 10
3.742929541846025
 20
2.321648755760843
  0
LWPOLYLINE
  5
67
100
AcDbEntity
  8
USP-GEO
100
AcDbPolyline
 90
        2
 70
   128
 43
0.0
 10
3.823379397662167
 20
2.630710285187857
 10
3.823379397662167
 20
3.785165716149499
  0
ELLIPSE
  5
68
100
AcDbEntity
  8
USP-GEO
  6
CONTINUOUS
100
AcDbEllipse
 10
3.783143934395418
 20
3.797439739570311
 30
0.0
 11
-0.0165925101613381
 21
0.068005063097164
 31
0.0
210
0.0
220
0.0
230
1.0
 40
0.4531577022195142
 41
4.449785444737951
 42
7.380437949724489
1001
ACAD
1000
RTLwPs
1070
   128
  0
LWPOLYLINE
  5
69
100
AcDbEntity
  8
USP-GEO
100
AcDbPolyline
 90
        2
 70
   128
 43
0.0
 10
3.742929541846025
 20
3.825390644057572
 10
3.742929541846025
 20
2.684343522398618
  0
ELLIPSE
  5
6A
100
AcDbEntity
  8
USP-GEO
  6
CONTINUOUS
100
AcDbEllipse
 10
3.783153490769771
 20
2.646965029146716
 30
0.0
 11
-0.0165925101613381
 21
0.068005063097164
 31
0.0
210
0.0
220
0.0
230
1.0
 40
0.4531577022195142
 41
0.9684709437282188
 42
4.397431609251285
1001
ACAD
1000
RTLwPs
1070
   128
  0
ELLIPSE
  5
6B
100
AcDbEntity
  8
USP-GEO
  6
CONTINUOUS
100
AcDbEllipse
 10
3.738110613398625
 20
3.786452499186228
 30
0.0
 11
-0.0165925101613396
 21
0.0680050630971636
 31
0.0
210
0.0
220
0.0
230
1.0
 40
0.4531577022195474
 41
4.364973772961484
 42
5.634197634571902
1001
ACAD
1000
RTLwPs
1070
   128
  0
LWPOLYLINE
  5
6C
100
AcDbEntity
  8
USP-GEO
100
AcDbPolyline
 90
        2
 70
   128
 43
0.0
 10
3.769746160451405
 20
3.771757406846809
 10
3.769746160451405
 20
2.617301975885167
  0
ELLIPSE
  5
6D
100
AcDbEntity
  8
USP-GEO
  6
CONTINUOUS
100
AcDbEllipse
 10
3.738120169772971
 20
2.635977788762634
 30
0.0
 11
-0.0165925101613396
 21
0.0680050630971636
 31
0.0
210
0.0
220
0.0
230
1.0
 40
0.4531577022195474
 41
4.296355789987727
 42
10.34704813823459
1001
ACAD
1000
RTLwPs
1070
   128
  0
LWPOLYLINE
  5
6E
100
AcDbEntity
  8
USP-GEO
100
AcDbPolyline
 90
        2
 70
   128
 43
0.0
 10
3.836787706964857
 20
2.321648755760843
 10
3.836787706964857
 20
4.080148520808689
  0
LWPOLYLINE
  5
6F
100
AcDbEntity
  8
USP-GEO
100
AcDbPolyline
 90
        2
 70
   128
 43
0.0
 10
1.743750624814886
 20
4.080148520808689
 10
1.743750624814886
 20
2.321648755760843
  0
ARC
  5
70
100
AcDbEntity
  8
USP-GEO
100
AcDbCircle
 10
3.69614099583711
 20
1.080157314211913
 30
0.0
 40
0.3020000000000004
100
AcDbArc
 50
326.0267108066989
 51
81.20010761404719
  0
ARC
  5
71
100
AcDbEntity
  8
USP-GEO
100
AcDbCircle
 10
3.69614099583711
 20
1.080157314211913
 30
0.0
 40
0.3020000000000004
100
AcDbArc
 50
279.2151926538816
 51
304.0110092305699
  0
ARC
  5
72
100
AcDbEntity
  8
USP-GEO
100
AcDbCircle
 10
1.88354099583765
 20
1.080157314211415
 30
0.0
 40
0.3020000000000004
100
AcDbArc
 50
101.1079418084758
 51
212.6744136754948
  0
ARC
  5
73
100
AcDbEntity
  8
USP-GEO
100
AcDbCircle
 10
1.88354099583765
 20
1.080157314211415
 30
0.0
 40
0.3020000000000004
100
AcDbArc
 50
234.0441497573626
 51
258.3730874920421
  0
TEXT
  5
74
100
AcDbEntity
  8
USP-TXT
100
AcDbText
 10
0.700231677905193
 20
-0.7410140581033656
 30
0.0
 40
0.25
  1
TMP175 - TOP VIEW
 72
     1
 11
2.783565011238526
 21
-0.7410140581033656
 31
0.0
100
AcDbText
  0
ENDBLK
  5
7B
100
AcDbEntity
  8
0
100
AcDbBlockEnd
  0
BLOCK
  5
E9
100
AcDbEntity
  8
0
100
AcDbBlockBegin
  2
TMP175PR_F
 70
     0
 10
0.0
 20
0.0
 30
0.0
  3
TMP175PR_F
  1

  0
ELLIPSE
  5
7E
100
AcDbEntity
  8
USP-GEO
  6
CONTINUOUS
100
AcDbEllipse
 10
1.677240244506007
 20
4.425794271596853
 30
0.0
 11
-0.0195438989526872
 21
-0.0755118269791375
 31
0.0
210
0.0
220
0.0
230
1.0
 40
0.6830127018922192
 41
6.157545908916537
 42
12.11719837787603
1001
ACAD
1000
RTLwPs
1070
   128
  0
ELLIPSE
  5
7F
100
AcDbEntity
  8
USP-GEO
  6
CONTINUOUS
100
AcDbEllipse
 10
1.677240244506007
 20
4.425794271596853
 30
0.0
 11
-0.0195438989526872
 21
-0.0755118269791375
 31
0.0
210
0.0
220
0.0
230
1.0
 40
0.6830127018922192
 41
3.743662084793867
 42
5.84393607612321
1001
ACAD
1000
RTLwPs
1070
   128
  0
ELLIPSE
  5
80
100
AcDbEntity
  8
USP-GEO
  6
CONTINUOUS
100
AcDbEllipse
 10
1.677240244506007
 20
4.425794271596853
 30
0.0
 11
-0.0195438989526872
 21
-0.0755118269791375
 31
0.0
210
0.0
220
0.0
230
1.0
 40
0.6830127018922192
 41
3.754724384576141
 42
9.274908576400289
1001
ACAD
1000
RTLwPs
1070
   128
  0
ELLIPSE
  5
81
100
AcDbEntity
  8
USP-GEO
  6
CONTINUOUS
100
AcDbEllipse
 10
1.677240244506007
 20
4.425794271596853
 30
0.0
 11
-0.0195438989526872
 21
-0.0755118269791375
 31
0.0
210
0.0
220
0.0
230
1.0
 40
0.6830127018922192
 41
6.168754995538528
 42
9.262903274566159
1001
ACAD
1000
RTLwPs
1070
   128
  0
ELLIPSE
  5
82
100
AcDbEntity
  8
USP-GEO
  6
CONTINUOUS
100
AcDbEllipse
 10
1.715588621635912
 20
4.415868981246863
 30
0.0
 11
0.0195438989526872
 21
0.0755118269791375
 31
0.0
210
0.0
220
0.0
230
1.0
 40
0.6830127018922192
 41
2.442901456033075
 42
2.450278277045457
1001
ACAD
1000
RTLwPs
1070
   128
  0
ELLIPSE
  5
83
100
AcDbEntity
  8
USP-GEO
  6
CONTINUOUS
100
AcDbEllipse
 10
1.715588621635912
 20
4.415868981246863
 30
0.0
 11
0.0195438989526872
 21
0.0755118269791375
 31
0.0
210
0.0
220
0.0
230
1.0
 40
0.6830127018922192
 41
0.3393235068671281
 42
2.758003030917193
1001
ACAD
1000
RTLwPs
1070
   128
  0
LWPOLYLINE
  5
84
100
AcDbEntity
  8
USP-GEO
100
AcDbPolyline
 90
        2
 70
   128
 43
0.0
 10
3.742929541846025
 20
1.04718895654012
 10
3.742929541846025
 20
1.06059726584281
  0
LWPOLYLINE
  5
85
100
AcDbEntity
  8
USP-GEO
100
AcDbPolyline
 90
        2
 70
   128
 43
0.0
 10
3.742929541846025
 20
1.06059726584281
 10
3.742929541846025
 20
3.355429402998272
  0
LWPOLYLINE
  5
86
100
AcDbEntity
  8
USP-GEO
100
AcDbPolyline
 90
        2
 70
   128
 43
0.0
 10
3.689296304635263
 20
1.06059726584281
 10
3.742929541846025
 20
1.06059726584281
  0
LWPOLYLINE
  5
87
100
AcDbEntity
  8
USP-GEO
100
AcDbPolyline
 90
        2
 70
   128
 43
0.0
 10
3.742929541846025
 20
4.898725803737937
 10
3.742929541846025
 20
3.355429402998272
  0
LWPOLYLINE
  5
88
100
AcDbEntity
  8
USP-GEO
100
AcDbPolyline
 90
        2
 70
   128
 43
0.0
 10
3.689296304635263
 20
3.355429402998272
 10
3.742929541846025
 20
3.355429402998272
  0
LWPOLYLINE
  5
89
100
AcDbEntity
  8
USP-GEO
100
AcDbPolyline
 90
        2
 70
   128
 43
0.0
 10
3.689296304635263
 20
4.898725803737937
 10
3.742929541846025
 20
4.898725803737937
  0
LWPOLYLINE
  5
8A
100
AcDbEntity
  8
USP-GEO
100
AcDbPolyline
 90
        2
 70
   128
 43
0.0
 10
3.689296304635263
 20
3.355429402998272
 10
3.689296304635263
 20
4.898725803737937
  0
LWPOLYLINE
  5
8B
100
AcDbEntity
  8
USP-GEO
100
AcDbPolyline
 90
        2
 70
   128
 43
0.0
 10
3.689296304635263
 20
1.06059726584281
 10
3.689296304635263
 20
3.355429402998272
  0
LWPOLYLINE
  5
8C
100
AcDbEntity
  8
USP-GEO
100
AcDbPolyline
 90
        2
 70
   128
 43
0.0
 10
1.87783371784179
 20
4.898725803737937
 10
1.824200480631028
 20
4.898725803737937
  0
LWPOLYLINE
  5
8D
100
AcDbEntity
  8
USP-GEO
100
AcDbPolyline
 90
        2
 70
   128
 43
0.0
 10
1.87783371784179
 20
4.898725803737937
 10
1.87783371784179
 20
3.355429402998272
  0
LWPOLYLINE
  5
8E
100
AcDbEntity
  8
USP-GEO
100
AcDbPolyline
 90
        2
 70
   128
 43
0.0
 10
1.87783371784179
 20
3.355429402998272
 10
1.824200480631028
 20
3.355429402998272
  0
LWPOLYLINE
  5
8F
100
AcDbEntity
  8
USP-GEO
100
AcDbPolyline
 90
        2
 70
   128
 43
0.0
 10
1.87783371784179
 20
3.355429402998272
 10
1.87783371784179
 20
1.06059726584281
  0
LWPOLYLINE
  5
90
100
AcDbEntity
  8
USP-GEO
100
AcDbPolyline
 90
        2
 70
   128
 43
0.0
 10
1.87783371784179
 20
1.06059726584281
 10
1.824200480631028
 20
1.06059726584281
  0
LWPOLYLINE
  5
91
100
AcDbEntity
  8
USP-GEO
100
AcDbPolyline
 90
        2
 70
   128
 43
0.0
 10
1.87783371784179
 20
1.06059726584281
 10
1.87783371784179
 20
1.04718895654012
  0
LWPOLYLINE
  5
92
100
AcDbEntity
  8
USP-GEO
100
AcDbPolyline
 90
        2
 70
   128
 43
0.0
 10
1.87783371784179
 20
1.06059726584281
 10
1.985770607728448
 20
0.9667391007239771
  0
LWPOLYLINE
  5
93
100
AcDbEntity
  8
USP-GEO
100
AcDbPolyline
 90
        2
 70
   128
 43
0.0
 10
2.012587226333828
 20
0.8996975542105261
 10
2.012587226333828
 20
0.8460643169997634
  0
ELLIPSE
  5
94
100
AcDbEntity
  8
USP-GEO
  6
CONTINUOUS
100
AcDbEllipse
 10
2.789840995837119
 20
0.9009613852931863
 30
0.0
 11
-0.078
 21
0.0
 31
0.0
210
0.0
220
0.0
230
1.0
 40
0.9659258262890682
 41
3.125416441624713
 42
6.29953459577564
1001
ACAD
1000
RTLwPs
1070
   128
  0
LWPOLYLINE
  5
95
100
AcDbEntity
  8
USP-GEO
100
AcDbPolyline
 90
        2
 70
   128
 43
0.0
 10
2.870719021706014
 20
0.8996975542105261
 10
2.870719021706014
 20
0.8460643169997634
  0
ELLIPSE
  5
96
100
AcDbEntity
  8
USP-GEO
  6
CONTINUOUS
100
AcDbEllipse
 10
3.664890995837533
 20
0.9009613852931863
 30
0.0
 11
-0.09375
 21
0.0
 31
0.0
210
0.0
220
0.0
230
1.0
 40
0.9659258262890681
 41
5.507635933983722
 42
6.296775634358133
1001
ACAD
1000
RTLwPs
1070
   128
  0
LWPOLYLINE
  5
97
100
AcDbEntity
  8
USP-GEO
100
AcDbPolyline
 90
        2
 70
   128
 43
0.0
 10
3.689296304635263
 20
1.04718895654012
 10
3.689296304635263
 20
1.06059726584281
  0
LWPOLYLINE
  5
98
100
AcDbEntity
  8
USP-GEO
100
AcDbPolyline
 90
        2
 70
   128
 43
0.0
 10
3.59543813951643
 20
0.9667391007239771
 10
3.689296304635263
 20
1.06059726584281
  0
LWPOLYLINE
  5
99
100
AcDbEntity
  8
USP-GEO
100
AcDbPolyline
 90
        2
 70
   128
 43
0.0
 10
3.689296304635263
 20
4.402618359538392
 10
1.87783371784179
 20
4.402618359538392
  0
LWPOLYLINE
  5
9A
100
AcDbEntity
  8
USP-GEO
100
AcDbPolyline
 90
        2
 70
   128
 43
0.0
 10
1.824200480631028
 20
1.06059726584281
 10
1.824200480631028
 20
1.04718895654012
  0
LWPOLYLINE
  5
9B
100
AcDbEntity
  8
USP-GEO
100
AcDbPolyline
 90
        2
 70
   128
 43
0.0
 10
1.824200480631028
 20
4.898725803737937
 10
1.824200480631028
 20
3.355429402998272
  0
LWPOLYLINE
  5
9C
100
AcDbEntity
  8
USP-GEO
100
AcDbPolyline
 90
        2
 70
   128
 43
0.0
 10
1.824200480631028
 20
3.355429402998272
 10
1.824200480631028
 20
1.06059726584281
  0
ELLIPSE
  5
9D
100
AcDbEntity
  8
USP-GEO
  6
CONTINUOUS
100
AcDbEllipse
 10
3.864093370038846
 20
4.415868981246727
 30
0.0
 11
-0.0195438989526871
 21
0.0755118269791375
 31
0.0
210
0.0
220
0.0
230
1.0
 40
0.6830127018922196
 41
3.537978170204273
 42
5.929267656237453
1001
ACAD
1000
RTLwPs
1070
   128
  0
ELLIPSE
  5
9E
100
AcDbEntity
  8
USP-GEO
  6
CONTINUOUS
100
AcDbEllipse
 10
3.902441747168753
 20
4.425794271596725
 30
0.0
 11
0.0195438989526871
 21
-0.0755118269791375
 31
0.0
210
0.0
220
0.0
230
1.0
 40
0.6830127018922196
 41
3.941415444118731
 42
6.200951419130576
1001
ACAD
1000
RTLwPs
1070
   128
  0
ELLIPSE
  5
9F
100
AcDbEntity
  8
USP-GEO
  6
CONTINUOUS
100
AcDbEllipse
 10
3.902441747168753
 20
4.425794271596725
 30
0.0
 11
0.0195438989526871
 21
-0.0755118269791375
 31
0.0
210
0.0
220
0.0
230
1.0
 40
0.6830127018922196
 41
3.017767570524453
 42
3.948162276064483
1001
ACAD
1000
RTLwPs
1070
   128
  0
ELLIPSE
  5
A0
100
AcDbEntity
  8
USP-GEO
  6
CONTINUOUS
100
AcDbEllipse
 10
3.902441747168753
 20
4.425794271596725
 30
0.0
 11
0.0195438989526871
 21
-0.0755118269791375
 31
0.0
210
0.0
220
0.0
230
1.0
 40
0.6830127018922196
 41
6.188799027039322
 42
6.744829251804551
1001
ACAD
1000
RTLwPs
1070
   128
  0
ELLIPSE
  5
A1
100
AcDbEntity
  8
USP-GEO
  6
CONTINUOUS
100
AcDbEllipse
 10
3.902441747168753
 20
4.425794271596725
 30
0.0
 11
0.0195438989526871
 21
-0.0755118269791375
 31
0.0
210
0.0
220
0.0
230
1.0
 40
0.6830127018922196
 41
0.4712501377770734
 42
3.004372505872966
1001
ACAD
1000
RTLwPs
1070
   128
  0
ELLIPSE
  5
A2
100
AcDbEntity
  8
USP-GEO
  6
CONTINUOUS
100
AcDbEllipse
 10
3.664890995837533
 20
0.8875027949478528
 30
0.0
 11
-0.09375
 21
0.0
 31
0.0
210
0.0
220
0.0
230
1.0
 40
0.9659258262890681
 41
5.507253947034228
 42
6.296235010973727
1001
ACAD
1000
RTLwPs
1070
   128
  0
LWPOLYLINE
  5
A3
100
AcDbEntity
  8
USP-GEO
100
AcDbPolyline
 90
        2
 70
   128
 43
0.0
 10
3.689296304635263
 20
1.04718895654012
 10
3.59543813951643
 20
0.9533307914212869
  0
LWPOLYLINE
  5
A4
100
AcDbEntity
  8
USP-GEO
100
AcDbPolyline
 90
        2
 70
   128
 43
0.0
 10
3.689296304635263
 20
1.04718895654012
 10
3.742929541846025
 20
1.04718895654012
  0
LWPOLYLINE
  5
A5
100
AcDbEntity
  8
USP-GEO
100
AcDbPolyline
 90
        2
 70
   128
 43
0.0
 10
1.87783371784179
 20
1.04718895654012
 10
1.824200480631028
 20
1.04718895654012
  0
LWPOLYLINE
  5
A6
100
AcDbEntity
  8
USP-GEO
100
AcDbPolyline
 90
        2
 70
   128
 43
0.0
 10
1.87783371784179
 20
1.04718895654012
 10
1.985770607728448
 20
0.9533307914212869
  0
ELLIPSE
  5
A7
100
AcDbEntity
  8
USP-GEO
  6
CONTINUOUS
100
AcDbEllipse
 10
2.789840995837119
 20
0.8875027949478528
 30
0.0
 11
-0.078
 21
0.0
 31
0.0
210
0.0
220
0.0
230
1.0
 40
0.9659258262890682
 41
3.126059900460271
 42
6.29888425457923
1001
ACAD
1000
RTLwPs
1070
   128
  0
LWPOLYLINE
  5
A8
100
AcDbEntity
  8
USP-GEO
100
AcDbPolyline
 90
        2
 70
   128
 43
0.0
 10
2.709819310073729
 20
0.8460643169997634
 10
2.709819310073729
 20
0.8996975542105261
  0
LWPOLYLINE
  5
A9
100
AcDbEntity
  8
USP-GEO
100
AcDbPolyline
 90
        2
 70
   128
 43
0.0
 10
3.568621520911049
 20
0.8460643169997634
 10
3.568621520911049
 20
0.8996975542105261
  0
LWPOLYLINE
  5
AA
100
AcDbEntity
  8
USP-GEO
100
AcDbPolyline
 90
        2
 70
   128
 43
0.0
 10
1.87783371784179
 20
0.8728809356051456
 10
1.87783371784179
 20
1.04718895654012
  0
LWPOLYLINE
  5
AB
100
AcDbEntity
  8
USP-GEO
100
AcDbPolyline
 90
        2
 70
   128
 43
0.0
 10
1.87783371784179
 20
0.8460643169997634
 10
1.87783371784179
 20
0.8728809356051456
  0
LWPOLYLINE
  5
AC
100
AcDbEntity
  8
USP-GEO
100
AcDbPolyline
 90
        2
 70
   128
 43
0.0
 10
1.824200480631028
 20
1.04718895654012
 10
1.824200480631028
 20
0.8728809356051456
  0
LWPOLYLINE
  5
AD
100
AcDbEntity
  8
USP-GEO
100
AcDbPolyline
 90
        2
 70
   128
 43
0.0
 10
1.824200480631028
 20
0.8728809356051456
 10
1.824200480631028
 20
0.8460643169997634
  0
LWPOLYLINE
  5
AE
100
AcDbEntity
  8
USP-GEO
100
AcDbPolyline
 90
        2
 70
   128
 43
0.0
 10
1.52921767597184
 20
0.8460643169997634
 10
1.52921767597184
 20
0.7917606643238671
  0
LWPOLYLINE
  5
AF
100
AcDbEntity
  8
USP-GEO
100
AcDbPolyline
 90
        2
 70
   128
 43
0.0
 10
1.52921767597184
 20
0.7917606643238671
 10
0.7240487023452813
 20
0.0
  0
LWPOLYLINE
  5
B0
100
AcDbEntity
  8
USP-GEO
100
AcDbPolyline
 90
        2
 70
   128
 43
0.0
 10
0.0
 20
0.0
 10
0.7240487023452813
 20
0.0
  0
LWPOLYLINE
  5
B1
100
AcDbEntity
  8
USP-GEO
100
AcDbPolyline
 90
        2
 70
   128
 43
0.0
 10
0.0
 20
0.8460643169997634
 10
0.0
 20
0.0
  0
CIRCLE
  5
B2
100
AcDbEntity
  8
USP-GEO
100
AcDbCircle
 10
0.4739447493260478
 20
0.2987332423261826
 30
0.0
 40
0.078
  0
LWPOLYLINE
  5
B3
100
AcDbEntity
  8
USP-GEO
100
AcDbPolyline
 90
        2
 70
   128
 43
0.0
 10
5.567800437942187
 20
0.0
 10
5.567800437942187
 20
0.8460643169997634
  0
LWPOLYLINE
  5
B4
100
AcDbEntity
  8
USP-GEO
100
AcDbPolyline
 90
        2
 70
   128
 43
0.0
 10
4.051320655807904
 20
0.7917606643238671
 10
4.051320655807904
 20
0.8460643169997634
  0
LWPOLYLINE
  5
B5
100
AcDbEntity
  8
USP-GEO
100
AcDbPolyline
 90
        2
 70
   128
 43
0.0
 10
2.870719021706014
 20
0.7917606643238671
 10
2.870719021706014
 20
0.8460643169997634
  0
LWPOLYLINE
  5
B6
100
AcDbEntity
  8
USP-GEO
100
AcDbPolyline
 90
        2
 70
   128
 43
0.0
 10
2.870719021706014
 20
0.8460643169997634
 10
3.568621520911049
 20
0.8460643169997634
  0
LWPOLYLINE
  5
B7
100
AcDbEntity
  8
USP-GEO
100
AcDbPolyline
 90
        2
 70
   128
 43
0.0
 10
3.568621520911049
 20
0.7917606643238671
 10
3.568621520911049
 20
0.8460643169997634
  0
LWPOLYLINE
  5
B8
100
AcDbEntity
  8
USP-GEO
100
AcDbPolyline
 90
        2
 70
   128
 43
0.0
 10
2.012587226333828
 20
0.7917606643238671
 10
2.012587226333828
 20
0.8460643169997634
  0
LWPOLYLINE
  5
B9
100
AcDbEntity
  8
USP-GEO
100
AcDbPolyline
 90
        2
 70
   128
 43
0.0
 10
2.012587226333828
 20
0.8460643169997634
 10
2.709819310073729
 20
0.8460643169997634
  0
LWPOLYLINE
  5
BA
100
AcDbEntity
  8
USP-GEO
100
AcDbPolyline
 90
        2
 70
   128
 43
0.0
 10
2.709819310073729
 20
0.7917606643238671
 10
2.709819310073729
 20
0.8460643169997634
  0
LWPOLYLINE
  5
BB
100
AcDbEntity
  8
USP-GEO
100
AcDbPolyline
 90
        2
 70
   128
 43
0.0
 10
5.567800437942187
 20
0.0
 10
4.843081320131771
 20
0.0
  0
LWPOLYLINE
  5
BC
100
AcDbEntity
  8
USP-GEO
100
AcDbPolyline
 90
        2
 70
   128
 43
0.0
 10
4.843081320131771
 20
0.0
 10
4.051320655807904
 20
0.7917606643238671
  0
CIRCLE
  5
BD
100
AcDbEntity
  8
USP-GEO
100
AcDbCircle
 10
5.105737242348192
 20
0.2987332423261826
 30
0.0
 40
0.078
  0
LWPOLYLINE
  5
BE
100
AcDbEntity
  8
USP-GEO
100
AcDbPolyline
 90
        2
 70
   128
 43
0.0
 10
2.709819310073729
 20
0.8460643169997634
 10
2.870719021706014
 20
0.8460643169997634
  0
LWPOLYLINE
  5
BF
100
AcDbEntity
  8
USP-GEO
100
AcDbPolyline
 90
        2
 70
   128
 43
0.0
 10
1.851017099236409
 20
0.8460643169997634
 10
2.012587226333828
 20
0.8460643169997634
  0
LWPOLYLINE
  5
C0
100
AcDbEntity
  8
USP-GEO
100
AcDbPolyline
 90
        2
 70
   128
 43
0.0
 10
1.52921767597184
 20
0.8460643169997634
 10
1.851017099236409
 20
0.8460643169997634
  0
LWPOLYLINE
  5
C1
100
AcDbEntity
  8
USP-GEO
100
AcDbPolyline
 90
        2
 70
   128
 43
0.0
 10
0.0
 20
0.8460643169997634
 10
1.52921767597184
 20
0.8460643169997634
  0
LWPOLYLINE
  5
C2
100
AcDbEntity
  8
USP-GEO
100
AcDbPolyline
 90
        2
 70
   128
 43
0.0
 10
5.567800437942187
 20
0.8460643169997634
 10
4.051320655807904
 20
0.8460643169997634
  0
LWPOLYLINE
  5
C3
100
AcDbEntity
  8
USP-GEO
100
AcDbPolyline
 90
        2
 70
   128
 43
0.0
 10
4.051320655807904
 20
0.8460643169997634
 10
3.729521232543334
 20
0.8460643169997634
  0
LWPOLYLINE
  5
C4
100
AcDbEntity
  8
USP-GEO
100
AcDbPolyline
 90
        2
 70
   128
 43
0.0
 10
3.568621520911049
 20
0.8460643169997634
 10
3.729521232543334
 20
0.8460643169997634
  0
LWPOLYLINE
  5
C5
100
AcDbEntity
  8
USP-GEO
100
AcDbPolyline
 90
        2
 70
   128
 43
0.0
 10
1.851017099236409
 20
0.7917606643238671
 10
1.52921767597184
 20
0.7917606643238671
  0
LWPOLYLINE
  5
C6
100
AcDbEntity
  8
USP-GEO
100
AcDbPolyline
 90
        2
 70
   128
 43
0.0
 10
2.012587226333828
 20
0.7917606643238671
 10
1.851017099236409
 20
0.7917606643238671
  0
LWPOLYLINE
  5
C7
100
AcDbEntity
  8
USP-GEO
100
AcDbPolyline
 90
        2
 70
   128
 43
0.0
 10
2.709819310073729
 20
0.7917606643238671
 10
2.012587226333828
 20
0.7917606643238671
  0
LWPOLYLINE
  5
C8
100
AcDbEntity
  8
USP-GEO
100
AcDbPolyline
 90
        2
 70
   128
 43
0.0
 10
2.870719021706014
 20
0.7917606643238671
 10
2.709819310073729
 20
0.7917606643238671
  0
LWPOLYLINE
  5
C9
100
AcDbEntity
  8
USP-GEO
100
AcDbPolyline
 90
        2
 70
   128
 43
0.0
 10
3.568621520911049
 20
0.7917606643238671
 10
2.870719021706014
 20
0.7917606643238671
  0
LWPOLYLINE
  5
CA
100
AcDbEntity
  8
USP-GEO
100
AcDbPolyline
 90
        2
 70
   128
 43
0.0
 10
3.729521232543334
 20
0.7917606643238671
 10
3.568621520911049
 20
0.7917606643238671
  0
LWPOLYLINE
  5
CB
100
AcDbEntity
  8
USP-GEO
100
AcDbPolyline
 90
        2
 70
   128
 43
0.0
 10
4.051320655807904
 20
0.7917606643238671
 10
3.729521232543334
 20
0.7917606643238671
  0
LWPOLYLINE
  5
CC
100
AcDbEntity
  8
USP-GEO
100
AcDbPolyline
 90
        2
 70
   128
 43
0.0
 10
3.742929541846025
 20
1.04718895654012
 10
3.742929541846025
 20
0.8728809356051456
  0
LWPOLYLINE
  5
CD
100
AcDbEntity
  8
USP-GEO
100
AcDbPolyline
 90
        2
 70
   128
 43
0.0
 10
3.742929541846025
 20
0.8728809356051456
 10
3.742929541846025
 20
0.8460643169997634
  0
LWPOLYLINE
  5
CE
100
AcDbEntity
  8
USP-GEO
100
AcDbPolyline
 90
        2
 70
   128
 43
0.0
 10
3.689296304635263
 20
0.8728809356051456
 10
3.689296304635263
 20
1.04718895654012
  0
LWPOLYLINE
  5
CF
100
AcDbEntity
  8
USP-GEO
100
AcDbPolyline
 90
        2
 70
   128
 43
0.0
 10
3.689296304635263
 20
0.8460643169997634
 10
3.689296304635263
 20
0.8728809356051456
  0
LWPOLYLINE
  5
D0
100
AcDbEntity
  8
USP-GEO
100
AcDbPolyline
 90
        2
 70
   128
 43
0.0
 10
1.810792171328338
 20
2.845243234030903
 10
1.824200480631028
 20
2.831834924728212
  0
LWPOLYLINE
  5
D1
100
AcDbEntity
  8
USP-GEO
100
AcDbPolyline
 90
        2
 70
   128
 43
0.0
 10
1.783975552722957
 20
1.973032713890892
 10
1.824200480631028
 20
1.94621609528551
  0
LWPOLYLINE
  5
D2
100
AcDbEntity
  8
USP-GEO
100
AcDbPolyline
 90
        2
 70
   128
 43
0.0
 10
1.824200480631028
 20
2.76479337821476
 10
1.783975552722957
 20
2.79160999682014
  0
ELLIPSE
  5
D3
100
AcDbEntity
  8
USP-GEO
  6
CONTINUOUS
100
AcDbEllipse
 10
1.821488067317533
 20
2.053237756986032
 30
0.0
 11
-0.0000000000000001
 21
-0.0827924579353581
 31
0.0
210
0.0
220
0.0
230
1.0
 40
0.906315404460947
 41
4.709534796729937
 42
5.806777147360197
1001
ACAD
1000
RTLwPs
1070
   128
  0
ELLIPSE
  5
D4
100
AcDbEntity
  8
USP-GEO
  6
CONTINUOUS
100
AcDbEllipse
 10
1.821488067317535
 20
2.869237756985993
 30
0.0
 11
-0.0000000000000001
 21
-0.0827924579353581
 31
0.0
210
0.0
220
0.0
230
1.0
 40
0.906315404460947
 41
4.167220121609016
 42
5.793341716089101
1001
ACAD
1000
RTLwPs
1070
   128
  0
LWPOLYLINE
  5
D5
100
AcDbEntity
  8
USP-GEO
100
AcDbPolyline
 90
        2
 70
   128
 43
0.0
 10
1.757158934117576
 20
2.912284780544354
 10
1.824200480631028
 20
3.047038289036393
  0
ELLIPSE
  5
D6
100
AcDbEntity
  8
USP-GEO
  6
CONTINUOUS
100
AcDbEllipse
 10
1.821488067317535
 20
2.869237756985993
 30
0.0
 11
0.0
 21
-0.0254172883817431
 31
0.0
210
0.0
220
0.0
230
1.0
 40
0.906315404460947
 41
4.164458479054728
 42
5.851210327434457
1001
ACAD
1000
RTLwPs
1070
   128
  0
LWPOLYLINE
  5
D7
100
AcDbEntity
  8
USP-GEO
100
AcDbPolyline
 90
        2
 70
   128
 43
0.0
 10
1.824200480631028
 20
2.93977181461487
 10
1.797383862025648
 20
2.885468161938973
  0
LWPOLYLINE
  5
D8
100
AcDbEntity
  8
USP-GEO
100
AcDbPolyline
 90
        2
 70
   128
 43
0.0
 10
3.769746160451405
 20
2.845243234030903
 10
3.742929541846025
 20
2.831834924728212
  0
LWPOLYLINE
  5
D9
100
AcDbEntity
  8
USP-GEO
100
AcDbPolyline
 90
        2
 70
   128
 43
0.0
 10
3.796562779056786
 20
1.973032713890892
 10
3.742929541846025
 20
1.94621609528551
  0
LWPOLYLINE
  5
DA
100
AcDbEntity
  8
USP-GEO
100
AcDbPolyline
 90
        2
 70
   128
 43
0.0
 10
3.742929541846025
 20
2.76479337821476
 10
3.796562779056786
 20
2.79160999682014
  0
ELLIPSE
  5
DB
100
AcDbEntity
  8
USP-GEO
  6
CONTINUOUS
100
AcDbEllipse
 10
3.758193924356707
 20
2.053237756986028
 30
0.0
 11
0.0
 21
-0.0827924579353581
 31
0.0
210
0.0
220
0.0
230
1.0
 40
0.906315404460947
 41
0.4856664802838785
 42
1.573619412075326
1001
ACAD
1000
RTLwPs
1070
   128
  0
ELLIPSE
  5
DC
100
AcDbEntity
  8
USP-GEO
  6
CONTINUOUS
100
AcDbEllipse
 10
3.758193924356708
 20
2.869237756985993
 30
0.0
 11
0.0
 21
-0.0827924579353581
 31
0.0
210
0.0
220
0.0
230
1.0
 40
0.906315404460947
 41
0.4992730179801346
 42
2.11011977770127
1001
ACAD
1000
RTLwPs
1070
   128
  0
LWPOLYLINE
  5
DD
100
AcDbEntity
  8
USP-GEO
100
AcDbPolyline
 90
        2
 70
   128
 43
0.0
 10
3.823379397662167
 20
2.912284780544354
 10
3.742929541846025
 20
3.047038289036393
  0
ELLIPSE
  5
DE
100
AcDbEntity
  8
USP-GEO
  6
CONTINUOUS
100
AcDbEllipse
 10
3.758193924356708
 20
2.869237756985993
 30
0.0
 11
0.0
 21
-0.0254172883817431
 31
0.0
210
0.0
220
0.0
230
1.0
 40
0.906315404460947
 41
1.203823579039614
 42
6.771496010835145
1001
ACAD
1000
RTLwPs
1070
   128
  0
ELLIPSE
  5
DF
100
AcDbEntity
  8
USP-GEO
  6
CONTINUOUS
100
AcDbEllipse
 10
3.758193924356708
 20
2.869237756985993
 30
0.0
 11
0.0
 21
-0.0254172883817431
 31
0.0
210
0.0
220
0.0
230
1.0
 40
0.906315404460947
 41
2.103329364706473
 42
7.956095294588742
1001
ACAD
1000
RTLwPs
1070
   128
  0
ELLIPSE
  5
E0
100
AcDbEntity
  8
USP-GEO
  6
CONTINUOUS
100
AcDbEllipse
 10
3.758193924356708
 20
2.869237756985993
 30
0.0
 11
0.0
 21
-0.0254172883817431
 31
0.0
210
0.0
220
0.0
230
1.0
 40
0.906315404460947
 41
1.670256867829227
 42
7.495798116340067
1001
ACAD
1000
RTLwPs
1070
   128
  0
LWPOLYLINE
  5
E1
100
AcDbEntity
  8
USP-GEO
100
AcDbPolyline
 90
        2
 70
   128
 43
0.0
 10
3.742929541846025
 20
2.93977181461487
 10
3.783154469754096
 20
2.885468161938973
  0
LWPOLYLINE
  5
E2
100
AcDbEntity
  8
USP-GEO
100
AcDbPolyline
 90
        2
 70
   128
 43
0.0
 10
3.836787706964857
 20
2.872059852636283
 10
3.836787706964857
 20
2.053482569707034
  0
LWPOLYLINE
  5
E3
100
AcDbEntity
  8
USP-GEO
100
AcDbPolyline
 90
        2
 70
   128
 43
0.0
 10
1.743750624814886
 20
2.053482569707034
 10
1.743750624814886
 20
2.872059852636283
  0
ARC
  5
E4
100
AcDbEntity
  8
USP-GEO
100
AcDbCircle
 10
3.69614099583711
 20
4.372399708133134
 30
0.0
 40
0.3020000000000005
100
AcDbArc
 50
279.0956972703842
 51
81.08824377486353
  0
ARC
  5
E5
100
AcDbEntity
  8
USP-GEO
100
AcDbCircle
 10
1.88354099583765
 20
4.372399708133269
 30
0.0
 40
0.3020000000000004
100
AcDbArc
 50
101.2477983702804
 51
258.5223405415344
  0
TEXT
  5
E6
100
AcDbEntity
  8
USP-TXT
100
AcDbText
 10
0.4502316779051938
 20
-0.9400403138279163
 30
0.0
 40
0.25
  1
TMP175 - FRONT VIEW
 72
     1
 11
2.783565011238526
 21
-0.9400403138279163
 31
0.0
100
AcDbText
  0
ELLIPSE
  5
E7
100
AcDbEntity
  8
USP-GEO
  6
CONTINUOUS
100
AcDbEllipse
 10
1.914790995836705
 20
0.8875027949478528
 30
0.0
 11
0.09375
 21
0.0
 31
0.0
210
0.0
220
0.0
230
-1.0
 40
0.9659258262890681
 41
5.507253947034228
 42
6.296235010973727
1001
ACAD
1000
RTLwPs
1070
   128
  0
ELLIPSE
  5
E8
100
AcDbEntity
  8
USP-GEO
  6
CONTINUOUS
100
AcDbEllipse
 10
1.914790995836705
 20
0.9009613852931863
 30
0.0
 11
0.09375
 21
0.0
 31
0.0
210
0.0
220
0.0
230
-1.0
 40
0.9659258262890681
 41
5.507635933983722
 42
6.296775634358133
1001
ACAD
1000
RTLwPs
1070
   128
  0
ENDBLK
  5
EA
100
AcDbEntity
  8
0
100
AcDbBlockEnd
  0
BLOCK
  5
128
100
AcDbEntity
  8
0
100
AcDbBlockBegin
  2
TMP175PR_S
 70
     0
 10
0.0
 20
0.0
 30
0.0
  3
TMP175PR_S
  1

  0
LWPOLYLINE
  5
ED
100
AcDbEntity
  8
USP-GEO
100
AcDbPolyline
 90
        2
 70
   128
 43
0.0
 10
4.065399380575728
 20
2.241869315409834
 10
4.065399380575728
 20
2.550260429371713
  0
LWPOLYLINE
  5
EE
100
AcDbEntity
  8
USP-GEO
100
AcDbPolyline
 90
        2
 70
   128
 43
0.0
 10
4.065399380575728
 20
2.550260429371713
 10
3.596108554981563
 20
3.114079835549844
  0
LWPOLYLINE
  5
EF
100
AcDbEntity
  8
USP-GEO
100
AcDbPolyline
 90
        2
 70
   128
 43
0.0
 10
3.596108554981563
 20
3.114079835549844
 10
2.320978340295708
 20
3.114079835549844
  0
LWPOLYLINE
  5
F0
100
AcDbEntity
  8
USP-GEO
100
AcDbPolyline
 90
        2
 70
   128
 43
0.0
 10
2.320978340295708
 20
3.114079835549844
 10
2.320978340295708
 20
3.047038289036393
  0
LWPOLYLINE
  5
F1
100
AcDbEntity
  8
USP-GEO
100
AcDbPolyline
 90
        2
 70
   128
 43
0.0
 10
2.320978340295708
 20
3.047038289036393
 10
4.065399380575728
 20
2.241869315409834
  0
LWPOLYLINE
  5
F2
100
AcDbEntity
  8
USP-GEO
100
AcDbPolyline
 90
        2
 70
   128
 43
0.0
 10
1.368988379804688
 20
1.04718895654012
 10
1.328093036431482
 20
1.06059726584281
  0
LWPOLYLINE
  5
F3
100
AcDbEntity
  8
USP-GEO
100
AcDbPolyline
 90
        2
 70
   128
 43
0.0
 10
1.328093036431482
 20
1.06059726584281
 10
0.0
 20
3.355429402998272
  0
LWPOLYLINE
  5
F4
100
AcDbEntity
  8
USP-GEO
100
AcDbPolyline
 90
        2
 70
   128
 43
0.0
 10
0.4029196945458456
 20
4.898725803737937
 10
0.0
 20
3.355429402998272
  0
LWPOLYLINE
  5
F5
100
AcDbEntity
  8
USP-GEO
100
AcDbPolyline
 90
        2
 70
   128
 43
0.0
 10
0.4029196945458456
 20
4.898725803737937
 10
2.267345103084945
 20
4.389210050235702
  0
ARC
  5
F6
100
AcDbEntity
  8
USP-GEO
100
AcDbCircle
 10
0.9025671732319526
 20
2.872941522487613
 30
0.0
 40
0.078
100
AcDbArc
 50
169.9360828634733
 51
340.1940324823569
  0
LWPOLYLINE
  5
F7
100
AcDbEntity
  8
USP-GEO
100
AcDbPolyline
 90
        2
 70
   128
 43
0.0
 10
1.033110231772294
 20
3.664490932425286
 10
0.8319855922319394
 20
2.885468161938973
  0
ARC
  5
F8
100
AcDbEntity
  8
USP-GEO
100
AcDbCircle
 10
1.108257666956534
 20
3.640586864483401
 30
0.0
 40
0.078
100
AcDbArc
 50
346.7826218384259
 51
162.3543620640411
  0
LWPOLYLINE
  5
F9
100
AcDbEntity
  8
USP-GEO
100
AcDbPolyline
 90
        2
 70
   128
 43
0.0
 10
0.9794769945615335
 20
2.845243234030903
 10
1.180601634101888
 20
3.623595589052079
  0
LWPOLYLINE
  5
FA
100
AcDbEntity
  8
USP-GEO
100
AcDbPolyline
 90
        2
 70
   128
 43
0.0
 10
1.274459799220721
 20
0.8996975542105261
 10
1.301276417826102
 20
0.9667391007239771
  0
LWPOLYLINE
  5
FB
100
AcDbEntity
  8
USP-GEO
100
AcDbPolyline
 90
        2
 70
   128
 43
0.0
 10
1.301276417826102
 20
0.9667391007239771
 10
1.328093036431482
 20
1.06059726584281
  0
ELLIPSE
  5
FC
100
AcDbEntity
  8
USP-GEO
  6
CONTINUOUS
100
AcDbEllipse
 10
0.9195330303503101
 20
4.415868981246727
 30
0.0
 11
0.0201878855179967
 21
0.0753422144505476
 31
0.0
210
0.0
220
0.0
230
1.0
 40
0.7071067811865474
 41
1.558502892533242
 42
2.85768677131666
1001
ACAD
1000
RTLwPs
1070
   128
  0
ELLIPSE
  5
FD
100
AcDbEntity
  8
USP-GEO
  6
CONTINUOUS
100
AcDbEllipse
 10
0.9195330303503101
 20
4.415868981246727
 30
0.0
 11
0.0201878855179967
 21
0.0753422144505476
 31
0.0
210
0.0
220
0.0
230
1.0
 40
0.7071067811865474
 41
0.2569031624735843
 42
1.558502892533242
1001
ACAD
1000
RTLwPs
1070
   128
  0
CIRCLE
  5
FE
100
AcDbEntity
  8
USP-GEO
100
AcDbCircle
 10
1.081762566178335
 20
4.372399708133134
 30
0.0
 40
0.2974894956128708
  0
ELLIPSE
  5
FF
100
AcDbEntity
  8
USP-GEO
  6
CONTINUOUS
100
AcDbEllipse
 10
0.8824913424842666
 20
4.425794271596725
 30
0.0
 11
-0.0201878855179967
 21
-0.0753422144505476
 31
0.0
210
0.0
220
0.0
230
1.0
 40
0.7071067811865474
 41
4.248317834277258
 42
5.600248609575459
1001
ACAD
1000
RTLwPs
1070
   128
  0
ELLIPSE
  5
100
100
AcDbEntity
  8
USP-GEO
  6
CONTINUOUS
100
AcDbEllipse
 10
0.8824913424842666
 20
4.425794271596725
 30
0.0
 11
-0.0201878855179967
 21
-0.0753422144505476
 31
0.0
210
0.0
220
0.0
230
1.0
 40
0.7071067811865474
 41
6.233819106283285
 42
11.87588405004815
1001
ACAD
1000
RTLwPs
1070
   128
  0
ELLIPSE
  5
101
100
AcDbEntity
  8
USP-GEO
  6
CONTINUOUS
100
AcDbEllipse
 10
0.8824913424842666
 20
4.425794271596725
 30
0.0
 11
-0.0201878855179967
 21
-0.0753422144505476
 31
0.0
210
0.0
220
0.0
230
1.0
 40
0.7071067811865474
 41
3.676716380738615
 42
4.255918707346061
1001
ACAD
1000
RTLwPs
1070
   128
  0
ELLIPSE
  5
102
100
AcDbEntity
  8
USP-GEO
  6
CONTINUOUS
100
AcDbEllipse
 10
0.8824913424842666
 20
4.425794271596725
 30
0.0
 11
-0.0201878855179967
 21
-0.0753422144505476
 31
0.0
210
0.0
220
0.0
230
1.0
 40
0.7071067811865474
 41
3.6881262677489
 42
9.229557191052268
1001
ACAD
1000
RTLwPs
1070
   128
  0
ELLIPSE
  5
103
100
AcDbEntity
  8
USP-GEO
  6
CONTINUOUS
100
AcDbEllipse
 10
0.8824913424842666
 20
4.425794271596725
 30
0.0
 11
-0.0201878855179967
 21
-0.0753422144505476
 31
0.0
210
0.0
220
0.0
230
1.0
 40
0.7071067811865474
 41
6.245026003017962
 42
9.21844887499248
1001
ACAD
1000
RTLwPs
1070
   128
  0
LWPOLYLINE
  5
104
100
AcDbEntity
  8
USP-GEO
100
AcDbPolyline
 90
        2
 70
   128
 43
0.0
 10
1.342171761199308
 20
0.9533307914212869
 10
1.328093036431482
 20
0.8862892449078358
  0
LWPOLYLINE
  5
105
100
AcDbEntity
  8
USP-GEO
100
AcDbPolyline
 90
        2
 70
   128
 43
0.0
 10
1.368988379804688
 20
1.04718895654012
 10
1.342171761199308
 20
0.9533307914212869
  0
LWPOLYLINE
  5
106
100
AcDbEntity
  8
USP-GEO
100
AcDbPolyline
 90
        2
 70
   128
 43
0.0
 10
1.368988379804688
 20
1.04718895654012
 10
2.267345103084945
 20
4.389210050235702
  0
LWPOLYLINE
  5
107
100
AcDbEntity
  8
USP-GEO
100
AcDbPolyline
 90
        2
 70
   128
 43
0.0
 10
1.261051489918031
 20
0.8460643169997634
 10
1.274459799220721
 20
0.8996975542105261
  0
LWPOLYLINE
  5
108
100
AcDbEntity
  8
USP-GEO
100
AcDbPolyline
 90
        2
 70
   128
 43
0.0
 10
1.314684727128792
 20
0.8460643169997634
 10
1.328093036431482
 20
0.8862892449078358
  0
LWPOLYLINE
  5
109
100
AcDbEntity
  8
USP-GEO
100
AcDbPolyline
 90
        2
 70
   128
 43
0.0
 10
4.065399380575728
 20
0.7917606643238671
 10
4.065399380575728
 20
1.94621609528551
  0
LWPOLYLINE
  5
10A
100
AcDbEntity
  8
USP-GEO
100
AcDbPolyline
 90
        2
 70
   128
 43
0.0
 10
2.307570030993016
 20
0.7917606643238671
 10
2.307570030993016
 20
0.8460643169997634
  0
LWPOLYLINE
  5
10B
100
AcDbEntity
  8
USP-GEO
100
AcDbPolyline
 90
        2
 70
   128
 43
0.0
 10
2.133262010058041
 20
0.7917606643238671
 10
2.133262010058041
 20
0.8460643169997634
  0
LWPOLYLINE
  5
10C
100
AcDbEntity
  8
USP-GEO
100
AcDbPolyline
 90
        2
 70
   128
 43
0.0
 10
1.019701922469604
 20
0.0
 10
1.019701922469604
 20
0.8460643169997634
  0
LWPOLYLINE
  5
10D
100
AcDbEntity
  8
USP-GEO
100
AcDbPolyline
 90
        2
 70
   128
 43
0.0
 10
1.073335159680365
 20
0.0
 10
1.019701922469604
 20
0.0
  0
LWPOLYLINE
  5
10E
100
AcDbEntity
  8
USP-GEO
100
AcDbPolyline
 90
        2
 70
   128
 43
0.0
 10
1.073335159680365
 20
0.7917606643238671
 10
1.073335159680365
 20
0.0
  0
LWPOLYLINE
  5
10F
100
AcDbEntity
  8
USP-GEO
100
AcDbPolyline
 90
        2
 70
   128
 43
0.0
 10
2.133262010058041
 20
0.8460643169997634
 10
2.307570030993016
 20
0.8460643169997634
  0
LWPOLYLINE
  5
110
100
AcDbEntity
  8
USP-GEO
100
AcDbPolyline
 90
        2
 70
   128
 43
0.0
 10
1.019701922469604
 20
0.8460643169997634
 10
2.133262010058041
 20
0.8460643169997634
  0
LWPOLYLINE
  5
111
100
AcDbEntity
  8
USP-GEO
100
AcDbPolyline
 90
        2
 70
   128
 43
0.0
 10
4.065399380575728
 20
0.7917606643238671
 10
2.307570030993016
 20
0.7917606643238671
  0
LWPOLYLINE
  5
112
100
AcDbEntity
  8
USP-GEO
100
AcDbPolyline
 90
        2
 70
   128
 43
0.0
 10
2.133262010058041
 20
0.7917606643238671
 10
1.073335159680365
 20
0.7917606643238671
  0
LWPOLYLINE
  5
113
100
AcDbEntity
  8
USP-GEO
100
AcDbPolyline
 90
        2
 70
   128
 43
0.0
 10
2.307570030993016
 20
0.7917606643238671
 10
2.133262010058041
 20
0.7917606643238671
  0
LWPOLYLINE
  5
114
100
AcDbEntity
  8
USP-GEO
100
AcDbPolyline
 90
        2
 70
   128
 43
0.0
 10
2.320978340295708
 20
2.76479337821476
 10
2.320978340295708
 20
0.8728809356051456
  0
ARC
  5
115
100
AcDbEntity
  8
USP-GEO
100
AcDbCircle
 10
2.224833121036214
 20
0.8819832423272622
 30
0.0
 40
0.0937500000000001
100
AcDbArc
 50
336.5326846262496
 51
354.5917855227108
  0
LWPOLYLINE
  5
116
100
AcDbEntity
  8
USP-GEO
100
AcDbPolyline
 90
        2
 70
   128
 43
0.0
 10
4.065399380575728
 20
1.973032713890892
 10
4.065399380575728
 20
1.94621609528551
  0
LWPOLYLINE
  5
117
100
AcDbEntity
  8
USP-GEO
100
AcDbPolyline
 90
        2
 70
   128
 43
0.0
 10
4.065399380575728
 20
1.94621609528551
 10
2.320978340295708
 20
2.76479337821476
  0
LWPOLYLINE
  5
118
100
AcDbEntity
  8
USP-GEO
100
AcDbPolyline
 90
        2
 70
   128
 43
0.0
 10
2.320978340295708
 20
2.76479337821476
 10
2.320978340295708
 20
2.79160999682014
  0
LWPOLYLINE
  5
119
100
AcDbEntity
  8
USP-GEO
100
AcDbPolyline
 90
        2
 70
   128
 43
0.0
 10
4.065399380575728
 20
2.093707497615104
 10
4.065399380575728
 20
1.973032713890892
  0
LWPOLYLINE
  5
11A
100
AcDbEntity
  8
USP-GEO
100
AcDbPolyline
 90
        2
 70
   128
 43
0.0
 10
2.320978340295708
 20
2.79160999682014
 10
2.320978340295708
 20
2.912284780544354
  0
LWPOLYLINE
  5
11B
100
AcDbEntity
  8
USP-GEO
100
AcDbPolyline
 90
        2
 70
   128
 43
0.0
 10
4.065399380575728
 20
2.241869315409834
 10
4.065399380575728
 20
2.093707497615104
  0
LWPOLYLINE
  5
11C
100
AcDbEntity
  8
USP-GEO
100
AcDbPolyline
 90
        2
 70
   128
 43
0.0
 10
2.320978340295708
 20
2.912284780544354
 10
2.320978340295708
 20
3.047038289036393
  0
LWPOLYLINE
  5
11D
100
AcDbEntity
  8
USP-GEO
100
AcDbPolyline
 90
        2
 70
   128
 43
0.0
 10
2.63003986972272
 20
2.77820168751745
 10
3.77041657591654
 20
2.241869315409834
  0
ELLIPSE
  5
11E
100
AcDbEntity
  8
USP-GEO
  6
CONTINUOUS
100
AcDbEllipse
 10
3.799044991536733
 20
2.296822723613583
 30
0.0
 11
0.0634420783158667
 21
-0.029582134798305
 31
0.0
210
0.0
220
0.0
230
1.0
 40
0.8660254037709339
 41
0.6889487178442346
 42
1.562511770488623
1001
ACAD
1000
RTLwPs
1070
   128
  0
ELLIPSE
  5
11F
100
AcDbEntity
  8
USP-GEO
  6
CONTINUOUS
100
AcDbEllipse
 10
3.799044991536733
 20
2.296822723613583
 30
0.0
 11
0.0634420783158667
 21
-0.029582134798305
 31
0.0
210
0.0
220
0.0
230
1.0
 40
0.8660254037709339
 41
4.674313436948763
 42
6.970240911617864
1001
ACAD
1000
RTLwPs
1070
   128
  0
LWPOLYLINE
  5
120
100
AcDbEntity
  8
USP-GEO
100
AcDbPolyline
 90
        2
 70
   128
 43
0.0
 10
3.824049813127301
 20
2.349135789831358
 10
2.670264797630792
 20
2.885468161938973
  0
ELLIPSE
  5
121
100
AcDbEntity
  8
USP-GEO
  6
CONTINUOUS
100
AcDbEllipse
 10
2.648570281113139
 20
2.833254382634342
 30
0.0
 11
0.0634420783158667
 21
-0.029582134798305
 31
0.0
210
0.0
220
0.0
230
1.0
 40
0.8660254037709339
 41
2.488150416588719
 42
4.809165405611548
1001
ACAD
1000
RTLwPs
1070
   128
  0
ELLIPSE
  5
122
100
AcDbEntity
  8
USP-GEO
  6
CONTINUOUS
100
AcDbEllipse
 10
2.648570281113139
 20
2.833254382634342
 30
0.0
 11
0.0634420783158667
 21
-0.029582134798305
 31
0.0
210
0.0
220
0.0
230
1.0
 40
0.8660254037709339
 41
1.607627619016241
 42
2.478314972871547
1001
ACAD
1000
RTLwPs
1070
   128
  0
LWPOLYLINE
  5
123
100
AcDbEntity
  8
USP-GEO
100
AcDbPolyline
 90
        2
 70
   128
 43
0.0
 10
2.320978340295708
 20
3.047038289036393
 10
4.065399380575728
 20
2.241869315409834
  0
LWPOLYLINE
  5
124
100
AcDbEntity
  8
USP-GEO
100
AcDbPolyline
 90
        2
 70
   128
 43
0.0
 10
2.670264797630792
 20
2.858651543333593
 10
3.81064150382461
 20
2.322319171225977
  0
ELLIPSE
  5
125
100
AcDbEntity
  8
USP-GEO
  6
CONTINUOUS
100
AcDbEllipse
 10
3.788057751152651
 20
2.2732583320673
 30
0.0
 11
0.0634420783158667
 21
-0.0295821347983049
 31
0.0
210
0.0
220
0.0
230
1.0
 40
0.8660254037709133
 41
0.181362199307887
 42
1.575048811014127
1001
ACAD
1000
RTLwPs
1070
   128
  0
ELLIPSE
  5
126
100
AcDbEntity
  8
USP-GEO
  6
CONTINUOUS
100
AcDbEllipse
 10
2.637583040729056
 20
2.809689991088058
 30
0.0
 11
0.0634420783158667
 21
-0.0295821347983049
 31
0.0
210
0.0
220
0.0
230
1.0
 40
0.8660254037709133
 41
1.438677457312199
 42
3.037605523631489
1001
ACAD
1000
RTLwPs
1070
   128
  0
TEXT
  5
127
100
AcDbEntity
  8
USP-TXT
100
AcDbText
 10
-0.1339669763788023
 20
-0.9400403138279163
 30
0.0
 40
0.25
  1
TMP175 - SIDE VIEW
 72
     1
 11
2.032699690287865
 21
-0.9400403138279163
 31
0.0
100
AcDbText
  0
ENDBLK
  5
129
100
AcDbEntity
  8
0
100
AcDbBlockEnd
  0
ENDSEC
  0
SECTION
  2
ENTITIES
  0
INSERT
  5
3
100
AcDbEntity
  8
USP
100
AcDbBlockReference
  2
TMP175PR_T
 10
-0.0046560461852074
 20
9.382237123993281
 30
0.0
  0
INSERT
  5
7C
100
AcDbEntity
  8
USP
100
AcDbBlockReference
  2
TMP175PR_F
 10
-0.0046560461852074
 20
0.9403655870194072
 30
0.0
  0
INSERT
  5
EB
100
AcDbEntity
  8
USP
100
AcDbBlockReference
  2
TMP175PR_S
 10
8.433863413462995
 20
0.9403655870194072
 30
0.0
  0
ENDSEC
  0
SECTION
  2
OBJECTS
  0
DICTIONARY
  5
141
100
AcDbDictionary
  3
ACAD_GROUP
350
13F
  3
ACAD_MLINESTYLE
350
140
  0
DICTIONARY
  5
9
100
AcDbDictionary
280
     1
  3
ACAD_XREC_ROUNDTRIP
360
A
  0
DICTIONARY
  5
76
100
AcDbDictionary
280
     1
  3
ACAD_XREC_ROUNDTRIP
360
77
  0
DICTIONARY
  5
144
100
AcDbDictionary
280
     1
  3
ACAD_XREC_ROUNDTRIP
360
145
  0
DICTIONARY
  5
12A
100
AcDbDictionary
280
     1
  3
ACAD_LAYOUTSELFREF
360
12B
  0
DICTIONARY
  5
12F
100
AcDbDictionary
280
     1
  3
ACAD_LAYOUTSELFREF
360
130
  0
DICTIONARY
  5
13F
102
{ACAD_REACTORS
330
141
102
}
100
AcDbDictionary
  0
DICTIONARY
  5
140
102
{ACAD_REACTORS
330
141
102
}
100
AcDbDictionary
  3
STANDARD
350
142
  0
XRECORD
  5
A
102
{ACAD_REACTORS
330
9
102
}
100
AcDbXrecord
102
EXTNAMES
  1
USP-GEO
  2
USP-Geo
  0
XRECORD
  5
77
102
{ACAD_REACTORS
330
76
102
}
100
AcDbXrecord
102
EXTNAMES
  1
USP-TXT
  2
USP-Txt
  0
XRECORD
  5
145
102
{ACAD_REACTORS
330
144
102
}
100
AcDbXrecord
102
ACADR14ROUNDTRIP
1000
DSTYLE
1002
{
1070
   276
 70
     2
1070
   277
 70
     5
1002
}
  0
XRECORD
  5
12B
102
{ACAD_REACTORS
330
12A
102
}
100
AcDbXrecord
340
2
  0
XRECORD
  5
130
102
{ACAD_REACTORS
330
12F
102
}
100
AcDbXrecord
340
0
  0
MLINESTYLE
  5
142
102
{ACAD_REACTORS
330
140
102
}
100
AcDbMlineStyle
  2
STANDARD
 70
     0
  3

 62
     0
 51
90.0
 52
90.0
 71
     2
 49
0.5
 62
   256
  6
BYLAYER
 49
-0.5
 62
   256
  6
BYLAYER
  0
ENDSEC
  0
EOF
