  0
SECTION
  2
HEADER
  9
$ACADVER
  1
AC1014
  9
$ACADMAINTVER
 70
     8
  9
$DWGCODEPAGE
  3
ANSI_1252
  9
$INSBASE
 10
0.0
 20
0.0
 30
0.0
  9
$EXTMIN
 10
-0.0071829927245561
 20
0.5481756033625498
 30
0.0
  9
$EXTMAX
 10
13.21103736311646
 20
13.77975672178517
 30
0.0
  9
$LIMMIN
 10
0.0
 20
0.0
  9
$LIMMAX
 10
12.0
 20
9.0
  9
$ORTHOMODE
 70
     0
  9
$REGENMODE
 70
     1
  9
$FILLMODE
 70
     1
  9
$QTEXTMODE
 70
     0
  9
$MIRRTEXT
 70
     0
  9
$DRAGMODE
 70
     2
  9
$LTSCALE
 40
1.5
  9
$OSMODE
 70
     0
  9
$ATTMODE
 70
     1
  9
$TEXTSIZE
 40
0.25
  9
$TRACEWID
 40
0.05
  9
$TEXTSTYLE
  7
STANDARD
  9
$CLAYER
  8
USP
  9
$CELTYPE
  6
BYLAYER
  9
$CECOLOR
 62
   256
  9
$CELTSCALE
 40
1.0
  9
$DELOBJ
 70
     1
  9
$DISPSILH
 70
     1
  9
$DIMSCALE
 40
5.0
  9
$DIMASZ
 40
0.125
  9
$DIMEXO
 40
0.0625
  9
$DIMDLI
 40
0.38
  9
$DIMRND
 40
0.0
  9
$DIMDLE
 40
0.0
  9
$DIMEXE
 40
0.09375
  9
$DIMTP
 40
0.0
  9
$DIMTM
 40
0.0
  9
$DIMTXT
 40
0.109375
  9
$DIMCEN
 40
0.0
  9
$DIMTSZ
 40
0.0
  9
$DIMTOL
 70
     0
  9
$DIMLIM
 70
     0
  9
$DIMTIH
 70
     1
  9
$DIMTOH
 70
     1
  9
$DIMSE1
 70
     0
  9
$DIMSE2
 70
     0
  9
$DIMTAD
 70
     0
  9
$DIMZIN
 70
     8
  9
$DIMBLK
  1

  9
$DIMASO
 70
     1
  9
$DIMSHO
 70
     1
  9
$DIMPOST
  1

  9
$DIMAPOST
  1

  9
$DIMALT
 70
     0
  9
$DIMALTD
 70
     2
  9
$DIMALTF
 40
25.4
  9
$DIMLFAC
 40
1.0
  9
$DIMTOFL
 70
     0
  9
$DIMTVP
 40
0.0
  9
$DIMTIX
 70
     0
  9
$DIMSOXD
 70
     0
  9
$DIMSAH
 70
     0
  9
$DIMBLK1
  1

  9
$DIMBLK2
  1

  9
$DIMSTYLE
  2
STANDARD
  9
$DIMCLRD
 70
   256
  9
$DIMCLRE
 70
   256
  9
$DIMCLRT
 70
   256
  9
$DIMTFAC
 40
1.0
  9
$DIMGAP
 40
0.09
  9
$DIMJUST
 70
     0
  9
$DIMSD1
 70
     0
  9
$DIMSD2
 70
     0
  9
$DIMTOLJ
 70
     1
  9
$DIMTZIN
 70
     0
  9
$DIMALTZ
 70
     0
  9
$DIMALTTZ
 70
     0
  9
$DIMFIT
 70
     3
  9
$DIMUPT
 70
     1
  9
$DIMUNIT
 70
     7
  9
$DIMDEC
 70
     4
  9
$DIMTDEC
 70
     4
  9
$DIMALTU
 70
     2
  9
$DIMALTTD
 70
     2
  9
$DIMTXSTY
  7
STANDARD
  9
$DIMAUNIT
 70
     0
  9
$LUNITS
 70
     5
  9
$LUPREC
 70
     6
  9
$SKETCHINC
 40
0.1
  9
$FILLETRAD
 40
0.0
  9
$AUNITS
 70
     0
  9
$AUPREC
 70
     1
  9
$MENU
  1
CUSTOM
  9
$ELEVATION
 40
0.0
  9
$PELEVATION
 40
0.0
  9
$THICKNESS
 40
0.0
  9
$LIMCHECK
 70
     0
  9
$BLIPMODE
 70
     0
  9
$CHAMFERA
 40
0.0
  9
$CHAMFERB
 40
0.0
  9
$CHAMFERC
 40
0.0
  9
$CHAMFERD
 40
0.0
  9
$SKPOLY
 70
     0
  9
$TDCREATE
 40
2451263.621564698
  9
$TDUPDATE
 40
2453025.969152731
  9
$TDINDWG
 40
1.0608430903
  9
$TDUSRTIMER
 40
1.0608430903
  9
$USRTIMER
 70
     1
  9
$ANGBASE
 50
0.0
  9
$ANGDIR
 70
     0
  9
$PDMODE
 70
     0
  9
$PDSIZE
 40
0.0
  9
$PLINEWID
 40
0.0
  9
$COORDS
 70
     2
  9
$SPLFRAME
 70
     0
  9
$SPLINETYPE
 70
     6
  9
$SPLINESEGS
 70
     8
  9
$ATTDIA
 70
     0
  9
$ATTREQ
 70
     0
  9
$HANDLING
 70
     1
  9
$HANDSEED
  5
161
  9
$SURFTAB1
 70
     6
  9
$SURFTAB2
 70
     6
  9
$SURFTYPE
 70
     6
  9
$SURFU
 70
     6
  9
$SURFV
 70
     6
  9
$UCSNAME
  2

  9
$UCSORG
 10
0.0
 20
0.0
 30
0.0
  9
$UCSXDIR
 10
1.0
 20
0.0
 30
0.0
  9
$UCSYDIR
 10
0.0
 20
1.0
 30
0.0
  9
$PUCSNAME
  2

  9
$PUCSORG
 10
0.0
 20
0.0
 30
0.0
  9
$PUCSXDIR
 10
1.0
 20
0.0
 30
0.0
  9
$PUCSYDIR
 10
0.0
 20
1.0
 30
0.0
  9
$USERI1
 70
     0
  9
$USERI2
 70
     0
  9
$USERI3
 70
     0
  9
$USERI4
 70
     0
  9
$USERI5
 70
     0
  9
$USERR1
 40
0.0
  9
$USERR2
 40
0.0
  9
$USERR3
 40
0.0
  9
$USERR4
 40
0.0
  9
$USERR5
 40
0.0
  9
$WORLDVIEW
 70
     1
  9
$SHADEDGE
 70
     3
  9
$SHADEDIF
 70
    70
  9
$TILEMODE
 70
     1
  9
$MAXACTVP
 70
    16
  9
$PINSBASE
 10
0.0
 20
0.0
 30
0.0
  9
$PLIMCHECK
 70
     0
  9
$PEXTMIN
 10
1.000000000000000E+20
 20
1.000000000000000E+20
 30
1.000000000000000E+20
  9
$PEXTMAX
 10
-1.000000000000000E+20
 20
-1.000000000000000E+20
 30
-1.000000000000000E+20
  9
$PLIMMIN
 10
0.0
 20
0.0
  9
$PLIMMAX
 10
12.0
 20
9.0
  9
$UNITMODE
 70
     0
  9
$VISRETAIN
 70
     0
  9
$PLINEGEN
 70
     0
  9
$PSLTSCALE
 70
     0
  9
$TREEDEPTH
 70
  3020
  9
$PICKSTYLE
 70
     1
  9
$CMLSTYLE
  2
STANDARD
  9
$CMLJUST
 70
     0
  9
$CMLSCALE
 40
1.0
  9
$PROXYGRAPHICS
 70
     1
  9
$MEASUREMENT
 70
     0
  0
ENDSEC
  0
SECTION
  2
CLASSES
  0
CLASS
  1
ACDBDICTIONARYWDFLT
  2
AcDbDictionaryWithDefault
  3
AutoCAD 2000
 90
        0
280
     0
281
     0
  0
CLASS
  1
ACDBPLACEHOLDER
  2
AcDbPlaceHolder
  3
AutoCAD 2000
 90
        0
280
     0
281
     0
  0
CLASS
  1
LAYOUT
  2
AcDbLayout
  3
AutoCAD 2000
 90
        0
280
     0
281
     0
  0
CLASS
  1
DICTIONARYVAR
  2
AcDbDictionaryVar
  3
"AutoCAD"
 90
        0
280
     0
281
     0
  0
CLASS
  1
SORTENTSTABLE
  2
AcDbSortentsTable
  3
"AutoCAD"
 90
        0
280
     0
281
     0
  0
CLASS
  1
LONG_TRANSACTION
  2
AcDbLongTransaction
  3
AutoCAD 2000
 90
        0
280
     0
281
     0
  0
CLASS
  1
LWPOLYLINE
  2
AcDbPolyline
  3
"AutoCAD"
 90
        0
280
     0
281
     1
  0
CLASS
  1
HATCH
  2
AcDbHatch
  3
"ACAD_SEDONA"
 90
        0
280
     0
281
     1
  0
CLASS
  1
XRECORD
  2
AcDbXrecord
  3
"<Built In>"
 90
        0
280
     0
281
     0
  0
CLASS
  1
LONG_TRANSACTION
  2
AcDbLongTransaction
  3
AutoCAD 2000
 90
        0
280
     0
281
     0
  0
CLASS
  1
LWPOLYLINE
  2
AcDbPolyline
  3
"AutoCAD"
 90
        0
280
     0
281
     1
  0
CLASS
  1
HATCH
  2
AcDbHatch
  3
"ACAD_SEDONA"
 90
        0
280
     0
281
     1
  0
CLASS
  1
XRECORD
  2
AcDbXrecord
  3
"<Built In>"
 90
        0
280
     0
281
     0
  0
CLASS
  1
LONG_TRANSACTION
  2
AcDbLongTransaction
  3
AutoCAD 2000
 90
        0
280
     0
281
     0
  0
CLASS
  1
LWPOLYLINE
  2
AcDbPolyline
  3
"AutoCAD"
 90
        0
280
     0
281
     1
  0
CLASS
  1
HATCH
  2
AcDbHatch
  3
"ACAD_SEDONA"
 90
        0
280
     0
281
     1
  0
CLASS
  1
XRECORD
  2
AcDbXrecord
  3
"<Built In>"
 90
        0
280
     0
281
     0
  0
CLASS
  1
LONG_TRANSACTION
  2
AcDbLongTransaction
  3
AutoCAD 2000
 90
        0
280
     0
281
     0
  0
CLASS
  1
LWPOLYLINE
  2
AcDbPolyline
  3
"AutoCAD"
 90
        0
280
     0
281
     1
  0
CLASS
  1
HATCH
  2
AcDbHatch
  3
"ACAD_SEDONA"
 90
        0
280
     0
281
     1
  0
CLASS
  1
XRECORD
  2
AcDbXrecord
  3
"<Built In>"
 90
        0
280
     0
281
     0
  0
CLASS
  1
LONG_TRANSACTION
  2
AcDbLongTransaction
  3
AutoCAD 2000
 90
        0
280
     0
281
     0
  0
CLASS
  1
LWPOLYLINE
  2
AcDbPolyline
  3
"AutoCAD"
 90
        0
280
     0
281
     1
  0
CLASS
  1
HATCH
  2
AcDbHatch
  3
"ACAD_SEDONA"
 90
        0
280
     0
281
     1
  0
CLASS
  1
XRECORD
  2
AcDbXrecord
  3
"<Built In>"
 90
        0
280
     0
281
     0
  0
ENDSEC
  0
SECTION
  2
TABLES
  0
TABLE
  2
VPORT
  5
152
100
AcDbSymbolTable
 70
     1
  0
VPORT
  5
153
100
AcDbSymbolTableRecord
100
AcDbViewportTableRecord
  2
*ACTIVE
 70
     0
 10
0.0
 20
0.0
 11
1.0
 21
1.0
 12
-0.0748198547903254
 22
11.29325860228134
 13
0.0
 23
0.0
 14
1.0
 24
1.0
 15
0.0
 25
0.0
 16
0.0
 26
0.0
 36
1.0
 17
6.676747070762353
 27
-3.482086544716401
 37
-1.208605809770076
 40
14.62303273755293
 41
1.379227053140096
 42
50.0
 43
0.0
 44
0.0
 50
0.0
 51
0.0
 71
     0
 72
   100
 73
     1
 74
     1
 75
     0
 76
     0
 77
     0
 78
     0
  0
ENDTAB
  0
TABLE
  2
LTYPE
  5
14D
100
AcDbSymbolTable
 70
     1
  0
LTYPE
  5
14E
100
AcDbSymbolTableRecord
100
AcDbLinetypeTableRecord
  2
BYBLOCK
 70
     0
  3

 72
    65
 73
     0
 40
0.0
  0
LTYPE
  5
14F
100
AcDbSymbolTableRecord
100
AcDbLinetypeTableRecord
  2
BYLAYER
 70
     0
  3

 72
    65
 73
     0
 40
0.0
  0
LTYPE
  5
5
100
AcDbSymbolTableRecord
100
AcDbLinetypeTableRecord
  2
CONTINUOUS
 70
     0
  3
Solid line
 72
    65
 73
     0
 40
0.0
  0
ENDTAB
  0
TABLE
  2
LAYER
  5
14B
100
AcDbSymbolTable
 70
     4
  0
LAYER
  5
80
100
AcDbSymbolTableRecord
100
AcDbLayerTableRecord
  2
0
 70
     0
 62
     7
  6
CONTINUOUS
  0
LAYER
  5
8
102
{ACAD_XDICTIONARY
360
9
102
}
100
AcDbSymbolTableRecord
100
AcDbLayerTableRecord
  2
USP-GEO
 70
     0
 62
     7
  6
CONTINUOUS
  0
LAYER
  5
7B
102
{ACAD_XDICTIONARY
360
7C
102
}
100
AcDbSymbolTableRecord
100
AcDbLayerTableRecord
  2
USP-TXT
 70
     0
 62
     7
  6
CONTINUOUS
  0
LAYER
  5
4
100
AcDbSymbolTableRecord
100
AcDbLayerTableRecord
  2
USP
 70
     0
 62
     7
  6
CONTINUOUS
  0
ENDTAB
  0
TABLE
  2
STYLE
  5
14C
100
AcDbSymbolTable
 70
     1
  0
STYLE
  5
7E
100
AcDbSymbolTableRecord
100
AcDbTextStyleTableRecord
  2
STANDARD
 70
     0
 40
0.0
 41
1.0
 50
0.0
 71
     0
 42
0.25
  3
txt
  4

  0
ENDTAB
  0
TABLE
  2
VIEW
  5
150
100
AcDbSymbolTable
 70
     0
  0
ENDTAB
  0
TABLE
  2
UCS
  5
151
100
AcDbSymbolTable
 70
     0
  0
ENDTAB
  0
TABLE
  2
APPID
  5
154
100
AcDbSymbolTable
 70
     1
  0
APPID
  5
10
100
AcDbSymbolTableRecord
100
AcDbRegAppTableRecord
  2
ACAD
 70
     0
  0
ENDTAB
  0
TABLE
  2
DIMSTYLE
  5
155
100
AcDbSymbolTable
 70
     1
  0
DIMSTYLE
105
15B
102
{ACAD_XDICTIONARY
360
15C
102
}
100
AcDbSymbolTableRecord
100
AcDbDimStyleTableRecord
  2
STANDARD
 70
     0
  3

  4

  5

  6

  7

 40
1.0
 41
0.125
 42
0.0625
 43
0.38
 44
0.09375
 45
0.0
 46
0.0
 47
0.0
 48
0.0
140
0.109375
141
0.0
142
0.0
143
25.4
144
1.0
145
0.0
146
1.0
147
0.09
 71
     0
 72
     0
 73
     1
 74
     1
 75
     0
 76
     0
 77
     0
 78
     8
170
     0
171
     2
172
     0
173
     0
174
     0
175
     0
176
     0
177
     0
178
     0
270
     7
271
     4
272
     4
273
     2
274
     2
340
7E
275
     0
280
     0
281
     0
282
     0
283
     1
284
     0
285
     0
286
     0
287
     3
288
     0
  0
ENDTAB
  0
TABLE
  2
BLOCK_RECORD
  5
1
100
AcDbSymbolTable
 70
     3
  0
BLOCK_RECORD
  5
2
102
{ACAD_XDICTIONARY
360
142
102
}
100
AcDbSymbolTableRecord
100
AcDbBlockTableRecord
  2
*MODEL_SPACE
  0
BLOCK_RECORD
  5
146
102
{ACAD_XDICTIONARY
360
147
102
}
100
AcDbSymbolTableRecord
100
AcDbBlockTableRecord
  2
*PAPER_SPACE
  0
BLOCK_RECORD
  5
6
100
AcDbSymbolTableRecord
100
AcDbBlockTableRecord
  2
TMP25PR_T
  0
BLOCK_RECORD
  5
83
100
AcDbSymbolTableRecord
100
AcDbBlockTableRecord
  2
TMP25PR_F
  0
BLOCK_RECORD
  5
FF
100
AcDbSymbolTableRecord
100
AcDbBlockTableRecord
  2
TMP25PR_S
  0
ENDTAB
  0
ENDSEC
  0
SECTION
  2
BLOCKS
  0
BLOCK
  5
144
100
AcDbEntity
  8
0
100
AcDbBlockBegin
  2
*MODEL_SPACE
 70
     0
 10
0.0
 20
0.0
 30
0.0
  3
*MODEL_SPACE
  1

  0
ENDBLK
  5
145
100
AcDbEntity
  8
0
100
AcDbBlockEnd
  0
BLOCK
  5
149
100
AcDbEntity
 67
     1
  8
0
100
AcDbBlockBegin
  2
*PAPER_SPACE
 70
     0
 10
0.0
 20
0.0
 30
0.0
  3
*PAPER_SPACE
  1

  0
ENDBLK
  5
14A
100
AcDbEntity
 67
     1
  8
0
100
AcDbBlockEnd
  0
BLOCK
  5
7F
100
AcDbEntity
  8
0
100
AcDbBlockBegin
  2
TMP25PR_T
 70
     0
 10
0.0
 20
0.0
 30
0.0
  3
TMP25PR_T
  1

  0
LWPOLYLINE
  5
7
100
AcDbEntity
  8
USP-GEO
100
AcDbPolyline
 90
        2
 70
   128
 43
0.0
 10
4.673911675322638
 20
3.355681736324379
 10
4.687650392769206
 20
3.355681736324379
  0
LWPOLYLINE
  5
B
100
AcDbEntity
  8
USP-GEO
100
AcDbPolyline
 90
        2
 70
   128
 43
0.0
 10
4.605218088089794
 20
3.355681736324379
 10
4.673911675322638
 20
3.355681736324379
  0
LWPOLYLINE
  5
C
100
AcDbEntity
  8
USP-GEO
100
AcDbPolyline
 90
        2
 70
   128
 43
0.0
 10
4.605218088089794
 20
3.355681736324379
 10
4.605905023962123
 20
3.355681736324379
  0
LWPOLYLINE
  5
D
100
AcDbEntity
  8
USP-GEO
100
AcDbPolyline
 90
        2
 70
   128
 43
0.0
 10
4.605218088089794
 20
3.355681736324379
 10
4.605905023962123
 20
3.355681736324379
  0
LWPOLYLINE
  5
E
100
AcDbEntity
  8
USP-GEO
100
AcDbPolyline
 90
        2
 70
   128
 43
0.0
 10
4.550263218303519
 20
3.355681736324379
 10
4.605218088089794
 20
3.355681736324379
  0
ELLIPSE
  5
F
100
AcDbEntity
  8
USP-GEO
  6
CONTINUOUS
100
AcDbEllipse
 10
4.593501156836269
 20
3.054605495082606
 30
0.0
 11
-0.0148147412151186
 21
0.0607188063348504
 31
0.0
210
0.0
220
0.0
230
1.0
 40
0.4531577022304368
 41
4.298893612915834
 42
5.460998134818991
1001
ACAD
1000
RTLwPs
1070
   128
  0
ELLIPSE
  5
11
100
AcDbEntity
  8
USP-GEO
  6
CONTINUOUS
100
AcDbEllipse
 10
4.638534477833055
 20
3.065593145151771
 30
0.0
 11
0.0148147412151196
 21
-0.0607188063348502
 31
0.0
210
0.0
220
0.0
230
1.0
 40
0.4531577022304359
 41
3.922652512523103
 42
10.19224547414018
1001
ACAD
1000
RTLwPs
1070
   128
  0
ELLIPSE
  5
12
100
AcDbEntity
  8
USP-GEO
  6
CONTINUOUS
100
AcDbEllipse
 10
4.638534477833055
 20
3.065593145151771
 30
0.0
 11
0.0148147412151196
 21
-0.0607188063348502
 31
0.0
210
0.0
220
0.0
230
1.0
 40
0.4531577022304359
 41
1.287839184358778
 42
4.141361635421318
1001
ACAD
1000
RTLwPs
1070
   128
  0
LWPOLYLINE
  5
13
100
AcDbEntity
  8
USP-GEO
100
AcDbPolyline
 90
        2
 70
   128
 43
0.0
 10
4.605218088089794
 20
3.094646104839576
 10
4.605218088089794
 20
1.939219967583158
  0
ELLIPSE
  5
14
100
AcDbEntity
  8
USP-GEO
  6
CONTINUOUS
100
AcDbEllipse
 10
4.593489726610317
 20
1.905148491378204
 30
0.0
 11
-0.0148147412151186
 21
0.0607188063348504
 31
0.0
210
0.0
220
0.0
230
1.0
 40
0.4531577022304368
 41
4.169943385371306
 42
4.18180371321692
1001
ACAD
1000
RTLwPs
1070
   128
  0
ELLIPSE
  5
15
100
AcDbEntity
  8
USP-GEO
  6
CONTINUOUS
100
AcDbEllipse
 10
4.638523047607105
 20
1.916136141447369
 30
0.0
 11
0.0148147412151196
 21
-0.0607188063348502
 31
0.0
210
0.0
220
0.0
230
1.0
 40
0.4531577022304359
 41
4.239916487564121
 42
7.480629507820915
1001
ACAD
1000
RTLwPs
1070
   128
  0
LWPOLYLINE
  5
16
100
AcDbEntity
  8
USP-GEO
100
AcDbPolyline
 90
        2
 70
   128
 43
0.0
 10
4.618956805536362
 20
3.039691235053302
 10
4.618956805536362
 20
1.884265097796882
  0
LWPOLYLINE
  5
17
100
AcDbEntity
  8
USP-GEO
100
AcDbPolyline
 90
        2
 70
   128
 43
0.0
 10
4.673911675322638
 20
1.89800381524345
 10
4.673911675322638
 20
3.05342995249987
  0
LWPOLYLINE
  5
18
100
AcDbEntity
  8
USP-GEO
100
AcDbPolyline
 90
        2
 70
   128
 43
0.0
 10
4.673911675322638
 20
1.609490748865511
 10
4.618956805536362
 20
1.609490748865511
  0
LWPOLYLINE
  5
19
100
AcDbEntity
  8
USP-GEO
100
AcDbPolyline
 90
        2
 70
   128
 43
0.0
 10
4.687650392769206
 20
1.609490748865511
 10
4.673911675322638
 20
1.609490748865511
  0
LWPOLYLINE
  5
1A
100
AcDbEntity
  8
USP-GEO
100
AcDbPolyline
 90
        2
 70
   128
 43
0.0
 10
4.605218088089794
 20
3.355681736324379
 10
4.550263218303519
 20
3.355681736324379
  0
LWPOLYLINE
  5
1B
100
AcDbEntity
  8
USP-GEO
100
AcDbPolyline
 90
        2
 70
   128
 43
0.0
 10
4.605218088089794
 20
3.355681736324379
 10
4.605218088089794
 20
2.887878407268718
  0
LWPOLYLINE
  5
1C
100
AcDbEntity
  8
USP-GEO
100
AcDbPolyline
 90
        2
 70
   128
 43
0.0
 10
1.800458921372815
 20
3.355681736324379
 10
1.800458921372815
 20
2.887878407268718
  0
LWPOLYLINE
  5
1D
100
AcDbEntity
  8
USP-GEO
100
AcDbPolyline
 90
        2
 70
   128
 43
0.0
 10
1.800458921372815
 20
2.887878407268718
 10
1.800458921372815
 20
1.609490748865511
  0
LWPOLYLINE
  5
1E
100
AcDbEntity
  8
USP-GEO
100
AcDbPolyline
 90
        2
 70
   128
 43
0.0
 10
1.800458921372815
 20
2.887878407268718
 10
1.84167507371252
 20
2.887878407268718
  0
LWPOLYLINE
  5
1F
100
AcDbEntity
  8
USP-GEO
100
AcDbPolyline
 90
        2
 70
   128
 43
0.0
 10
1.800458921372815
 20
3.355681736324379
 10
1.84167507371252
 20
3.355681736324379
  0
LWPOLYLINE
  5
20
100
AcDbEntity
  8
USP-GEO
100
AcDbPolyline
 90
        2
 70
   128
 43
0.0
 10
1.84167507371252
 20
2.887878407268718
 10
1.84167507371252
 20
2.448239448978524
  0
LWPOLYLINE
  5
21
100
AcDbEntity
  8
USP-GEO
100
AcDbPolyline
 90
        2
 70
   128
 43
0.0
 10
1.84167507371252
 20
2.887878407268718
 10
1.84167507371252
 20
3.355681736324379
  0
LWPOLYLINE
  5
22
100
AcDbEntity
  8
USP-GEO
100
AcDbPolyline
 90
        2
 70
   128
 43
0.0
 10
1.718026616693403
 20
3.355681736324379
 10
1.704287899246835
 20
3.355681736324379
  0
LWPOLYLINE
  5
23
100
AcDbEntity
  8
USP-GEO
100
AcDbPolyline
 90
        2
 70
   128
 43
0.0
 10
1.800458921372815
 20
3.355681736324379
 10
1.718026616693403
 20
3.355681736324379
  0
LWPOLYLINE
  5
24
100
AcDbEntity
  8
USP-GEO
100
AcDbPolyline
 90
        2
 70
   128
 43
0.0
 10
1.800458921372815
 20
3.355681736324379
 10
1.801145857245143
 20
3.355681736324379
  0
ELLIPSE
  5
25
100
AcDbEntity
  8
USP-GEO
  6
CONTINUOUS
100
AcDbEllipse
 10
1.758863231082847
 20
3.065593145151774
 30
0.0
 11
-0.0148147412151199
 21
-0.0607188063348501
 31
0.0
210
0.0
220
0.0
230
1.0
 40
0.4531577022304528
 41
2.234606458709862
 42
5.051364529292424
1001
ACAD
1000
RTLwPs
1070
   128
  0
LWPOLYLINE
  5
26
100
AcDbEntity
  8
USP-GEO
100
AcDbPolyline
 90
        2
 70
   128
 43
0.0
 10
1.786720203926246
 20
3.094646104839576
 10
1.786720203926246
 20
1.939219967583158
  0
ELLIPSE
  5
27
100
AcDbEntity
  8
USP-GEO
  6
CONTINUOUS
100
AcDbEllipse
 10
1.758874661308807
 20
1.916136141447372
 30
0.0
 11
-0.0148147412151199
 21
-0.0607188063348501
 31
0.0
210
0.0
220
0.0
230
1.0
 40
0.4531577022304528
 41
5.171496415727574
 42
8.390383156164048
1001
ACAD
1000
RTLwPs
1070
   128
  0
LWPOLYLINE
  5
28
100
AcDbEntity
  8
USP-GEO
100
AcDbPolyline
 90
        2
 70
   128
 43
0.0
 10
1.731765334139971
 20
1.89800381524345
 10
1.731765334139971
 20
3.05342995249987
  0
LWPOLYLINE
  5
29
100
AcDbEntity
  8
USP-GEO
100
AcDbPolyline
 90
        2
 70
   128
 43
0.0
 10
1.800458921372815
 20
3.355681736324379
 10
1.801145857245143
 20
3.355681736324379
  0
LWPOLYLINE
  5
2A
100
AcDbEntity
  8
USP-GEO
100
AcDbPolyline
 90
        2
 70
   128
 43
0.0
 10
1.84167507371252
 20
3.355681736324379
 10
1.800458921372815
 20
3.355681736324379
  0
LWPOLYLINE
  5
2B
100
AcDbEntity
  8
USP-GEO
100
AcDbPolyline
 90
        2
 70
   128
 43
0.0
 10
1.84167507371252
 20
3.355681736324379
 10
1.842362009584848
 20
3.355681736324379
  0
LWPOLYLINE
  5
2C
100
AcDbEntity
  8
USP-GEO
100
AcDbPolyline
 90
        2
 70
   128
 43
0.0
 10
1.704287899246835
 20
1.609490748865511
 10
1.718026616693403
 20
1.609490748865511
  0
LWPOLYLINE
  5
2D
100
AcDbEntity
  8
USP-GEO
100
AcDbPolyline
 90
        2
 70
   128
 43
0.0
 10
1.718026616693403
 20
1.609490748865511
 10
1.772981486479677
 20
1.609490748865511
  0
ELLIPSE
  5
2E
100
AcDbEntity
  8
USP-GEO
  6
CONTINUOUS
100
AcDbEllipse
 10
1.803896552079636
 20
3.05460549508261
 30
0.0
 11
0.0148147412151189
 21
0.0607188063348503
 31
0.0
210
0.0
220
0.0
230
1.0
 40
0.4531577022304536
 41
0.9326406098180466
 42
1.927897830562081
1001
ACAD
1000
RTLwPs
1070
   128
  0
ELLIPSE
  5
2F
100
AcDbEntity
  8
USP-GEO
  6
CONTINUOUS
100
AcDbEllipse
 10
1.803907982305594
 20
1.905148491378207
 30
0.0
 11
0.0148147412151189
 21
0.0607188063348503
 31
0.0
210
0.0
220
0.0
230
1.0
 40
0.4531577022304536
 41
2.033430488822844
 42
2.041886808485299
1001
ACAD
1000
RTLwPs
1070
   128
  0
LWPOLYLINE
  5
30
100
AcDbEntity
  8
USP-GEO
100
AcDbPolyline
 90
        2
 70
   128
 43
0.0
 10
1.772981486479677
 20
3.039691235053302
 10
1.772981486479677
 20
1.884265097796882
  0
ARC
  5
31
100
AcDbEntity
  8
USP-GEO
100
AcDbCircle
 10
1.917698854457857
 20
0.6054866690906007
 30
0.0
 40
0.0937499999999991
100
AcDbArc
 50
132.0059267669935
 51
132.3220796317649
  0
LWPOLYLINE
  5
32
100
AcDbEntity
  8
USP-GEO
100
AcDbPolyline
 90
        2
 70
   128
 43
0.0
 10
1.800458921372815
 20
0.6326679384144836
 10
1.539423289888011
 20
0.3578935894831119
  0
LWPOLYLINE
  5
33
100
AcDbEntity
  8
USP-GEO
100
AcDbPolyline
 90
        2
 70
   128
 43
0.0
 10
1.539423289888011
 20
0.3578935894831119
 10
1.539423289888011
 20
0.3029387196968365
  0
LWPOLYLINE
  5
34
100
AcDbEntity
  8
USP-GEO
100
AcDbPolyline
 90
        2
 70
   128
 43
0.0
 10
0.0
 20
0.3029387196968365
 10
1.539423289888011
 20
0.3029387196968365
  0
LWPOLYLINE
  5
35
100
AcDbEntity
  8
USP-GEO
100
AcDbPolyline
 90
        2
 70
   128
 43
0.0
 10
0.0
 20
1.416461768741221
 10
0.0
 20
0.3029387196968365
  0
LWPOLYLINE
  5
36
100
AcDbEntity
  8
USP-GEO
100
AcDbPolyline
 90
        2
 70
   128
 43
0.0
 10
1.566900724781149
 20
1.416461768741221
 10
0.0
 20
1.416461768741221
  0
LWPOLYLINE
  5
37
100
AcDbEntity
  8
USP-GEO
100
AcDbPolyline
 90
        2
 70
   128
 43
0.0
 10
1.84167507371252
 20
3.355681736324379
 10
4.550263218303519
 20
3.355681736324379
  0
LWPOLYLINE
  5
38
100
AcDbEntity
  8
USP-GEO
100
AcDbPolyline
 90
        2
 70
   128
 43
0.0
 10
4.825037567234892
 20
1.416461768741221
 10
6.39193829201604
 20
1.416461768741221
  0
LWPOLYLINE
  5
39
100
AcDbEntity
  8
USP-GEO
100
AcDbPolyline
 90
        2
 70
   128
 43
0.0
 10
6.39193829201604
 20
0.3029387196968365
 10
6.39193829201604
 20
1.416461768741221
  0
LWPOLYLINE
  5
3A
100
AcDbEntity
  8
USP-GEO
100
AcDbPolyline
 90
        2
 70
   128
 43
0.0
 10
4.866253719574598
 20
0.3029387196968365
 10
6.39193829201604
 20
0.3029387196968365
  0
LWPOLYLINE
  5
3B
100
AcDbEntity
  8
USP-GEO
100
AcDbPolyline
 90
        2
 70
   128
 43
0.0
 10
4.866253719574598
 20
0.3029387196968365
 10
4.866253719574598
 20
0.3578935894831119
  0
LWPOLYLINE
  5
3C
100
AcDbEntity
  8
USP-GEO
100
AcDbPolyline
 90
        2
 70
   128
 43
0.0
 10
4.591479370643225
 20
0.6326679384144836
 10
4.866253719574598
 20
0.3578935894831119
  0
ARC
  5
3D
100
AcDbEntity
  8
USP-GEO
100
AcDbCircle
 10
4.479698854457919
 20
0.6054866690905936
 30
0.0
 40
0.0937499999999991
100
AcDbArc
 50
49.94089937470541
 51
50.27966804726663
  0
CIRCLE
  5
3E
100
AcDbEntity
  8
USP-GEO
100
AcDbCircle
 10
0.654327448109898
 20
0.6970713644318263
 30
0.0
 40
0.156
  0
CIRCLE
  5
3F
100
AcDbEntity
  8
USP-GEO
100
AcDbCircle
 10
1.123698854457886
 20
0.8570866690906395
 30
0.0
 40
0.078
  0
CIRCLE
  5
40
100
AcDbEntity
  8
USP-GEO
100
AcDbCircle
 10
0.308142236019509
 20
1.097086669090648
 30
0.0
 40
0.078
  0
CIRCLE
  5
41
100
AcDbEntity
  8
USP-GEO
100
AcDbCircle
 10
3.198698854457927
 20
3.055486263666354
 30
0.0
 40
0.078
  0
CIRCLE
  5
42
100
AcDbEntity
  8
USP-GEO
100
AcDbCircle
 10
5.743070260805882
 20
0.6970713644318192
 30
0.0
 40
0.156
  0
CIRCLE
  5
43
100
AcDbEntity
  8
USP-GEO
100
AcDbCircle
 10
5.273698854457893
 20
0.8570866690906324
 30
0.0
 40
0.078
  0
CIRCLE
  5
44
100
AcDbEntity
  8
USP-GEO
100
AcDbCircle
 10
6.089255472896272
 20
1.097086669090641
 30
0.0
 40
0.078
  0
LWPOLYLINE
  5
45
100
AcDbEntity
  8
USP-GEO
100
AcDbPolyline
 90
        2
 70
   128
 43
0.0
 10
4.605218088089794
 20
2.887878407268718
 10
4.550263218303519
 20
2.887878407268718
  0
LWPOLYLINE
  5
46
100
AcDbEntity
  8
USP-GEO
100
AcDbPolyline
 90
        2
 70
   128
 43
0.0
 10
4.605218088089794
 20
2.887878407268718
 10
4.605218088089794
 20
1.609490748865511
  0
LWPOLYLINE
  5
47
100
AcDbEntity
  8
USP-GEO
100
AcDbPolyline
 90
        2
 70
   128
 43
0.0
 10
4.550263218303519
 20
3.355681736324379
 10
4.550950154175848
 20
3.355681736324379
  0
LWPOLYLINE
  5
48
100
AcDbEntity
  8
USP-GEO
100
AcDbPolyline
 90
        2
 70
   128
 43
0.0
 10
4.550263218303519
 20
2.887878407268718
 10
4.550263218303519
 20
3.355681736324379
  0
LWPOLYLINE
  5
49
100
AcDbEntity
  8
USP-GEO
100
AcDbPolyline
 90
        2
 70
   128
 43
0.0
 10
4.550263218303519
 20
2.887878407268718
 10
4.550263218303519
 20
2.448239448978524
  0
ELLIPSE
  5
4A
100
AcDbEntity
  8
USP-GEO
  6
CONTINUOUS
100
AcDbEllipse
 10
4.748499605789562
 20
1.134622554415146
 30
0.0
 11
0.0510629863152221
 21
0.0589624577894393
 31
0.0
210
0.0
220
0.0
230
1.0
 40
0.3535533905932677
 41
1.036734607721962
 42
3.332244257273724
1001
ACAD
1000
RTLwPs
1070
   128
  0
ELLIPSE
  5
4B
100
AcDbEntity
  8
USP-GEO
  6
CONTINUOUS
100
AcDbEllipse
 10
4.748499605789562
 20
1.134622554415146
 30
0.0
 11
0.0510629863152221
 21
0.0589624577894393
 31
0.0
210
0.0
220
0.0
230
1.0
 40
0.3535533905932677
 41
0.5117231551690084
 42
1.050289772621553
1001
ACAD
1000
RTLwPs
1070
   128
  0
ELLIPSE
  5
4C
100
AcDbEntity
  8
USP-GEO
  6
CONTINUOUS
100
AcDbEllipse
 10
4.748499605789562
 20
1.134622554415146
 30
0.0
 11
0.0510629863152221
 21
0.0589624577894393
 31
0.0
210
0.0
220
0.0
230
1.0
 40
0.3535533905932677
 41
3.312805543773194
 42
5.140110225649751
1001
ACAD
1000
RTLwPs
1070
   128
  0
ELLIPSE
  5
4D
100
AcDbEntity
  8
USP-GEO
  6
CONTINUOUS
100
AcDbEllipse
 10
4.748499605789562
 20
1.134622554415146
 30
0.0
 11
0.0510629863152221
 21
0.0589624577894393
 31
0.0
210
0.0
220
0.0
230
1.0
 40
0.3535533905932677
 41
5.137258482651024
 42
6.776142230390011
1001
ACAD
1000
RTLwPs
1070
   128
  0
ELLIPSE
  5
4E
100
AcDbEntity
  8
USP-GEO
  6
CONTINUOUS
100
AcDbEllipse
 10
4.710151228659655
 20
1.167833223203549
 30
0.0
 11
0.0510629863152221
 21
0.0589624577894393
 31
0.0
210
0.0
220
0.0
230
1.0
 40
0.3535533905932677
 41
5.378999990861201
 42
10.68743516792007
1001
ACAD
1000
RTLwPs
1070
   128
  0
LWPOLYLINE
  5
4F
100
AcDbEntity
  8
USP-GEO
100
AcDbPolyline
 90
        2
 70
   128
 43
0.0
 10
4.536524500856951
 20
0.0
 10
4.591479370643225
 20
0.0
  0
LWPOLYLINE
  5
50
100
AcDbEntity
  8
USP-GEO
100
AcDbPolyline
 90
        2
 70
   128
 43
0.0
 10
4.536524500856951
 20
0.0
 10
4.536524500856951
 20
0.7975325477733062
  0
LWPOLYLINE
  5
51
100
AcDbEntity
  8
USP-GEO
100
AcDbPolyline
 90
        2
 70
   128
 43
0.0
 10
4.536524500856951
 20
2.448239448978524
 10
4.591479370643225
 20
2.448239448978524
  0
LWPOLYLINE
  5
52
100
AcDbEntity
  8
USP-GEO
100
AcDbPolyline
 90
        2
 70
   128
 43
0.0
 10
4.536524500856951
 20
0.7975325477733062
 10
4.591479370643225
 20
0.7975325477733062
  0
LWPOLYLINE
  5
53
100
AcDbEntity
  8
USP-GEO
100
AcDbPolyline
 90
        2
 70
   128
 43
0.0
 10
4.536524500856951
 20
0.7975325477733062
 10
4.536524500856951
 20
2.407023296638817
  0
LWPOLYLINE
  5
54
100
AcDbEntity
  8
USP-GEO
100
AcDbPolyline
 90
        2
 70
   128
 43
0.0
 10
1.800458921372815
 20
0.7975325477733062
 10
1.800458921372815
 20
0.0
  0
LWPOLYLINE
  5
55
100
AcDbEntity
  8
USP-GEO
100
AcDbPolyline
 90
        2
 70
   128
 43
0.0
 10
1.855413791159089
 20
0.0
 10
1.800458921372815
 20
0.0
  0
LWPOLYLINE
  5
56
100
AcDbEntity
  8
USP-GEO
100
AcDbPolyline
 90
        2
 70
   128
 43
0.0
 10
1.855413791159089
 20
2.448239448978524
 10
1.800458921372815
 20
2.448239448978524
  0
LWPOLYLINE
  5
57
100
AcDbEntity
  8
USP-GEO
100
AcDbPolyline
 90
        2
 70
   128
 43
0.0
 10
1.855413791159089
 20
0.7975325477733062
 10
1.800458921372815
 20
0.7975325477733062
  0
LWPOLYLINE
  5
58
100
AcDbEntity
  8
USP-GEO
100
AcDbPolyline
 90
        2
 70
   128
 43
0.0
 10
1.800458921372815
 20
0.7975325477733062
 10
1.800458921372815
 20
2.448239448978524
  0
LWPOLYLINE
  5
59
100
AcDbEntity
  8
USP-GEO
100
AcDbPolyline
 90
        2
 70
   128
 43
0.0
 10
1.855413791159089
 20
0.7975325477733062
 10
1.855413791159089
 20
0.0
  0
LWPOLYLINE
  5
5A
100
AcDbEntity
  8
USP-GEO
100
AcDbPolyline
 90
        2
 70
   128
 43
0.0
 10
1.855413791159089
 20
2.407023296638817
 10
1.855413791159089
 20
0.7975325477733062
  0
LWPOLYLINE
  5
5B
100
AcDbEntity
  8
USP-GEO
100
AcDbPolyline
 90
        2
 70
   128
 43
0.0
 10
4.384711673072367
 20
0.5639743511816402
 10
4.384711673072367
 20
0.5777130686282082
  0
LWPOLYLINE
  5
5C
100
AcDbEntity
  8
USP-GEO
100
AcDbPolyline
 90
        2
 70
   128
 43
0.0
 10
3.931333997335605
 20
0.5639743511816402
 10
4.384711673072367
 20
0.5639743511816402
  0
LWPOLYLINE
  5
5D
100
AcDbEntity
  8
USP-GEO
100
AcDbPolyline
 90
        2
 70
   128
 43
0.0
 10
3.931333997335605
 20
0.5777130686282082
 10
3.931333997335605
 20
0.5639743511816402
  0
LWPOLYLINE
  5
5E
100
AcDbEntity
  8
USP-GEO
100
AcDbPolyline
 90
        2
 70
   128
 43
0.0
 10
3.78020810542335
 20
0.5639743511816402
 10
3.78020810542335
 20
0.5777130686282082
  0
LWPOLYLINE
  5
5F
100
AcDbEntity
  8
USP-GEO
100
AcDbPolyline
 90
        2
 70
   128
 43
0.0
 10
2.625468904039259
 20
0.5639743511816402
 10
3.78020810542335
 20
0.5639743511816402
  0
LWPOLYLINE
  5
60
100
AcDbEntity
  8
USP-GEO
100
AcDbPolyline
 90
        2
 70
   128
 43
0.0
 10
2.625468904039259
 20
0.5777130686282082
 10
2.625468904039259
 20
0.5639743511816402
  0
LWPOLYLINE
  5
61
100
AcDbEntity
  8
USP-GEO
100
AcDbPolyline
 90
        2
 70
   128
 43
0.0
 10
2.460604294680436
 20
0.5639743511816402
 10
2.460604294680436
 20
0.5777130686282082
  0
LWPOLYLINE
  5
62
100
AcDbEntity
  8
USP-GEO
100
AcDbPolyline
 90
        2
 70
   128
 43
0.0
 10
2.006539683071344
 20
0.5639743511816402
 10
2.460604294680436
 20
0.5639743511816402
  0
LWPOLYLINE
  5
63
100
AcDbEntity
  8
USP-GEO
100
AcDbPolyline
 90
        2
 70
   128
 43
0.0
 10
2.006539683071344
 20
0.5777130686282082
 10
2.006539683071344
 20
0.5639743511816402
  0
LWPOLYLINE
  5
64
100
AcDbEntity
  8
USP-GEO
100
AcDbPolyline
 90
        2
 70
   128
 43
0.0
 10
4.536524500856951
 20
2.407023296638817
 10
1.855413791159089
 20
2.407023296638817
  0
LWPOLYLINE
  5
65
100
AcDbEntity
  8
USP-GEO
100
AcDbPolyline
 90
        2
 70
   128
 43
0.0
 10
1.855413791159089
 20
2.448239448978524
 10
4.536524500856951
 20
2.448239448978524
  0
LWPOLYLINE
  5
66
100
AcDbEntity
  8
USP-GEO
100
AcDbPolyline
 90
        2
 70
   128
 43
0.0
 10
1.855413791159089
 20
0.687622808200759
 10
1.979062248178206
 20
0.6189292209679156
  0
ELLIPSE
  5
67
100
AcDbEntity
  8
USP-GEO
  6
CONTINUOUS
100
AcDbEllipse
 10
1.917698854457857
 20
0.5794860609542507
 30
0.0
 11
-0.09375
 21
0.0000000000000001
 31
0.0
210
0.0
220
0.0
230
1.0
 40
0.5000000000000005
 41
3.101699921322743
 42
4.051287626285185
1001
ACAD
1000
RTLwPs
1070
   128
  0
ELLIPSE
  5
68
100
AcDbEntity
  8
USP-GEO
  6
CONTINUOUS
100
AcDbEllipse
 10
2.542698854457886
 20
0.5794862636663627
 30
0.0
 11
-0.078
 21
0.0000000000000001
 31
0.0
210
0.0
220
0.0
230
1.0
 40
0.5000000000000005
 41
3.098772547510924
 42
6.326357309470727
1001
ACAD
1000
RTLwPs
1070
   128
  0
ELLIPSE
  5
69
100
AcDbEntity
  8
USP-GEO
  6
CONTINUOUS
100
AcDbEllipse
 10
3.854698854457891
 20
0.5794862636663592
 30
0.0
 11
-0.078
 21
0.0000000000000001
 31
0.0
210
0.0
220
0.0
230
1.0
 40
0.5000000000000005
 41
3.095349354947952
 42
6.330757849873728
1001
ACAD
1000
RTLwPs
1070
   128
  0
ELLIPSE
  5
6A
100
AcDbEntity
  8
USP-GEO
  6
CONTINUOUS
100
AcDbEllipse
 10
4.479698854457919
 20
0.5794860609542472
 30
0.0
 11
-0.09375
 21
0.0000000000000001
 31
0.0
210
0.0
220
0.0
230
1.0
 40
0.5000000000000005
 41
6.036377837392889
 42
12.31783813873832
1001
ACAD
1000
RTLwPs
1070
   128
  0
ELLIPSE
  5
6B
100
AcDbEntity
  8
USP-GEO
  6
CONTINUOUS
100
AcDbEllipse
 10
4.479698854457919
 20
0.5794860609542472
 30
0.0
 11
-0.09375
 21
0.0000000000000001
 31
0.0
210
0.0
220
0.0
230
1.0
 40
0.5000000000000005
 41
5.415183814967043
 42
6.320499171294894
1001
ACAD
1000
RTLwPs
1070
   128
  0
LWPOLYLINE
  5
6C
100
AcDbEntity
  8
USP-GEO
100
AcDbPolyline
 90
        2
 70
   128
 43
0.0
 10
4.412876043837834
 20
0.6189292209679156
 10
4.536524500856951
 20
0.687622808200759
  0
ELLIPSE
  5
6D
100
AcDbEntity
  8
USP-GEO
  6
CONTINUOUS
100
AcDbEllipse
 10
1.686246480256189
 20
1.16869925254579
 30
0.0
 11
-0.0510629863152223
 21
0.0589624577894392
 31
0.0
210
0.0
220
0.0
230
0.9999999999999998
 40
0.3535533905932815
 41
0.9851524750553485
 42
2.040383723035092
1001
ACAD
1000
RTLwPs
1070
   128
  0
ELLIPSE
  5
6E
100
AcDbEntity
  8
USP-GEO
  6
CONTINUOUS
100
AcDbEllipse
 10
1.647898103126284
 20
1.135488583757384
 30
0.0
 11
-0.0510629863152223
 21
0.0589624577894392
 31
0.0
210
0.0
220
0.0
230
0.9999999999999998
 40
0.3535533905932815
 41
0.0
 42
6.283185307179586
1001
ACAD
1000
RTLwPs
1070
   128
  0
ELLIPSE
  5
6F
100
AcDbEntity
  8
USP-GEO
  6
CONTINUOUS
100
AcDbEllipse
 10
1.647898103126284
 20
1.135488583757384
 30
0.0
 11
-0.0510629863152223
 21
0.0589624577894392
 31
0.0
210
0.0
220
0.0
230
0.9999999999999998
 40
0.3535533905932815
 41
0.0147136868872792
 42
5.911410710665324
1001
ACAD
1000
RTLwPs
1070
   128
  0
ELLIPSE
  5
70
100
AcDbEntity
  8
USP-GEO
  6
CONTINUOUS
100
AcDbEllipse
 10
1.647898103126284
 20
1.135488583757384
 30
0.0
 11
-0.0510629863152223
 21
0.0589624577894392
 31
0.0
210
0.0
220
0.0
230
0.9999999999999998
 40
0.3535533905932815
 41
0.0147136868872792
 42
1.173247549323444
1001
ACAD
1000
RTLwPs
1070
   128
  0
ELLIPSE
  5
71
100
AcDbEntity
  8
USP-GEO
  6
CONTINUOUS
100
AcDbEllipse
 10
1.647898103126284
 20
1.135488583757384
 30
0.0
 11
-0.0510629863152223
 21
0.0589624577894392
 31
0.0
210
0.0
220
0.0
230
0.9999999999999998
 40
0.3535533905932815
 41
1.175178893867349
 42
2.003582101525614
1001
ACAD
1000
RTLwPs
1070
   128
  0
ELLIPSE
  5
72
100
AcDbEntity
  8
USP-GEO
  6
CONTINUOUS
100
AcDbEllipse
 10
1.647898103126284
 20
1.135488583757384
 30
0.0
 11
-0.0510629863152223
 21
0.0589624577894392
 31
0.0
210
0.0
220
0.0
230
0.9999999999999998
 40
0.3535533905932815
 41
1.988425643201312
 42
3.53116965060773
1001
ACAD
1000
RTLwPs
1070
   128
  0
ELLIPSE
  5
73
100
AcDbEntity
  8
USP-GEO
  6
CONTINUOUS
100
AcDbEllipse
 10
1.647898103126284
 20
1.135488583757384
 30
0.0
 11
-0.0510629863152223
 21
0.0589624577894392
 31
0.0
210
0.0
220
0.0
230
0.9999999999999998
 40
0.3535533905932815
 41
3.545884446184141
 42
5.89169562445705
1001
ACAD
1000
RTLwPs
1070
   128
  0
LWPOLYLINE
  5
74
100
AcDbEntity
  8
USP-GEO
100
AcDbPolyline
 90
        2
 70
   128
 43
0.0
 10
4.591479370643225
 20
0.7975325477733062
 10
4.591479370643225
 20
0.0
  0
LWPOLYLINE
  5
75
100
AcDbEntity
  8
USP-GEO
100
AcDbPolyline
 90
        2
 70
   128
 43
0.0
 10
4.591479370643225
 20
0.7975325477733062
 10
4.591479370643225
 20
2.448239448978524
  0
ARC
  5
76
100
AcDbEntity
  8
USP-GEO
100
AcDbCircle
 10
1.854198854457925
 20
1.314150275230401
 30
0.0
 40
0.3020000000000001
100
AcDbArc
 50
99.86347324089402
 51
259.7136015141754
  0
ARC
  5
77
100
AcDbEntity
  8
USP-GEO
100
AcDbCircle
 10
4.542198854457919
 20
1.313284245888164
 30
0.0
 40
0.3020000000000001
100
AcDbArc
 50
279.4760994230414
 51
80.55409642078528
  0
LWPOLYLINE
  5
78
100
AcDbEntity
  8
USP-GEO
100
AcDbPolyline
 90
        2
 70
   128
 43
0.0
 10
1.704287899246835
 20
3.355681736324379
 10
1.704287899246835
 20
1.609490748865511
  0
LWPOLYLINE
  5
79
100
AcDbEntity
  8
USP-GEO
100
AcDbPolyline
 90
        2
 70
   128
 43
0.0
 10
4.687650392769206
 20
1.609490748865511
 10
4.687650392769206
 20
3.355681736324379
  0
TEXT
  5
7A
100
AcDbEntity
  8
USP-TXT
100
AcDbText
 10
1.19596914600802
 20
-0.8974083377147401
 30
0.0
 40
0.25
  1
TMP25 - TOP VIEW
 72
     1
 11
3.19596914600802
 21
-0.8974083377147401
 31
0.0
100
AcDbText
  0
ENDBLK
  5
81
100
AcDbEntity
  8
0
100
AcDbBlockEnd
  0
BLOCK
  5
FC
100
AcDbEntity
  8
0
100
AcDbBlockBegin
  2
TMP25PR_F
 70
     0
 10
0.0
 20
0.0
 30
0.0
  3
TMP25PR_F
  1

  0
LWPOLYLINE
  5
84
100
AcDbEntity
  8
USP-GEO
100
AcDbPolyline
 90
        2
 70
   128
 43
0.0
 10
1.539423289888011
 20
0.8524874175595797
 10
1.539423289888011
 20
0.8112712652198741
  0
LWPOLYLINE
  5
85
100
AcDbEntity
  8
USP-GEO
100
AcDbPolyline
 90
        2
 70
   128
 43
0.0
 10
0.7281520246681357
 20
0.0
 10
1.539423289888011
 20
0.8112712652198741
  0
LWPOLYLINE
  5
86
100
AcDbEntity
  8
USP-GEO
100
AcDbPolyline
 90
        2
 70
   128
 43
0.0
 10
0.0
 20
0.0
 10
0.7281520246681357
 20
0.0
  0
LWPOLYLINE
  5
87
100
AcDbEntity
  8
USP-GEO
100
AcDbPolyline
 90
        2
 70
   128
 43
0.0
 10
0.0
 20
0.8524874175595797
 10
0.0
 20
0.0
  0
CIRCLE
  5
88
100
AcDbEntity
  8
USP-GEO
100
AcDbCircle
 10
0.4766026079467549
 20
0.3101503718928473
 30
0.0
 40
0.078
  0
LWPOLYLINE
  5
89
100
AcDbEntity
  8
USP-GEO
100
AcDbPolyline
 90
        2
 70
   128
 43
0.0
 10
6.39193829201604
 20
0.0
 10
6.39193829201604
 20
0.8524874175595797
  0
LWPOLYLINE
  5
8A
100
AcDbEntity
  8
USP-GEO
100
AcDbPolyline
 90
        2
 70
   128
 43
0.0
 10
4.866253719574598
 20
0.8112712652198741
 10
4.866253719574598
 20
0.8524874175595797
  0
LWPOLYLINE
  5
8B
100
AcDbEntity
  8
USP-GEO
100
AcDbPolyline
 90
        2
 70
   128
 43
0.0
 10
4.384711673072367
 20
0.8112712652198741
 10
4.384711673072367
 20
0.8524874175595797
  0
LWPOLYLINE
  5
8C
100
AcDbEntity
  8
USP-GEO
100
AcDbPolyline
 90
        2
 70
   128
 43
0.0
 10
3.931333997335605
 20
0.8112712652198741
 10
3.931333997335605
 20
0.8524874175595797
  0
LWPOLYLINE
  5
8D
100
AcDbEntity
  8
USP-GEO
100
AcDbPolyline
 90
        2
 70
   128
 43
0.0
 10
3.78020810542335
 20
0.8112712652198741
 10
3.78020810542335
 20
0.8524874175595797
  0
LWPOLYLINE
  5
8E
100
AcDbEntity
  8
USP-GEO
100
AcDbPolyline
 90
        2
 70
   128
 43
0.0
 10
2.625468904039259
 20
0.8112712652198741
 10
2.625468904039259
 20
0.8524874175595797
  0
LWPOLYLINE
  5
8F
100
AcDbEntity
  8
USP-GEO
100
AcDbPolyline
 90
        2
 70
   128
 43
0.0
 10
2.460604294680436
 20
0.8112712652198741
 10
2.460604294680436
 20
0.8524874175595797
  0
LWPOLYLINE
  5
90
100
AcDbEntity
  8
USP-GEO
100
AcDbPolyline
 90
        2
 70
   128
 43
0.0
 10
2.006539683071344
 20
0.8112712652198741
 10
2.006539683071344
 20
0.8524874175595797
  0
LWPOLYLINE
  5
91
100
AcDbEntity
  8
USP-GEO
100
AcDbPolyline
 90
        2
 70
   128
 43
0.0
 10
6.39193829201604
 20
0.0
 10
5.663786267347904
 20
0.0
  0
LWPOLYLINE
  5
92
100
AcDbEntity
  8
USP-GEO
100
AcDbPolyline
 90
        2
 70
   128
 43
0.0
 10
5.663786267347904
 20
0.0
 10
4.866253719574598
 20
0.8112712652198741
  0
CIRCLE
  5
93
100
AcDbEntity
  8
USP-GEO
100
AcDbCircle
 10
5.920795100969013
 20
0.3101503718927674
 30
0.0
 40
0.078
  0
LWPOLYLINE
  5
94
100
AcDbEntity
  8
USP-GEO
100
AcDbPolyline
 90
        2
 70
   128
 43
0.0
 10
1.855413791159089
 20
0.8112712652198741
 10
1.539423289888011
 20
0.8112712652198741
  0
LWPOLYLINE
  5
95
100
AcDbEntity
  8
USP-GEO
100
AcDbPolyline
 90
        2
 70
   128
 43
0.0
 10
2.460604294680436
 20
0.8112712652198741
 10
2.006539683071344
 20
0.8112712652198741
  0
LWPOLYLINE
  5
96
100
AcDbEntity
  8
USP-GEO
100
AcDbPolyline
 90
        2
 70
   128
 43
0.0
 10
2.625468904039259
 20
0.8112712652198741
 10
2.460604294680436
 20
0.8112712652198741
  0
LWPOLYLINE
  5
97
100
AcDbEntity
  8
USP-GEO
100
AcDbPolyline
 90
        2
 70
   128
 43
0.0
 10
3.78020810542335
 20
0.8112712652198741
 10
2.625468904039259
 20
0.8112712652198741
  0
LWPOLYLINE
  5
98
100
AcDbEntity
  8
USP-GEO
100
AcDbPolyline
 90
        2
 70
   128
 43
0.0
 10
3.931333997335605
 20
0.8112712652198741
 10
3.78020810542335
 20
0.8112712652198741
  0
LWPOLYLINE
  5
99
100
AcDbEntity
  8
USP-GEO
100
AcDbPolyline
 90
        2
 70
   128
 43
0.0
 10
4.384711673072367
 20
0.8112712652198741
 10
3.931333997335605
 20
0.8112712652198741
  0
LWPOLYLINE
  5
9A
100
AcDbEntity
  8
USP-GEO
100
AcDbPolyline
 90
        2
 70
   128
 43
0.0
 10
4.550263218303519
 20
0.8112712652198741
 10
4.384711673072367
 20
0.8112712652198741
  0
LWPOLYLINE
  5
9B
100
AcDbEntity
  8
USP-GEO
100
AcDbPolyline
 90
        2
 70
   128
 43
0.0
 10
4.866253719574598
 20
0.8112712652198741
 10
4.550263218303519
 20
0.8112712652198741
  0
LWPOLYLINE
  5
9C
100
AcDbEntity
  8
USP-GEO
100
AcDbPolyline
 90
        2
 70
   128
 43
0.0
 10
4.6464342404295
 20
1.89800381524345
 10
4.605218088089794
 20
1.870526380350312
  0
ELLIPSE
  5
9D
100
AcDbEntity
  8
USP-GEO
  6
CONTINUOUS
100
AcDbEllipse
 10
4.611254684867337
 20
1.974684331291552
 30
0.0
 11
-0.0000000000000008
 21
-0.0828163569002147
 31
0.0
210
0.0
220
0.0
230
1.0
 40
0.9063154044609445
 41
0.4685988417119185
 42
1.476325972616714
1001
ACAD
1000
RTLwPs
1070
   128
  0
ELLIPSE
  5
9E
100
AcDbEntity
  8
USP-GEO
  6
CONTINUOUS
100
AcDbEllipse
 10
4.593489726610317
 20
2.735789123035912
 30
0.0
 11
0.0289766180877154
 21
-0.0553769410874119
 31
0.0
210
0.0
220
0.0
230
1.0
 40
0.21130096286859
 41
2.021686852132976
 42
2.100699486379195
1001
ACAD
1000
RTLwPs
1070
   128
  0
LWPOLYLINE
  5
9F
100
AcDbEntity
  8
USP-GEO
100
AcDbPolyline
 90
        2
 70
   128
 43
0.0
 10
4.673911675322638
 20
2.832923537482443
 10
4.605218088089794
 20
2.97031071194813
  0
ELLIPSE
  5
A0
100
AcDbEntity
  8
USP-GEO
  6
CONTINUOUS
100
AcDbEllipse
 10
4.611254684867344
 20
2.790684331291512
 30
0.0
 11
-0.0000000000000008
 21
-0.0828163569002147
 31
0.0
210
0.0
220
0.0
230
1.0
 40
0.9063154044609445
 41
0.5207837367873705
 42
2.119248812795134
1001
ACAD
1000
RTLwPs
1070
   128
  0
LWPOLYLINE
  5
A1
100
AcDbEntity
  8
USP-GEO
100
AcDbPolyline
 90
        2
 70
   128
 43
0.0
 10
4.605218088089794
 20
2.681797645570188
 10
4.6464342404295
 20
2.723013797909894
  0
LWPOLYLINE
  5
A2
100
AcDbEntity
  8
USP-GEO
100
AcDbPolyline
 90
        2
 70
   128
 43
0.0
 10
4.605218088089794
 20
2.681797645570188
 10
4.605218088089794
 20
0.8524874175595797
  0
LWPOLYLINE
  5
A3
100
AcDbEntity
  8
USP-GEO
100
AcDbPolyline
 90
        2
 70
   128
 43
0.0
 10
4.550263218303519
 20
1.045516397683869
 10
4.550263218303519
 20
0.8524874175595797
  0
ELLIPSE
  5
A4
100
AcDbEntity
  8
USP-GEO
  6
CONTINUOUS
100
AcDbEllipse
 10
4.611254684867344
 20
2.790684331291512
 30
0.0
 11
-0.0000000000000002
 21
-0.0254411873465995
 31
0.0
210
0.0
220
0.0
230
1.0
 40
0.9063154044609447
 41
0.3108298620821031
 42
2.128667413953463
1001
ACAD
1000
RTLwPs
1070
   128
  0
ELLIPSE
  5
A5
100
AcDbEntity
  8
USP-GEO
  6
CONTINUOUS
100
AcDbEllipse
 10
4.611254684867344
 20
2.790684331291512
 30
0.0
 11
-0.0000000000000002
 21
-0.0254411873465995
 31
0.0
210
0.0
220
0.0
230
1.0
 40
0.9063154044609447
 41
1.614014418661638
 42
7.895859654110694
1001
ACAD
1000
RTLwPs
1070
   128
  0
LWPOLYLINE
  5
A6
100
AcDbEntity
  8
USP-GEO
100
AcDbPolyline
 90
        2
 70
   128
 43
0.0
 10
4.591479370643225
 20
2.874139689822149
 10
4.632695522982932
 20
2.805446102589307
  0
LWPOLYLINE
  5
A7
100
AcDbEntity
  8
USP-GEO
100
AcDbPolyline
 90
        2
 70
   128
 43
0.0
 10
4.605218088089794
 20
3.039004299180973
 10
4.605218088089794
 20
2.97031071194813
  0
LWPOLYLINE
  5
A8
100
AcDbEntity
  8
USP-GEO
100
AcDbPolyline
 90
        2
 70
   128
 43
0.0
 10
1.74550405158654
 20
1.89800381524345
 10
1.800458921372815
 20
1.870526380350312
  0
ELLIPSE
  5
A9
100
AcDbEntity
  8
USP-GEO
  6
CONTINUOUS
100
AcDbEllipse
 10
1.786143024048562
 20
1.974684331291578
 30
0.0
 11
-0.0000000000000008
 21
-0.0828163569002147
 31
0.0
210
0.0
220
0.0
230
1.0
 40
0.9063154044609445
 41
4.800592315321862
 42
5.754046389054558
1001
ACAD
1000
RTLwPs
1070
   128
  0
LWPOLYLINE
  5
AA
100
AcDbEntity
  8
USP-GEO
100
AcDbPolyline
 90
        2
 70
   128
 43
0.0
 10
1.84167507371252
 20
1.045516397683869
 10
1.84167507371252
 20
0.8524874175595797
  0
LWPOLYLINE
  5
AB
100
AcDbEntity
  8
USP-GEO
100
AcDbPolyline
 90
        2
 70
   128
 43
0.0
 10
1.800458921372815
 20
0.8524874175595797
 10
1.800458921372815
 20
2.681797645570188
  0
LWPOLYLINE
  5
AC
100
AcDbEntity
  8
USP-GEO
100
AcDbPolyline
 90
        2
 70
   128
 43
0.0
 10
1.800458921372815
 20
2.681797645570188
 10
1.74550405158654
 20
2.723013797909894
  0
ELLIPSE
  5
AD
100
AcDbEntity
  8
USP-GEO
  6
CONTINUOUS
100
AcDbEllipse
 10
1.786143024048567
 20
2.790684331291538
 30
0.0
 11
-0.0000000000000008
 21
-0.0828163569002147
 31
0.0
210
0.0
220
0.0
230
1.0
 40
0.9063154044609445
 41
4.200372480158413
 42
5.697990307046906
1001
ACAD
1000
RTLwPs
1070
   128
  0
LWPOLYLINE
  5
AE
100
AcDbEntity
  8
USP-GEO
100
AcDbPolyline
 90
        2
 70
   128
 43
0.0
 10
1.718026616693403
 20
2.832923537482443
 10
1.800458921372815
 20
2.97031071194813
  0
LWPOLYLINE
  5
AF
100
AcDbEntity
  8
USP-GEO
100
AcDbPolyline
 90
        2
 70
   128
 43
0.0
 10
1.800458921372815
 20
3.039004299180973
 10
1.800458921372815
 20
2.97031071194813
  0
LWPOLYLINE
  5
B0
100
AcDbEntity
  8
USP-GEO
100
AcDbPolyline
 90
        2
 70
   128
 43
0.0
 10
1.800458921372815
 20
3.039004299180973
 10
1.801145857245143
 20
3.039004299180973
  0
ELLIPSE
  5
B1
100
AcDbEntity
  8
USP-GEO
  6
CONTINUOUS
100
AcDbEllipse
 10
1.786143024048567
 20
2.790684331291538
 30
0.0
 11
-0.0000000000000003
 21
-0.0254411873465995
 31
0.0
210
0.0
220
0.0
230
1.0
 40
0.9063154044609447
 41
4.677934194413331
 42
10.96021733581211
1001
ACAD
1000
RTLwPs
1070
   128
  0
ELLIPSE
  5
B2
100
AcDbEntity
  8
USP-GEO
  6
CONTINUOUS
100
AcDbEllipse
 10
1.786143024048567
 20
2.790684331291538
 30
0.0
 11
-0.0000000000000003
 21
-0.0254411873465995
 31
0.0
210
0.0
220
0.0
230
1.0
 40
0.9063154044609447
 41
5.803433767754522
 42
10.53404955402273
1001
ACAD
1000
RTLwPs
1070
   128
  0
LWPOLYLINE
  5
B3
100
AcDbEntity
  8
USP-GEO
100
AcDbPolyline
 90
        2
 70
   128
 43
0.0
 10
1.772981486479677
 20
2.764229950249601
 10
1.800458921372815
 20
2.750491232803032
  0
ELLIPSE
  5
B4
100
AcDbEntity
  8
USP-GEO
  6
CONTINUOUS
100
AcDbEllipse
 10
1.803907982305594
 20
2.735789123035937
 30
0.0
 11
-0.0289766180877165
 21
-0.0553769410874113
 31
0.0
210
0.0
220
0.0
230
1.0
 40
0.2113009628685921
 41
4.472510722810469
 42
10.69767827800575
1001
ACAD
1000
RTLwPs
1070
   128
  0
LWPOLYLINE
  5
B5
100
AcDbEntity
  8
USP-GEO
100
AcDbPolyline
 90
        2
 70
   128
 43
0.0
 10
1.800458921372815
 20
2.874139689822149
 10
1.759242769033109
 20
2.805446102589307
  0
LWPOLYLINE
  5
B6
100
AcDbEntity
  8
USP-GEO
100
AcDbPolyline
 90
        2
 70
   128
 43
0.0
 10
3.78020810542335
 20
0.8524874175595797
 10
3.931333997335605
 20
0.8524874175595797
  0
LWPOLYLINE
  5
B7
100
AcDbEntity
  8
USP-GEO
100
AcDbPolyline
 90
        2
 70
   128
 43
0.0
 10
2.460604294680436
 20
0.8524874175595797
 10
2.625468904039259
 20
0.8524874175595797
  0
LWPOLYLINE
  5
B8
100
AcDbEntity
  8
USP-GEO
100
AcDbPolyline
 90
        2
 70
   128
 43
0.0
 10
1.855413791159089
 20
0.8524874175595797
 10
2.006539683071344
 20
0.8524874175595797
  0
LWPOLYLINE
  5
B9
100
AcDbEntity
  8
USP-GEO
100
AcDbPolyline
 90
        2
 70
   128
 43
0.0
 10
1.855413791159089
 20
0.8524874175595797
 10
1.539423289888011
 20
0.8524874175595797
  0
LWPOLYLINE
  5
BA
100
AcDbEntity
  8
USP-GEO
100
AcDbPolyline
 90
        2
 70
   128
 43
0.0
 10
0.0
 20
0.8524874175595797
 10
1.539423289888011
 20
0.8524874175595797
  0
LWPOLYLINE
  5
BB
100
AcDbEntity
  8
USP-GEO
100
AcDbPolyline
 90
        2
 70
   128
 43
0.0
 10
4.866253719574598
 20
0.8524874175595797
 10
6.39193829201604
 20
0.8524874175595797
  0
LWPOLYLINE
  5
BC
100
AcDbEntity
  8
USP-GEO
100
AcDbPolyline
 90
        2
 70
   128
 43
0.0
 10
4.550263218303519
 20
0.8524874175595797
 10
4.866253719574598
 20
0.8524874175595797
  0
LWPOLYLINE
  5
BD
100
AcDbEntity
  8
USP-GEO
100
AcDbPolyline
 90
        2
 70
   128
 43
0.0
 10
4.618956805536362
 20
2.764229950249601
 10
4.591479370643225
 20
2.750491232803032
  0
LWPOLYLINE
  5
BE
100
AcDbEntity
  8
USP-GEO
100
AcDbPolyline
 90
        2
 70
   128
 43
0.0
 10
4.605218088089794
 20
3.039004299180973
 10
4.591479370643225
 20
3.039004299180973
  0
ELLIPSE
  5
BF
100
AcDbEntity
  8
USP-GEO
  6
CONTINUOUS
100
AcDbEllipse
 10
4.748499605789562
 20
4.399304054287137
 30
0.0
 11
0.0348826604489961
 21
-0.0697653208979936
 31
0.0
210
0.0
220
0.0
230
1.0
 40
0.6123724356957964
 41
3.50243923548035
 42
5.246697682757712
1001
ACAD
1000
RTLwPs
1070
   128
  0
ELLIPSE
  5
C0
100
AcDbEntity
  8
USP-GEO
  6
CONTINUOUS
100
AcDbEllipse
 10
4.748499605789562
 20
4.399304054287137
 30
0.0
 11
0.0348826604489961
 21
-0.0697653208979936
 31
0.0
210
0.0
220
0.0
230
1.0
 40
0.6123724356957964
 41
3.098721803430719
 42
3.513288584810259
1001
ACAD
1000
RTLwPs
1070
   128
  0
ELLIPSE
  5
C1
100
AcDbEntity
  8
USP-GEO
  6
CONTINUOUS
100
AcDbEllipse
 10
4.748499605789562
 20
4.399304054287137
 30
0.0
 11
0.0348826604489961
 21
-0.0697653208979936
 31
0.0
210
0.0
220
0.0
230
1.0
 40
0.6123724356957964
 41
3.111829842245024
 42
8.84746581644652
1001
ACAD
1000
RTLwPs
1070
   128
  0
ELLIPSE
  5
C2
100
AcDbEntity
  8
USP-GEO
  6
CONTINUOUS
100
AcDbEllipse
 10
4.748499605789562
 20
4.399304054287137
 30
0.0
 11
0.0348826604489961
 21
-0.0697653208979936
 31
0.0
210
0.0
220
0.0
230
1.0
 40
0.6123724356957964
 41
5.236817369532976
 42
6.049246500475971
1001
ACAD
1000
RTLwPs
1070
   128
  0
ELLIPSE
  5
C3
100
AcDbEntity
  8
USP-GEO
  6
CONTINUOUS
100
AcDbEllipse
 10
4.748499605789562
 20
4.399304054287137
 30
0.0
 11
0.0348826604489961
 21
-0.0697653208979936
 31
0.0
210
0.0
220
0.0
230
1.0
 40
0.6123724356957964
 41
6.034747938609894
 42
6.326432961223444
1001
ACAD
1000
RTLwPs
1070
   128
  0
ELLIPSE
  5
C4
100
AcDbEntity
  8
USP-GEO
  6
CONTINUOUS
100
AcDbEllipse
 10
4.748499605789562
 20
4.399304054287137
 30
0.0
 11
0.0348826604489961
 21
-0.0697653208979936
 31
0.0
210
0.0
220
0.0
230
1.0
 40
0.6123724356957964
 41
0.433485326500637
 42
6.313450904001837
1001
ACAD
1000
RTLwPs
1070
   128
  0
ELLIPSE
  5
C5
100
AcDbEntity
  8
USP-GEO
  6
CONTINUOUS
100
AcDbEllipse
 10
4.748499605789562
 20
4.399304054287137
 30
0.0
 11
0.0348826604489961
 21
-0.0697653208979936
 31
0.0
210
0.0
220
0.0
230
1.0
 40
0.6123724356957964
 41
0.4435234615963452
 42
2.551361339735762
1001
ACAD
1000
RTLwPs
1070
   128
  0
ELLIPSE
  5
C6
100
AcDbEntity
  8
USP-GEO
  6
CONTINUOUS
100
AcDbEllipse
 10
4.710151228659655
 20
4.380129865722183
 30
0.0
 11
-0.0348826604489961
 21
0.0697653208979936
 31
0.0
210
0.0
220
0.0
230
1.0
 40
0.6123724356957964
 41
3.608387191324037
 42
5.748569974787078
1001
ACAD
1000
RTLwPs
1070
   128
  0
LWPOLYLINE
  5
C7
100
AcDbEntity
  8
USP-GEO
100
AcDbPolyline
 90
        2
 70
   128
 43
0.0
 10
4.536524500856951
 20
1.045516397683869
 10
4.591479370643225
 20
1.045516397683869
  0
LWPOLYLINE
  5
C8
100
AcDbEntity
  8
USP-GEO
100
AcDbPolyline
 90
        2
 70
   128
 43
0.0
 10
4.536524500856951
 20
1.072993832577006
 10
4.591479370643225
 20
1.072993832577006
  0
LWPOLYLINE
  5
C9
100
AcDbEntity
  8
USP-GEO
100
AcDbPolyline
 90
        2
 70
   128
 43
0.0
 10
4.536524500856951
 20
1.072993832577006
 10
4.536524500856951
 20
3.602978650362613
  0
LWPOLYLINE
  5
CA
100
AcDbEntity
  8
USP-GEO
100
AcDbPolyline
 90
        2
 70
   128
 43
0.0
 10
4.536524500856951
 20
3.602978650362613
 10
4.591479370643225
 20
3.602978650362613
  0
LWPOLYLINE
  5
CB
100
AcDbEntity
  8
USP-GEO
100
AcDbPolyline
 90
        2
 70
   128
 43
0.0
 10
4.536524500856951
 20
3.602978650362613
 10
4.536524500856951
 20
4.97822426676413
  0
LWPOLYLINE
  5
CC
100
AcDbEntity
  8
USP-GEO
100
AcDbPolyline
 90
        2
 70
   128
 43
0.0
 10
4.536524500856951
 20
4.97822426676413
 10
4.591479370643225
 20
4.97822426676413
  0
LWPOLYLINE
  5
CD
100
AcDbEntity
  8
USP-GEO
100
AcDbPolyline
 90
        2
 70
   128
 43
0.0
 10
1.800458921372815
 20
4.97822426676413
 10
1.800458921372815
 20
3.602978650362613
  0
LWPOLYLINE
  5
CE
100
AcDbEntity
  8
USP-GEO
100
AcDbPolyline
 90
        2
 70
   128
 43
0.0
 10
1.800458921372815
 20
3.602978650362613
 10
1.800458921372815
 20
1.072993832577006
  0
LWPOLYLINE
  5
CF
100
AcDbEntity
  8
USP-GEO
100
AcDbPolyline
 90
        2
 70
   128
 43
0.0
 10
1.855413791159089
 20
3.602978650362613
 10
1.800458921372815
 20
3.602978650362613
  0
LWPOLYLINE
  5
D0
100
AcDbEntity
  8
USP-GEO
100
AcDbPolyline
 90
        2
 70
   128
 43
0.0
 10
1.855413791159089
 20
1.045516397683869
 10
1.800458921372815
 20
1.045516397683869
  0
LWPOLYLINE
  5
D1
100
AcDbEntity
  8
USP-GEO
100
AcDbPolyline
 90
        2
 70
   128
 43
0.0
 10
1.800458921372815
 20
1.072993832577006
 10
1.800458921372815
 20
1.045516397683869
  0
LWPOLYLINE
  5
D2
100
AcDbEntity
  8
USP-GEO
100
AcDbPolyline
 90
        2
 70
   128
 43
0.0
 10
1.855413791159089
 20
1.072993832577006
 10
1.800458921372815
 20
1.072993832577006
  0
LWPOLYLINE
  5
D3
100
AcDbEntity
  8
USP-GEO
100
AcDbPolyline
 90
        2
 70
   128
 43
0.0
 10
1.855413791159089
 20
4.97822426676413
 10
1.800458921372815
 20
4.97822426676413
  0
LWPOLYLINE
  5
D4
100
AcDbEntity
  8
USP-GEO
100
AcDbPolyline
 90
        2
 70
   128
 43
0.0
 10
1.855413791159089
 20
3.602978650362613
 10
1.855413791159089
 20
1.072993832577006
  0
LWPOLYLINE
  5
D5
100
AcDbEntity
  8
USP-GEO
100
AcDbPolyline
 90
        2
 70
   128
 43
0.0
 10
1.855413791159089
 20
4.97822426676413
 10
1.855413791159089
 20
3.602978650362613
  0
LWPOLYLINE
  5
D6
100
AcDbEntity
  8
USP-GEO
100
AcDbPolyline
 90
        2
 70
   128
 43
0.0
 10
4.384711673072367
 20
0.8524874175595797
 10
4.384711673072367
 20
0.9074422873458551
  0
LWPOLYLINE
  5
D7
100
AcDbEntity
  8
USP-GEO
100
AcDbPolyline
 90
        2
 70
   128
 43
0.0
 10
3.931333997335605
 20
0.8524874175595797
 10
4.384711673072367
 20
0.8524874175595797
  0
LWPOLYLINE
  5
D8
100
AcDbEntity
  8
USP-GEO
100
AcDbPolyline
 90
        2
 70
   128
 43
0.0
 10
3.931333997335605
 20
0.9074422873458551
 10
3.931333997335605
 20
0.8524874175595797
  0
LWPOLYLINE
  5
D9
100
AcDbEntity
  8
USP-GEO
100
AcDbPolyline
 90
        2
 70
   128
 43
0.0
 10
3.78020810542335
 20
0.8524874175595797
 10
3.78020810542335
 20
0.9074422873458551
  0
LWPOLYLINE
  5
DA
100
AcDbEntity
  8
USP-GEO
100
AcDbPolyline
 90
        2
 70
   128
 43
0.0
 10
2.625468904039259
 20
0.8524874175595797
 10
3.78020810542335
 20
0.8524874175595797
  0
LWPOLYLINE
  5
DB
100
AcDbEntity
  8
USP-GEO
100
AcDbPolyline
 90
        2
 70
   128
 43
0.0
 10
2.625468904039259
 20
0.9074422873458551
 10
2.625468904039259
 20
0.8524874175595797
  0
LWPOLYLINE
  5
DC
100
AcDbEntity
  8
USP-GEO
100
AcDbPolyline
 90
        2
 70
   128
 43
0.0
 10
2.460604294680436
 20
0.8524874175595797
 10
2.460604294680436
 20
0.9074422873458551
  0
LWPOLYLINE
  5
DD
100
AcDbEntity
  8
USP-GEO
100
AcDbPolyline
 90
        2
 70
   128
 43
0.0
 10
2.006539683071344
 20
0.8524874175595797
 10
2.460604294680436
 20
0.8524874175595797
  0
LWPOLYLINE
  5
DE
100
AcDbEntity
  8
USP-GEO
100
AcDbPolyline
 90
        2
 70
   128
 43
0.0
 10
2.006539683071344
 20
0.9074422873458551
 10
2.006539683071344
 20
0.8524874175595797
  0
LWPOLYLINE
  5
DF
100
AcDbEntity
  8
USP-GEO
100
AcDbPolyline
 90
        2
 70
   128
 43
0.0
 10
4.536524500856951
 20
4.057043261971706
 10
1.855413791159089
 20
4.057043261971706
  0
LWPOLYLINE
  5
E0
100
AcDbEntity
  8
USP-GEO
100
AcDbPolyline
 90
        2
 70
   128
 43
0.0
 10
1.855413791159089
 20
1.045516397683869
 10
1.979062248178206
 20
0.9349197222389928
  0
LWPOLYLINE
  5
E1
100
AcDbEntity
  8
USP-GEO
100
AcDbPolyline
 90
        2
 70
   128
 43
0.0
 10
1.855413791159089
 20
1.072993832577006
 10
1.855413791159089
 20
1.045516397683869
  0
LWPOLYLINE
  5
E2
100
AcDbEntity
  8
USP-GEO
100
AcDbPolyline
 90
        2
 70
   128
 43
0.0
 10
1.855413791159089
 20
1.072993832577006
 10
1.979062248178206
 20
0.9630840930044577
  0
ELLIPSE
  5
E3
100
AcDbEntity
  8
USP-GEO
  6
CONTINUOUS
100
AcDbEllipse
 10
1.917698854457857
 20
0.8811833417818704
 30
0.0
 11
-0.09375
 21
0.0000000000000009
 31
0.0
210
0.0
220
0.0
230
1.0
 40
0.8660254037844383
 41
3.125756773942234
 42
3.932549612672808
1001
ACAD
1000
RTLwPs
1070
   128
  0
ELLIPSE
  5
E4
100
AcDbEntity
  8
USP-GEO
  6
CONTINUOUS
100
AcDbEllipse
 10
1.917698854457857
 20
0.9071833417818719
 30
0.0
 11
-0.09375
 21
0.0000000000000009
 31
0.0
210
0.0
220
0.0
230
1.0
 40
0.8660254037844383
 41
3.952282719812447
 42
9.428143569328364
1001
ACAD
1000
RTLwPs
1070
   128
  0
ELLIPSE
  5
E5
100
AcDbEntity
  8
USP-GEO
  6
CONTINUOUS
100
AcDbEllipse
 10
2.542698854457886
 20
0.8811836928895431
 30
0.0
 11
-0.078
 21
0.0000000000000008
 31
0.0
210
0.0
220
0.0
230
1.0
 40
0.8660254037844383
 41
3.124590608751521
 42
6.300327220816214
1001
ACAD
1000
RTLwPs
1070
   128
  0
ELLIPSE
  5
E6
100
AcDbEntity
  8
USP-GEO
  6
CONTINUOUS
100
AcDbEllipse
 10
2.542698854457886
 20
0.9071836928895429
 30
0.0
 11
-0.078
 21
0.0000000000000008
 31
0.0
210
0.0
220
0.0
230
1.0
 40
0.8660254037844383
 41
3.145200212894932
 42
6.279548064444415
1001
ACAD
1000
RTLwPs
1070
   128
  0
ELLIPSE
  5
E7
100
AcDbEntity
  8
USP-GEO
  6
CONTINUOUS
100
AcDbEllipse
 10
3.854698854457891
 20
0.8811836928895306
 30
0.0
 11
-0.078
 21
0.0000000000000008
 31
0.0
210
0.0
220
0.0
230
1.0
 40
0.8660254037844383
 41
3.123229831207298
 42
6.302076623191239
1001
ACAD
1000
RTLwPs
1070
   128
  0
ELLIPSE
  5
E8
100
AcDbEntity
  8
USP-GEO
  6
CONTINUOUS
100
AcDbEllipse
 10
3.854698854457891
 20
0.9071836928895304
 30
0.0
 11
-0.078
 21
0.0000000000000008
 31
0.0
210
0.0
220
0.0
230
1.0
 40
0.8660254037844383
 41
3.145489007607784
 42
6.279176788504605
1001
ACAD
1000
RTLwPs
1070
   128
  0
ELLIPSE
  5
E9
100
AcDbEntity
  8
USP-GEO
  6
CONTINUOUS
100
AcDbEllipse
 10
4.479698854457919
 20
0.8811833417818455
 30
0.0
 11
-0.09375
 21
0.0000000000000009
 31
0.0
210
0.0
220
0.0
230
1.0
 40
0.8660254037844383
 41
5.534809873557349
 42
6.297996646728754
1001
ACAD
1000
RTLwPs
1070
   128
  0
ELLIPSE
  5
EA
100
AcDbEntity
  8
USP-GEO
  6
CONTINUOUS
100
AcDbEllipse
 10
4.479698854457919
 20
0.9071833417818471
 30
0.0
 11
-0.09375
 21
0.0000000000000009
 31
0.0
210
0.0
220
0.0
230
1.0
 40
0.8660254037844383
 41
5.515096507135623
 42
6.280037476175321
1001
ACAD
1000
RTLwPs
1070
   128
  0
LWPOLYLINE
  5
EB
100
AcDbEntity
  8
USP-GEO
100
AcDbPolyline
 90
        2
 70
   128
 43
0.0
 10
4.536524500856951
 20
1.045516397683869
 10
4.536524500856951
 20
1.072993832577006
  0
LWPOLYLINE
  5
EC
100
AcDbEntity
  8
USP-GEO
100
AcDbPolyline
 90
        2
 70
   128
 43
0.0
 10
4.536524500856951
 20
1.045516397683869
 10
4.412876043837834
 20
0.9349197222389928
  0
LWPOLYLINE
  5
ED
100
AcDbEntity
  8
USP-GEO
100
AcDbPolyline
 90
        2
 70
   128
 43
0.0
 10
4.412876043837834
 20
0.9630840930044577
 10
4.536524500856951
 20
1.072993832577006
  0
ELLIPSE
  5
EE
100
AcDbEntity
  8
USP-GEO
  6
CONTINUOUS
100
AcDbEllipse
 10
1.686246480256189
 20
4.3796298725438
 30
0.0
 11
0.0348826604489974
 21
0.0697653208979929
 31
0.0
210
0.0
220
0.0
230
1.0
 40
0.6123724356957948
 41
0.6133238587547351
 42
2.6032559256461
1001
ACAD
1000
RTLwPs
1070
   128
  0
ELLIPSE
  5
EF
100
AcDbEntity
  8
USP-GEO
  6
CONTINUOUS
100
AcDbEllipse
 10
1.647898103126284
 20
4.398804061108753
 30
0.0
 11
-0.0348826604489974
 21
-0.0697653208979929
 31
0.0
210
0.0
220
0.0
230
1.0
 40
0.6123724356957948
 41
5.781140138356262
 42
6.177877477631135
1001
ACAD
1000
RTLwPs
1070
   128
  0
ELLIPSE
  5
F0
100
AcDbEntity
  8
USP-GEO
  6
CONTINUOUS
100
AcDbEllipse
 10
1.647898103126284
 20
4.398804061108753
 30
0.0
 11
-0.0348826604489974
 21
-0.0697653208979929
 31
0.0
210
0.0
220
0.0
230
1.0
 40
0.6123724356957948
 41
0.4419019869046613
 42
6.165538088925586
1001
ACAD
1000
RTLwPs
1070
   128
  0
ELLIPSE
  5
F1
100
AcDbEntity
  8
USP-GEO
  6
CONTINUOUS
100
AcDbEllipse
 10
1.647898103126284
 20
4.398804061108753
 30
0.0
 11
-0.0348826604489974
 21
-0.0697653208979929
 31
0.0
210
0.0
220
0.0
230
1.0
 40
0.6123724356957948
 41
3.524839973055648
 42
5.790186192653377
1001
ACAD
1000
RTLwPs
1070
   128
  0
ELLIPSE
  5
F2
100
AcDbEntity
  8
USP-GEO
  6
CONTINUOUS
100
AcDbEllipse
 10
1.647898103126284
 20
4.398804061108753
 30
0.0
 11
-0.0348826604489974
 21
-0.0697653208979929
 31
0.0
210
0.0
220
0.0
230
1.0
 40
0.6123724356957948
 41
2.850273252699577
 42
3.5386616222757
1001
ACAD
1000
RTLwPs
1070
   128
  0
ELLIPSE
  5
F3
100
AcDbEntity
  8
USP-GEO
  6
CONTINUOUS
100
AcDbEllipse
 10
1.647898103126284
 20
4.398804061108753
 30
0.0
 11
-0.0348826604489974
 21
-0.0697653208979929
 31
0.0
210
0.0
220
0.0
230
1.0
 40
0.6123724356957948
 41
0.4562188922002485
 42
2.838383271759447
1001
ACAD
1000
RTLwPs
1070
   128
  0
LWPOLYLINE
  5
F4
100
AcDbEntity
  8
USP-GEO
100
AcDbPolyline
 90
        2
 70
   128
 43
0.0
 10
4.591479370643225
 20
1.045516397683869
 10
4.591479370643225
 20
1.072993832577006
  0
LWPOLYLINE
  5
F5
100
AcDbEntity
  8
USP-GEO
100
AcDbPolyline
 90
        2
 70
   128
 43
0.0
 10
4.591479370643225
 20
3.602978650362613
 10
4.591479370643225
 20
1.072993832577006
  0
LWPOLYLINE
  5
F6
100
AcDbEntity
  8
USP-GEO
100
AcDbPolyline
 90
        2
 70
   128
 43
0.0
 10
4.591479370643225
 20
4.97822426676413
 10
4.591479370643225
 20
3.602978650362613
  0
ARC
  5
F7
100
AcDbEntity
  8
USP-GEO
100
AcDbCircle
 10
1.854198854457925
 20
4.29565368544293
 30
0.0
 40
0.3020000000000001
100
AcDbArc
 50
100.2495330060909
 51
259.6263189586025
  0
ARC
  5
F8
100
AcDbEntity
  8
USP-GEO
100
AcDbCircle
 10
4.542198854457919
 20
4.296153678621317
 30
0.0
 40
0.3020000000000001
100
AcDbArc
 50
279.5134305050043
 51
80.56951159733367
  0
LWPOLYLINE
  5
F9
100
AcDbEntity
  8
USP-GEO
100
AcDbPolyline
 90
        2
 70
   128
 43
0.0
 10
1.704287899246835
 20
1.966697402476293
 10
1.704287899246835
 20
2.791707385142737
  0
LWPOLYLINE
  5
FA
100
AcDbEntity
  8
USP-GEO
100
AcDbPolyline
 90
        2
 70
   128
 43
0.0
 10
4.687650392769206
 20
2.791707385142737
 10
4.687650392769206
 20
1.966697402476293
  0
TEXT
  5
FB
100
AcDbEntity
  8
USP-TXT
100
AcDbText
 10
0.9459691460080211
 20
-1.006183398593556
 30
0.0
 40
0.25
  1
TMP25 - FRONT VIEW
 72
     1
 11
3.19596914600802
 21
-1.006183398593556
 31
0.0
100
AcDbText
  0
ENDBLK
  5
FD
100
AcDbEntity
  8
0
100
AcDbBlockEnd
  0
BLOCK
  5
140
100
AcDbEntity
  8
0
100
AcDbBlockBegin
  2
TMP25PR_S
 70
     0
 10
0.0
 20
0.0
 30
0.0
  3
TMP25PR_S
  1

  0
LWPOLYLINE
  5
100
100
AcDbEntity
  8
USP-GEO
100
AcDbPolyline
 90
        2
 70
   128
 43
0.0
 10
1.415774832868894
 20
0.8112712652198741
 10
1.415774832868894
 20
0.8524874175595797
  0
LWPOLYLINE
  5
101
100
AcDbEntity
  8
USP-GEO
100
AcDbPolyline
 90
        2
 70
   128
 43
0.0
 10
0.3022517838245093
 20
0.0
 10
0.3022517838245093
 20
0.8524874175595797
  0
LWPOLYLINE
  5
102
100
AcDbEntity
  8
USP-GEO
100
AcDbPolyline
 90
        2
 70
   128
 43
0.0
 10
0.343467936164215
 20
0.0
 10
0.3022517838245093
 20
0.0
  0
LWPOLYLINE
  5
103
100
AcDbEntity
  8
USP-GEO
100
AcDbPolyline
 90
        2
 70
   128
 43
0.0
 10
0.343467936164215
 20
0.8112712652198741
 10
0.343467936164215
 20
0.0
  0
LWPOLYLINE
  5
104
100
AcDbEntity
  8
USP-GEO
100
AcDbPolyline
 90
        2
 70
   128
 43
0.0
 10
3.354307864579723
 20
0.8112712652198741
 10
3.354307864579723
 20
1.870526380350312
  0
LWPOLYLINE
  5
105
100
AcDbEntity
  8
USP-GEO
100
AcDbPolyline
 90
        2
 70
   128
 43
0.0
 10
1.415774832868894
 20
0.8112712652198741
 10
0.343467936164215
 20
0.8112712652198741
  0
LWPOLYLINE
  5
106
100
AcDbEntity
  8
USP-GEO
100
AcDbPolyline
 90
        2
 70
   128
 43
0.0
 10
1.594378159674286
 20
0.8112712652198741
 10
1.415774832868894
 20
0.8112712652198741
  0
LWPOLYLINE
  5
107
100
AcDbEntity
  8
USP-GEO
100
AcDbPolyline
 90
        2
 70
   128
 43
0.0
 10
1.594378159674286
 20
0.8112712652198741
 10
3.354307864579723
 20
0.8112712652198741
  0
LWPOLYLINE
  5
108
100
AcDbEntity
  8
USP-GEO
100
AcDbPolyline
 90
        2
 70
   128
 43
0.0
 10
3.354307864579723
 20
1.89800381524345
 10
3.354307864579723
 20
1.870526380350312
  0
LWPOLYLINE
  5
109
100
AcDbEntity
  8
USP-GEO
100
AcDbPolyline
 90
        2
 70
   128
 43
0.0
 10
3.354307864579723
 20
1.870526380350312
 10
1.594378159674286
 20
2.681797645570188
  0
LWPOLYLINE
  5
10A
100
AcDbEntity
  8
USP-GEO
100
AcDbPolyline
 90
        2
 70
   128
 43
0.0
 10
3.354307864579723
 20
2.007913554815999
 10
3.354307864579723
 20
1.89800381524345
  0
LWPOLYLINE
  5
10B
100
AcDbEntity
  8
USP-GEO
100
AcDbPolyline
 90
        2
 70
   128
 43
0.0
 10
3.354307864579723
 20
2.159039446728254
 10
3.354307864579723
 20
2.007913554815999
  0
LWPOLYLINE
  5
10C
100
AcDbEntity
  8
USP-GEO
100
AcDbPolyline
 90
        2
 70
   128
 43
0.0
 10
3.354307864579723
 20
2.159039446728254
 10
3.35499480045205
 20
2.159039446728254
  0
LWPOLYLINE
  5
10D
100
AcDbEntity
  8
USP-GEO
100
AcDbPolyline
 90
        2
 70
   128
 43
0.0
 10
3.354307864579723
 20
2.159039446728254
 10
3.35499480045205
 20
2.159039446728254
  0
ELLIPSE
  5
10E
100
AcDbEntity
  8
USP-GEO
  6
CONTINUOUS
100
AcDbEllipse
 10
3.047752223531773
 20
2.199791898826058
 30
0.0
 11
0.0566447127788089
 21
-0.0264126203585757
 31
0.0
210
0.0
220
0.0
230
1.0
 40
0.8660254037844604
 41
0.248071871626378
 42
1.594859649709533
1001
ACAD
1000
RTLwPs
1070
   128
  0
ELLIPSE
  5
10F
100
AcDbEntity
  8
USP-GEO
  6
CONTINUOUS
100
AcDbEllipse
 10
3.047752223531773
 20
2.199791898826058
 30
0.0
 11
0.0566447127788089
 21
-0.0264126203585757
 31
0.0
210
0.0
220
0.0
230
1.0
 40
0.8660254037844604
 41
0.5024290846075368
 42
6.785516858211869
1001
ACAD
1000
RTLwPs
1070
   128
  0
ELLIPSE
  5
110
100
AcDbEntity
  8
USP-GEO
  6
CONTINUOUS
100
AcDbEllipse
 10
3.058739873600941
 20
2.223356099342039
 30
0.0
 11
-0.0566447127788081
 21
0.0264126203585773
 31
0.0
210
0.0
220
0.0
230
1.0
 40
0.8660254037844568
 41
4.719684400442183
 42
10.50034341312806
1001
ACAD
1000
RTLwPs
1070
   128
  0
ELLIPSE
  5
111
100
AcDbEntity
  8
USP-GEO
  6
CONTINUOUS
100
AcDbEllipse
 10
3.058739873600941
 20
2.223356099342039
 30
0.0
 11
-0.0566447127788081
 21
0.0264126203585773
 31
0.0
210
0.0
220
0.0
230
1.0
 40
0.8660254037844568
 41
1.616317270560035
 42
4.223185640288166
1001
ACAD
1000
RTLwPs
1070
   128
  0
ELLIPSE
  5
112
100
AcDbEntity
  8
USP-GEO
  6
CONTINUOUS
100
AcDbEllipse
 10
3.058739873600941
 20
2.223356099342039
 30
0.0
 11
-0.0566447127788081
 21
0.0264126203585773
 31
0.0
210
0.0
220
0.0
230
1.0
 40
0.8660254037844568
 41
3.469462961954133
 42
3.471282190484974
1001
ACAD
1000
RTLwPs
1070
   128
  0
LWPOLYLINE
  5
113
100
AcDbEntity
  8
USP-GEO
100
AcDbPolyline
 90
        2
 70
   128
 43
0.0
 10
1.924794314264261
 20
2.777968667696169
 10
3.065794798201782
 20
2.241471751407665
  0
LWPOLYLINE
  5
114
100
AcDbEntity
  8
USP-GEO
100
AcDbPolyline
 90
        2
 70
   128
 43
0.0
 10
3.079533515648353
 20
2.268949186300803
 10
1.93853303171083
 20
2.805446102589307
  0
ELLIPSE
  5
115
100
AcDbEntity
  8
USP-GEO
  6
CONTINUOUS
100
AcDbEllipse
 10
1.898295219827375
 20
2.735789123035912
 30
0.0
 11
0.0566447127788089
 21
-0.0264126203585757
 31
0.0
210
0.0
220
0.0
230
1.0
 40
0.8660254037844604
 41
1.462736835894024
 42
2.743906405595882
1001
ACAD
1000
RTLwPs
1070
   128
  0
ELLIPSE
  5
116
100
AcDbEntity
  8
USP-GEO
  6
CONTINUOUS
100
AcDbEllipse
 10
1.909282869896539
 20
2.759353323551891
 30
0.0
 11
-0.0566447127788081
 21
0.0264126203585773
 31
0.0
210
0.0
220
0.0
230
1.0
 40
0.8660254037844568
 41
6.156071396924176
 42
7.830604279394879
1001
ACAD
1000
RTLwPs
1070
   128
  0
ELLIPSE
  5
117
100
AcDbEntity
  8
USP-GEO
  6
CONTINUOUS
100
AcDbEllipse
 10
1.909282869896539
 20
2.759353323551891
 30
0.0
 11
-0.0566447127788081
 21
0.0264126203585773
 31
0.0
210
0.0
220
0.0
230
1.0
 40
0.8660254037844568
 41
4.600383205525469
 42
6.149414126200039
1001
ACAD
1000
RTLwPs
1070
   128
  0
LWPOLYLINE
  5
118
100
AcDbEntity
  8
USP-GEO
100
AcDbPolyline
 90
        2
 70
   128
 43
0.0
 10
1.883578161924555
 20
2.709275080463326
 10
3.038317363308646
 20
2.172778164174822
  0
LWPOLYLINE
  5
119
100
AcDbEntity
  8
USP-GEO
100
AcDbPolyline
 90
        2
 70
   128
 43
0.0
 10
1.594378159674286
 20
2.832923537482443
 10
1.594378159674286
 20
2.97031071194813
  0
LWPOLYLINE
  5
11A
100
AcDbEntity
  8
USP-GEO
100
AcDbPolyline
 90
        2
 70
   128
 43
0.0
 10
1.594378159674286
 20
2.723013797909894
 10
1.594378159674286
 20
2.832923537482443
  0
LWPOLYLINE
  5
11B
100
AcDbEntity
  8
USP-GEO
100
AcDbPolyline
 90
        2
 70
   128
 43
0.0
 10
1.594378159674286
 20
2.681797645570188
 10
1.594378159674286
 20
2.723013797909894
  0
LWPOLYLINE
  5
11C
100
AcDbEntity
  8
USP-GEO
100
AcDbPolyline
 90
        2
 70
   128
 43
0.0
 10
1.594378159674286
 20
2.681797645570188
 10
1.594378159674286
 20
0.8112712652198741
  0
LWPOLYLINE
  5
11D
100
AcDbEntity
  8
USP-GEO
100
AcDbPolyline
 90
        2
 70
   128
 43
0.0
 10
1.594378159674286
 20
3.039004299180973
 10
1.594378159674286
 20
2.97031071194813
  0
LWPOLYLINE
  5
11E
100
AcDbEntity
  8
USP-GEO
100
AcDbPolyline
 90
        2
 70
   128
 43
0.0
 10
3.354307864579723
 20
2.461978166425092
 10
2.872765818077493
 20
3.039004299180973
  0
LWPOLYLINE
  5
11F
100
AcDbEntity
  8
USP-GEO
100
AcDbPolyline
 90
        2
 70
   128
 43
0.0
 10
3.354307864579723
 20
2.159039446728254
 10
3.354307864579723
 20
2.461978166425092
  0
LWPOLYLINE
  5
120
100
AcDbEntity
  8
USP-GEO
100
AcDbPolyline
 90
        2
 70
   128
 43
0.0
 10
1.594378159674286
 20
2.97031071194813
 10
3.354307864579723
 20
2.159039446728254
  0
LWPOLYLINE
  5
121
100
AcDbEntity
  8
USP-GEO
100
AcDbPolyline
 90
        2
 70
   128
 43
0.0
 10
1.415774832868894
 20
0.8524874175595797
 10
1.594378159674286
 20
0.8524874175595797
  0
LWPOLYLINE
  5
122
100
AcDbEntity
  8
USP-GEO
100
AcDbPolyline
 90
        2
 70
   128
 43
0.0
 10
0.3022517838245093
 20
0.8524874175595797
 10
1.415774832868894
 20
0.8524874175595797
  0
LWPOLYLINE
  5
123
100
AcDbEntity
  8
USP-GEO
100
AcDbPolyline
 90
        2
 70
   128
 43
0.0
 10
2.872765818077493
 20
3.039004299180973
 10
1.594378159674286
 20
3.039004299180973
  0
ELLIPSE
  5
124
100
AcDbEntity
  8
USP-GEO
  6
CONTINUOUS
100
AcDbEllipse
 10
1.127769282864317
 20
4.399304054287137
 30
0.0
 11
-0.0389999999999999
 21
-0.0675499814951861
 31
0.0
210
0.0
220
0.0
230
1.0
 40
0.7071067811865489
 41
0.6761889713759729
 42
6.240582635392009
1001
ACAD
1000
RTLwPs
1070
   128
  0
ELLIPSE
  5
125
100
AcDbEntity
  8
USP-GEO
  6
CONTINUOUS
100
AcDbEllipse
 10
1.127769282864317
 20
4.399304054287137
 30
0.0
 11
-0.0389999999999999
 21
-0.0675499814951861
 31
0.0
210
0.0
220
0.0
230
1.0
 40
0.7071067811865489
 41
3.136271755746454
 42
6.251037079767085
1001
ACAD
1000
RTLwPs
1070
   128
  0
ELLIPSE
  5
126
100
AcDbEntity
  8
USP-GEO
  6
CONTINUOUS
100
AcDbEllipse
 10
1.127769282864317
 20
4.399304054287137
 30
0.0
 11
-0.0389999999999999
 21
-0.0675499814951861
 31
0.0
210
0.0
220
0.0
230
1.0
 40
0.7071067811865489
 41
0.6877242895866008
 42
3.125938668640252
1001
ACAD
1000
RTLwPs
1070
   128
  0
ELLIPSE
  5
127
100
AcDbEntity
  8
USP-GEO
  6
CONTINUOUS
100
AcDbEllipse
 10
1.16097995165272
 20
4.380129865722183
 30
0.0
 11
0.0389999999999999
 21
0.0675499814951861
 31
0.0
210
0.0
220
0.0
230
1.0
 40
0.7071067811865489
 41
1.650609505085441
 42
2.791236687542772
1001
ACAD
1000
RTLwPs
1070
   128
  0
ELLIPSE
  5
128
100
AcDbEntity
  8
USP-GEO
  6
CONTINUOUS
100
AcDbEllipse
 10
1.16097995165272
 20
4.380129865722183
 30
0.0
 11
0.0389999999999999
 21
0.0675499814951861
 31
0.0
210
0.0
220
0.0
230
1.0
 40
0.7071067811865489
 41
0.3449849650918225
 42
1.654391664815537
1001
ACAD
1000
RTLwPs
1070
   128
  0
LWPOLYLINE
  5
129
100
AcDbEntity
  8
USP-GEO
100
AcDbPolyline
 90
        2
 70
   128
 43
0.0
 10
0.6045035676490187
 20
0.8524874175595797
 10
0.6182422850955885
 20
0.8799648524527174
  0
ARC
  5
12A
100
AcDbEntity
  8
USP-GEO
100
AcDbCircle
 10
1.143482204404158
 20
3.581919323068314
 30
0.0
 40
0.078
100
AcDbArc
 50
58.11899582928891
 51
153.9457070862792
  0
LWPOLYLINE
  5
12B
100
AcDbEntity
  8
USP-GEO
100
AcDbPolyline
 90
        2
 70
   128
 43
0.0
 10
1.072306896704679
 20
3.616717367809183
 10
0.673884090754191
 20
2.929094559608424
  0
ARC
  5
12C
100
AcDbEntity
  8
USP-GEO
100
AcDbCircle
 10
0.7461196651858835
 20
2.893667216117689
 30
0.0
 40
0.078
100
AcDbArc
 50
153.8747383286967
 51
238.9973996414926
  0
LWPOLYLINE
  5
12D
100
AcDbEntity
  8
USP-GEO
100
AcDbPolyline
 90
        2
 70
   128
 43
0.0
 10
0.5495486978627451
 20
0.8524874175595797
 10
0.5770261327558828
 20
0.9074422873458551
  0
LWPOLYLINE
  5
12E
100
AcDbEntity
  8
USP-GEO
100
AcDbPolyline
 90
        2
 70
   128
 43
0.0
 10
0.6457197199887244
 20
0.9349197222389928
 10
0.6182422850955885
 20
0.8799648524527174
  0
LWPOLYLINE
  5
12F
100
AcDbEntity
  8
USP-GEO
100
AcDbPolyline
 90
        2
 70
   128
 43
0.0
 10
0.5770261327558828
 20
0.9074422873458551
 10
0.6045035676490187
 20
0.9630840930044577
  0
LWPOLYLINE
  5
130
100
AcDbEntity
  8
USP-GEO
100
AcDbPolyline
 90
        2
 70
   128
 43
0.0
 10
0.7151002430938967
 20
1.045516397683869
 10
0.6457197199887244
 20
0.9349197222389928
  0
LWPOLYLINE
  5
131
100
AcDbEntity
  8
USP-GEO
100
AcDbPolyline
 90
        2
 70
   128
 43
0.0
 10
0.6045035676490187
 20
0.9630840930044577
 10
0.673884090754191
 20
1.072993832577006
  0
ELLIPSE
  5
132
100
AcDbEntity
  8
USP-GEO
  6
CONTINUOUS
100
AcDbEllipse
 10
1.161845980994957
 20
4.3796298725438
 30
0.0
 11
0.0389999999999999
 21
0.0675499814951861
 31
0.0
210
0.0
220
0.0
230
1.0
 40
0.7071067811865434
 41
1.652800296695251
 42
2.432726890293415
1001
ACAD
1000
RTLwPs
1070
   128
  0
ELLIPSE
  5
133
100
AcDbEntity
  8
USP-GEO
  6
CONTINUOUS
100
AcDbEllipse
 10
1.161845980994957
 20
4.3796298725438
 30
0.0
 11
0.0389999999999999
 21
0.0675499814951861
 31
0.0
210
0.0
220
0.0
230
1.0
 40
0.7071067811865434
 41
0.8086240441098746
 42
1.652800296695251
1001
ACAD
1000
RTLwPs
1070
   128
  0
LWPOLYLINE
  5
134
100
AcDbEntity
  8
USP-GEO
100
AcDbPolyline
 90
        2
 70
   128
 43
0.0
 10
0.7151002430938967
 20
1.045516397683869
 10
1.594378159674286
 20
2.571887905997641
  0
LWPOLYLINE
  5
135
100
AcDbEntity
  8
USP-GEO
100
AcDbPolyline
 90
        2
 70
   128
 43
0.0
 10
0.7151002430938967
 20
1.045516397683869
 10
0.673884090754191
 20
1.072993832577006
  0
LWPOLYLINE
  5
136
100
AcDbEntity
  8
USP-GEO
100
AcDbPolyline
 90
        2
 70
   128
 43
0.0
 10
0.0
 20
3.602978650362613
 10
0.673884090754191
 20
1.072993832577006
  0
LWPOLYLINE
  5
137
100
AcDbEntity
  8
USP-GEO
100
AcDbPolyline
 90
        2
 70
   128
 43
0.0
 10
0.78379383032674
 20
4.97822426676413
 10
0.0
 20
3.602978650362613
  0
LWPOLYLINE
  5
138
100
AcDbEntity
  8
USP-GEO
100
AcDbPolyline
 90
        2
 70
   128
 43
0.0
 10
0.78379383032674
 20
4.97822426676413
 10
2.4331268597873
 20
4.029565827078569
  0
LWPOLYLINE
  5
139
100
AcDbEntity
  8
USP-GEO
100
AcDbPolyline
 90
        2
 70
   128
 43
0.0
 10
1.856100727031417
 20
3.039004299180973
 10
2.4331268597873
 20
4.029565827078569
  0
LWPOLYLINE
  5
13A
100
AcDbEntity
  8
USP-GEO
100
AcDbPolyline
 90
        2
 70
   128
 43
0.0
 10
0.8112712652198759
 20
2.846662254929013
 10
1.209694071170366
 20
3.54802378057634
  0
ARC
  5
13B
100
AcDbEntity
  8
USP-GEO
100
AcDbCircle
 10
1.142616175061917
 20
3.582419316246701
 30
0.0
 40
0.078
100
AcDbArc
 50
332.852607932372
 51
153.9960994927209
  0
LWPOLYLINE
  5
13C
100
AcDbEntity
  8
USP-GEO
100
AcDbPolyline
 90
        2
 70
   128
 43
0.0
 10
1.072306896704679
 20
3.616717367809183
 10
0.673884090754191
 20
2.929094559608424
  0
ARC
  5
13D
100
AcDbEntity
  8
USP-GEO
100
AcDbCircle
 10
0.7452531805584748
 20
2.894167472154924
 30
0.0
 40
0.078
100
AcDbArc
 50
153.9234862161517
 51
324.2620078472995
  0
CIRCLE
  5
13E
100
AcDbEntity
  8
USP-GEO
100
AcDbCircle
 10
1.306430974337335
 20
4.296153678621317
 30
0.0
 40
0.2974894956128706
  0
TEXT
  5
13F
100
AcDbEntity
  8
USP-TXT
100
AcDbText
 10
-0.4061794010434725
 20
-1.006183398593556
 30
0.0
 40
0.25
  1
TMP25 - SIDE VIEW
 72
     1
 11
1.677153932289861
 21
-1.006183398593556
 31
0.0
100
AcDbText
  0
ENDBLK
  5
141
100
AcDbEntity
  8
0
100
AcDbBlockEnd
  0
ENDSEC
  0
SECTION
  2
ENTITIES
  0
INSERT
  5
3
100
AcDbEntity
  8
USP
100
AcDbBlockReference
  2
TMP25PR_T
 10
-0.0071829927245561
 20
10.42407498546079
 30
0.0
  0
INSERT
  5
82
100
AcDbEntity
  8
USP
100
AcDbBlockReference
  2
TMP25PR_F
 10
-0.0071829927245561
 20
1.554359001956106
 30
0.0
  0
INSERT
  5
FE
100
AcDbEntity
  8
USP
100
AcDbBlockReference
  2
TMP25PR_S
 10
9.450550097493266
 20
1.554359001956106
 30
0.0
  0
ENDSEC
  0
SECTION
  2
OBJECTS
  0
DICTIONARY
  5
159
100
AcDbDictionary
  3
ACAD_GROUP
350
157
  3
ACAD_MLINESTYLE
350
158
  0
DICTIONARY
  5
9
100
AcDbDictionary
280
     1
  3
ACAD_XREC_ROUNDTRIP
360
A
  0
DICTIONARY
  5
7C
100
AcDbDictionary
280
     1
  3
ACAD_XREC_ROUNDTRIP
360
7D
  0
DICTIONARY
  5
15C
100
AcDbDictionary
280
     1
  3
ACAD_XREC_ROUNDTRIP
360
15D
  0
DICTIONARY
  5
142
100
AcDbDictionary
280
     1
  3
ACAD_LAYOUTSELFREF
360
143
  0
DICTIONARY
  5
147
100
AcDbDictionary
280
     1
  3
ACAD_LAYOUTSELFREF
360
148
  0
DICTIONARY
  5
157
102
{ACAD_REACTORS
330
159
102
}
100
AcDbDictionary
  0
DICTIONARY
  5
158
102
{ACAD_REACTORS
330
159
102
}
100
AcDbDictionary
  3
STANDARD
350
15A
  0
XRECORD
  5
A
102
{ACAD_REACTORS
330
9
102
}
100
AcDbXrecord
102
EXTNAMES
  1
USP-GEO
  2
USP-Geo
  0
XRECORD
  5
7D
102
{ACAD_REACTORS
330
7C
102
}
100
AcDbXrecord
102
EXTNAMES
  1
USP-TXT
  2
USP-Txt
  0
XRECORD
  5
15D
102
{ACAD_REACTORS
330
15C
102
}
100
AcDbXrecord
102
ACADR14ROUNDTRIP
1000
DSTYLE
1002
{
1070
   276
 70
     2
1070
   277
 70
     5
1002
}
  0
XRECORD
  5
143
102
{ACAD_REACTORS
330
142
102
}
100
AcDbXrecord
340
2
  0
XRECORD
  5
148
102
{ACAD_REACTORS
330
147
102
}
100
AcDbXrecord
340
0
  0
MLINESTYLE
  5
15A
102
{ACAD_REACTORS
330
158
102
}
100
AcDbMlineStyle
  2
STANDARD
 70
     0
  3

 62
     0
 51
90.0
 52
90.0
 71
     2
 49
0.5
 62
   256
  6
BYLAYER
 49
-0.5
 62
   256
  6
BYLAYER
  0
ENDSEC
  0
EOF
