  0
SECTION
  2
HEADER
  9
$ACADVER
  1
AC1014
  9
$ACADMAINTVER
 70
     8
  9
$DWGCODEPAGE
  3
ANSI_1252
  9
$INSBASE
 10
0.0
 20
0.0
 30
0.0
  9
$EXTMIN
 10
-0.0050775491095294
 20
1.004854611585369
 30
0.0
  9
$EXTMAX
 10
13.84935784744633
 20
14.40646705116877
 30
0.0
  9
$LIMMIN
 10
0.0
 20
0.0
  9
$LIMMAX
 10
12.0
 20
9.0
  9
$ORTHOMODE
 70
     0
  9
$REGENMODE
 70
     1
  9
$FILLMODE
 70
     1
  9
$QTEXTMODE
 70
     0
  9
$MIRRTEXT
 70
     0
  9
$DRAGMODE
 70
     2
  9
$LTSCALE
 40
1.5
  9
$OSMODE
 70
     0
  9
$ATTMODE
 70
     1
  9
$TEXTSIZE
 40
0.25
  9
$TRACEWID
 40
0.05
  9
$TEXTSTYLE
  7
STANDARD
  9
$CLAYER
  8
USP
  9
$CELTYPE
  6
BYLAYER
  9
$CECOLOR
 62
   256
  9
$CELTSCALE
 40
1.0
  9
$DELOBJ
 70
     1
  9
$DISPSILH
 70
     1
  9
$DIMSCALE
 40
5.0
  9
$DIMASZ
 40
0.125
  9
$DIMEXO
 40
0.0625
  9
$DIMDLI
 40
0.38
  9
$DIMRND
 40
0.0
  9
$DIMDLE
 40
0.0
  9
$DIMEXE
 40
0.09375
  9
$DIMTP
 40
0.0
  9
$DIMTM
 40
0.0
  9
$DIMTXT
 40
0.109375
  9
$DIMCEN
 40
0.0
  9
$DIMTSZ
 40
0.0
  9
$DIMTOL
 70
     0
  9
$DIMLIM
 70
     0
  9
$DIMTIH
 70
     1
  9
$DIMTOH
 70
     1
  9
$DIMSE1
 70
     0
  9
$DIMSE2
 70
     0
  9
$DIMTAD
 70
     0
  9
$DIMZIN
 70
     8
  9
$DIMBLK
  1

  9
$DIMASO
 70
     1
  9
$DIMSHO
 70
     1
  9
$DIMPOST
  1

  9
$DIMAPOST
  1

  9
$DIMALT
 70
     0
  9
$DIMALTD
 70
     2
  9
$DIMALTF
 40
25.4
  9
$DIMLFAC
 40
1.0
  9
$DIMTOFL
 70
     0
  9
$DIMTVP
 40
0.0
  9
$DIMTIX
 70
     0
  9
$DIMSOXD
 70
     0
  9
$DIMSAH
 70
     0
  9
$DIMBLK1
  1

  9
$DIMBLK2
  1

  9
$DIMSTYLE
  2
STANDARD
  9
$DIMCLRD
 70
   256
  9
$DIMCLRE
 70
   256
  9
$DIMCLRT
 70
   256
  9
$DIMTFAC
 40
1.0
  9
$DIMGAP
 40
0.09
  9
$DIMJUST
 70
     0
  9
$DIMSD1
 70
     0
  9
$DIMSD2
 70
     0
  9
$DIMTOLJ
 70
     1
  9
$DIMTZIN
 70
     0
  9
$DIMALTZ
 70
     0
  9
$DIMALTTZ
 70
     0
  9
$DIMFIT
 70
     3
  9
$DIMUPT
 70
     1
  9
$DIMUNIT
 70
     7
  9
$DIMDEC
 70
     4
  9
$DIMTDEC
 70
     4
  9
$DIMALTU
 70
     2
  9
$DIMALTTD
 70
     2
  9
$DIMTXSTY
  7
STANDARD
  9
$DIMAUNIT
 70
     0
  9
$LUNITS
 70
     5
  9
$LUPREC
 70
     6
  9
$SKETCHINC
 40
0.1
  9
$FILLETRAD
 40
0.0
  9
$AUNITS
 70
     0
  9
$AUPREC
 70
     1
  9
$MENU
  1
CUSTOM
  9
$ELEVATION
 40
0.0
  9
$PELEVATION
 40
0.0
  9
$THICKNESS
 40
0.0
  9
$LIMCHECK
 70
     0
  9
$BLIPMODE
 70
     0
  9
$CHAMFERA
 40
0.0
  9
$CHAMFERB
 40
0.0
  9
$CHAMFERC
 40
0.0
  9
$CHAMFERD
 40
0.0
  9
$SKPOLY
 70
     0
  9
$TDCREATE
 40
2451263.621564698
  9
$TDUPDATE
 40
2453025.968578009
  9
$TDINDWG
 40
1.0626701620
  9
$TDUSRTIMER
 40
1.0626701620
  9
$USRTIMER
 70
     1
  9
$ANGBASE
 50
0.0
  9
$ANGDIR
 70
     0
  9
$PDMODE
 70
     0
  9
$PDSIZE
 40
0.0
  9
$PLINEWID
 40
0.0
  9
$COORDS
 70
     2
  9
$SPLFRAME
 70
     0
  9
$SPLINETYPE
 70
     6
  9
$SPLINESEGS
 70
     8
  9
$ATTDIA
 70
     0
  9
$ATTREQ
 70
     0
  9
$HANDLING
 70
     1
  9
$HANDSEED
  5
16C
  9
$SURFTAB1
 70
     6
  9
$SURFTAB2
 70
     6
  9
$SURFTYPE
 70
     6
  9
$SURFU
 70
     6
  9
$SURFV
 70
     6
  9
$UCSNAME
  2

  9
$UCSORG
 10
0.0
 20
0.0
 30
0.0
  9
$UCSXDIR
 10
1.0
 20
0.0
 30
0.0
  9
$UCSYDIR
 10
0.0
 20
1.0
 30
0.0
  9
$PUCSNAME
  2

  9
$PUCSORG
 10
0.0
 20
0.0
 30
0.0
  9
$PUCSXDIR
 10
1.0
 20
0.0
 30
0.0
  9
$PUCSYDIR
 10
0.0
 20
1.0
 30
0.0
  9
$USERI1
 70
     0
  9
$USERI2
 70
     0
  9
$USERI3
 70
     0
  9
$USERI4
 70
     0
  9
$USERI5
 70
     0
  9
$USERR1
 40
0.0
  9
$USERR2
 40
0.0
  9
$USERR3
 40
0.0
  9
$USERR4
 40
0.0
  9
$USERR5
 40
0.0
  9
$WORLDVIEW
 70
     1
  9
$SHADEDGE
 70
     3
  9
$SHADEDIF
 70
    70
  9
$TILEMODE
 70
     1
  9
$MAXACTVP
 70
    16
  9
$PINSBASE
 10
0.0
 20
0.0
 30
0.0
  9
$PLIMCHECK
 70
     0
  9
$PEXTMIN
 10
1.000000000000000E+20
 20
1.000000000000000E+20
 30
1.000000000000000E+20
  9
$PEXTMAX
 10
-1.000000000000000E+20
 20
-1.000000000000000E+20
 30
-1.000000000000000E+20
  9
$PLIMMIN
 10
0.0
 20
0.0
  9
$PLIMMAX
 10
12.0
 20
9.0
  9
$UNITMODE
 70
     0
  9
$VISRETAIN
 70
     0
  9
$PLINEGEN
 70
     0
  9
$PSLTSCALE
 70
     0
  9
$TREEDEPTH
 70
  3020
  9
$PICKSTYLE
 70
     1
  9
$CMLSTYLE
  2
STANDARD
  9
$CMLJUST
 70
     0
  9
$CMLSCALE
 40
1.0
  9
$PROXYGRAPHICS
 70
     1
  9
$MEASUREMENT
 70
     0
  0
ENDSEC
  0
SECTION
  2
CLASSES
  0
CLASS
  1
ACDBDICTIONARYWDFLT
  2
AcDbDictionaryWithDefault
  3
AutoCAD 2000
 90
        0
280
     0
281
     0
  0
CLASS
  1
ACDBPLACEHOLDER
  2
AcDbPlaceHolder
  3
AutoCAD 2000
 90
        0
280
     0
281
     0
  0
CLASS
  1
LAYOUT
  2
AcDbLayout
  3
AutoCAD 2000
 90
        0
280
     0
281
     0
  0
CLASS
  1
DICTIONARYVAR
  2
AcDbDictionaryVar
  3
"AutoCAD"
 90
        0
280
     0
281
     0
  0
CLASS
  1
SORTENTSTABLE
  2
AcDbSortentsTable
  3
"AutoCAD"
 90
        0
280
     0
281
     0
  0
CLASS
  1
LONG_TRANSACTION
  2
AcDbLongTransaction
  3
AutoCAD 2000
 90
        0
280
     0
281
     0
  0
CLASS
  1
LWPOLYLINE
  2
AcDbPolyline
  3
"AutoCAD"
 90
        0
280
     0
281
     1
  0
CLASS
  1
HATCH
  2
AcDbHatch
  3
"ACAD_SEDONA"
 90
        0
280
     0
281
     1
  0
CLASS
  1
XRECORD
  2
AcDbXrecord
  3
"<Built In>"
 90
        0
280
     0
281
     0
  0
CLASS
  1
LONG_TRANSACTION
  2
AcDbLongTransaction
  3
AutoCAD 2000
 90
        0
280
     0
281
     0
  0
CLASS
  1
LWPOLYLINE
  2
AcDbPolyline
  3
"AutoCAD"
 90
        0
280
     0
281
     1
  0
CLASS
  1
HATCH
  2
AcDbHatch
  3
"ACAD_SEDONA"
 90
        0
280
     0
281
     1
  0
CLASS
  1
XRECORD
  2
AcDbXrecord
  3
"<Built In>"
 90
        0
280
     0
281
     0
  0
CLASS
  1
LONG_TRANSACTION
  2
AcDbLongTransaction
  3
AutoCAD 2000
 90
        0
280
     0
281
     0
  0
CLASS
  1
LWPOLYLINE
  2
AcDbPolyline
  3
"AutoCAD"
 90
        0
280
     0
281
     1
  0
CLASS
  1
HATCH
  2
AcDbHatch
  3
"ACAD_SEDONA"
 90
        0
280
     0
281
     1
  0
CLASS
  1
XRECORD
  2
AcDbXrecord
  3
"<Built In>"
 90
        0
280
     0
281
     0
  0
CLASS
  1
LONG_TRANSACTION
  2
AcDbLongTransaction
  3
AutoCAD 2000
 90
        0
280
     0
281
     0
  0
CLASS
  1
LWPOLYLINE
  2
AcDbPolyline
  3
"AutoCAD"
 90
        0
280
     0
281
     1
  0
CLASS
  1
HATCH
  2
AcDbHatch
  3
"ACAD_SEDONA"
 90
        0
280
     0
281
     1
  0
CLASS
  1
XRECORD
  2
AcDbXrecord
  3
"<Built In>"
 90
        0
280
     0
281
     0
  0
CLASS
  1
LONG_TRANSACTION
  2
AcDbLongTransaction
  3
AutoCAD 2000
 90
        0
280
     0
281
     0
  0
CLASS
  1
LWPOLYLINE
  2
AcDbPolyline
  3
"AutoCAD"
 90
        0
280
     0
281
     1
  0
CLASS
  1
HATCH
  2
AcDbHatch
  3
"ACAD_SEDONA"
 90
        0
280
     0
281
     1
  0
CLASS
  1
XRECORD
  2
AcDbXrecord
  3
"<Built In>"
 90
        0
280
     0
281
     0
  0
ENDSEC
  0
SECTION
  2
TABLES
  0
TABLE
  2
VPORT
  5
15D
100
AcDbSymbolTable
 70
     1
  0
VPORT
  5
15E
100
AcDbSymbolTableRecord
100
AcDbViewportTableRecord
  2
*ACTIVE
 70
     0
 10
0.0
 20
0.0
 11
1.0
 21
1.0
 12
-0.0761220438138057
 22
11.28457280274387
 13
0.0
 23
0.0
 14
1.0
 24
1.0
 15
0.0
 25
0.0
 16
0.0
 26
0.0
 36
1.0
 17
6.998262225239582
 27
-2.923300145828628
 37
-2.547289755656698
 40
14.81076021400633
 41
1.379227053140096
 42
50.0
 43
0.0
 44
0.0
 50
0.0
 51
0.0
 71
     0
 72
   100
 73
     1
 74
     1
 75
     0
 76
     0
 77
     0
 78
     0
  0
ENDTAB
  0
TABLE
  2
LTYPE
  5
158
100
AcDbSymbolTable
 70
     1
  0
LTYPE
  5
159
100
AcDbSymbolTableRecord
100
AcDbLinetypeTableRecord
  2
BYBLOCK
 70
     0
  3

 72
    65
 73
     0
 40
0.0
  0
LTYPE
  5
15A
100
AcDbSymbolTableRecord
100
AcDbLinetypeTableRecord
  2
BYLAYER
 70
     0
  3

 72
    65
 73
     0
 40
0.0
  0
LTYPE
  5
5
100
AcDbSymbolTableRecord
100
AcDbLinetypeTableRecord
  2
CONTINUOUS
 70
     0
  3
Solid line
 72
    65
 73
     0
 40
0.0
  0
ENDTAB
  0
TABLE
  2
LAYER
  5
156
100
AcDbSymbolTable
 70
     4
  0
LAYER
  5
7D
100
AcDbSymbolTableRecord
100
AcDbLayerTableRecord
  2
0
 70
     0
 62
     7
  6
CONTINUOUS
  0
LAYER
  5
8
102
{ACAD_XDICTIONARY
360
9
102
}
100
AcDbSymbolTableRecord
100
AcDbLayerTableRecord
  2
USP-GEO
 70
     0
 62
     7
  6
CONTINUOUS
  0
LAYER
  5
78
102
{ACAD_XDICTIONARY
360
79
102
}
100
AcDbSymbolTableRecord
100
AcDbLayerTableRecord
  2
USP-TXT
 70
     0
 62
     7
  6
CONTINUOUS
  0
LAYER
  5
4
100
AcDbSymbolTableRecord
100
AcDbLayerTableRecord
  2
USP
 70
     0
 62
     7
  6
CONTINUOUS
  0
ENDTAB
  0
TABLE
  2
STYLE
  5
157
100
AcDbSymbolTable
 70
     1
  0
STYLE
  5
7B
100
AcDbSymbolTableRecord
100
AcDbTextStyleTableRecord
  2
STANDARD
 70
     0
 40
0.0
 41
1.0
 50
0.0
 71
     0
 42
0.25
  3
txt
  4

  0
ENDTAB
  0
TABLE
  2
VIEW
  5
15B
100
AcDbSymbolTable
 70
     0
  0
ENDTAB
  0
TABLE
  2
UCS
  5
15C
100
AcDbSymbolTable
 70
     0
  0
ENDTAB
  0
TABLE
  2
APPID
  5
15F
100
AcDbSymbolTable
 70
     1
  0
APPID
  5
37
100
AcDbSymbolTableRecord
100
AcDbRegAppTableRecord
  2
ACAD
 70
     0
  0
ENDTAB
  0
TABLE
  2
DIMSTYLE
  5
160
100
AcDbSymbolTable
 70
     1
  0
DIMSTYLE
105
166
102
{ACAD_XDICTIONARY
360
167
102
}
100
AcDbSymbolTableRecord
100
AcDbDimStyleTableRecord
  2
STANDARD
 70
     0
  3

  4

  5

  6

  7

 40
1.0
 41
0.125
 42
0.0625
 43
0.38
 44
0.09375
 45
0.0
 46
0.0
 47
0.0
 48
0.0
140
0.109375
141
0.0
142
0.0
143
25.4
144
1.0
145
0.0
146
1.0
147
0.09
 71
     0
 72
     0
 73
     1
 74
     1
 75
     0
 76
     0
 77
     0
 78
     8
170
     0
171
     2
172
     0
173
     0
174
     0
175
     0
176
     0
177
     0
178
     0
270
     7
271
     4
272
     4
273
     2
274
     2
340
7B
275
     0
280
     0
281
     0
282
     0
283
     1
284
     0
285
     0
286
     0
287
     3
288
     0
  0
ENDTAB
  0
TABLE
  2
BLOCK_RECORD
  5
1
100
AcDbSymbolTable
 70
     3
  0
BLOCK_RECORD
  5
2
102
{ACAD_XDICTIONARY
360
14D
102
}
100
AcDbSymbolTableRecord
100
AcDbBlockTableRecord
  2
*MODEL_SPACE
  0
BLOCK_RECORD
  5
151
102
{ACAD_XDICTIONARY
360
152
102
}
100
AcDbSymbolTableRecord
100
AcDbBlockTableRecord
  2
*PAPER_SPACE
  0
BLOCK_RECORD
  5
6
100
AcDbSymbolTableRecord
100
AcDbBlockTableRecord
  2
TMP31PR_T
  0
BLOCK_RECORD
  5
80
100
AcDbSymbolTableRecord
100
AcDbBlockTableRecord
  2
TMP31PR_F
  0
BLOCK_RECORD
  5
10B
100
AcDbSymbolTableRecord
100
AcDbBlockTableRecord
  2
TMP31PR_S
  0
ENDTAB
  0
ENDSEC
  0
SECTION
  2
BLOCKS
  0
BLOCK
  5
14F
100
AcDbEntity
  8
0
100
AcDbBlockBegin
  2
*MODEL_SPACE
 70
     0
 10
0.0
 20
0.0
 30
0.0
  3
*MODEL_SPACE
  1

  0
ENDBLK
  5
150
100
AcDbEntity
  8
0
100
AcDbBlockEnd
  0
BLOCK
  5
154
100
AcDbEntity
 67
     1
  8
0
100
AcDbBlockBegin
  2
*PAPER_SPACE
 70
     0
 10
0.0
 20
0.0
 30
0.0
  3
*PAPER_SPACE
  1

  0
ENDBLK
  5
155
100
AcDbEntity
 67
     1
  8
0
100
AcDbBlockEnd
  0
BLOCK
  5
7C
100
AcDbEntity
  8
0
100
AcDbBlockBegin
  2
TMP31PR_T
 70
     0
 10
0.0
 20
0.0
 30
0.0
  3
TMP31PR_T
  1

  0
LWPOLYLINE
  5
7
100
AcDbEntity
  8
USP-GEO
100
AcDbPolyline
 90
        2
 70
   128
 43
0.0
 10
1.982738348474059
 20
3.450582312357065
 10
2.040188210074177
 20
3.450582312357065
  0
LWPOLYLINE
  5
B
100
AcDbEntity
  8
USP-GEO
100
AcDbPolyline
 90
        2
 70
   128
 43
0.0
 10
2.040188210074177
 20
2.975902830886093
 10
2.040188210074177
 20
3.450582312357065
  0
LWPOLYLINE
  5
C
100
AcDbEntity
  8
USP-GEO
100
AcDbPolyline
 90
        2
 70
   128
 43
0.0
 10
1.982738348474059
 20
3.450582312357065
 10
1.982738348474059
 20
2.975902830886093
  0
LWPOLYLINE
  5
D
100
AcDbEntity
  8
USP-GEO
100
AcDbPolyline
 90
        2
 70
   128
 43
0.0
 10
1.982738348474059
 20
2.975902830886093
 10
2.040188210074177
 20
2.975902830886093
  0
LWPOLYLINE
  5
E
100
AcDbEntity
  8
USP-GEO
100
AcDbPolyline
 90
        2
 70
   128
 43
0.0
 10
2.040188210074177
 20
2.975902830886093
 10
2.040188210074177
 20
1.711287752413502
  0
LWPOLYLINE
  5
F
100
AcDbEntity
  8
USP-GEO
100
AcDbPolyline
 90
        2
 70
   128
 43
0.0
 10
1.982738348474059
 20
2.975902830886093
 10
1.982738348474059
 20
1.711287752413502
  0
LWPOLYLINE
  5
10
100
AcDbEntity
  8
USP-GEO
100
AcDbPolyline
 90
        2
 70
   128
 43
0.0
 10
1.982738348474059
 20
1.711287752413502
 10
2.040188210074177
 20
1.711287752413502
  0
LWPOLYLINE
  5
11
100
AcDbEntity
  8
USP-GEO
100
AcDbPolyline
 90
        2
 70
   128
 43
0.0
 10
5.288259760290827
 20
2.975902830886093
 10
5.288259760290827
 20
3.450582312357065
  0
LWPOLYLINE
  5
12
100
AcDbEntity
  8
USP-GEO
100
AcDbPolyline
 90
        2
 70
   128
 43
0.0
 10
5.345709621890947
 20
3.450582312357065
 10
5.288259760290827
 20
3.450582312357065
  0
LWPOLYLINE
  5
13
100
AcDbEntity
  8
USP-GEO
100
AcDbPolyline
 90
        2
 70
   128
 43
0.0
 10
5.345709621890947
 20
3.450582312357065
 10
5.345709621890947
 20
2.975902830886093
  0
LWPOLYLINE
  5
14
100
AcDbEntity
  8
USP-GEO
100
AcDbPolyline
 90
        2
 70
   128
 43
0.0
 10
5.288259760290827
 20
2.975902830886093
 10
5.288259760290827
 20
1.711287752413502
  0
LWPOLYLINE
  5
15
100
AcDbEntity
  8
USP-GEO
100
AcDbPolyline
 90
        2
 70
   128
 43
0.0
 10
5.345709621890947
 20
2.975902830886093
 10
5.288259760290827
 20
2.975902830886093
  0
LWPOLYLINE
  5
16
100
AcDbEntity
  8
USP-GEO
100
AcDbPolyline
 90
        2
 70
   128
 43
0.0
 10
5.345709621890947
 20
2.975902830886093
 10
5.345709621890947
 20
1.711287752413502
  0
LWPOLYLINE
  5
17
100
AcDbEntity
  8
USP-GEO
100
AcDbPolyline
 90
        2
 70
   128
 43
0.0
 10
5.345709621890947
 20
1.711287752413502
 10
5.288259760290827
 20
1.711287752413502
  0
LWPOLYLINE
  5
18
100
AcDbEntity
  8
USP-GEO
100
AcDbPolyline
 90
        2
 70
   128
 43
0.0
 10
0.0
 20
0.4028671544708243
 10
1.49441452487306
 20
0.4028671544708243
  0
LWPOLYLINE
  5
19
100
AcDbEntity
  8
USP-GEO
100
AcDbPolyline
 90
        2
 70
   128
 43
0.0
 10
0.0
 20
1.52385757894312
 10
0.0
 20
0.4028671544708243
  0
LWPOLYLINE
  5
1A
100
AcDbEntity
  8
USP-GEO
100
AcDbPolyline
 90
        2
 70
   128
 43
0.0
 10
1.49441452487306
 20
0.4603170160709418
 10
1.49441452487306
 20
0.4028671544708243
  0
LWPOLYLINE
  5
1B
100
AcDbEntity
  8
USP-GEO
100
AcDbPolyline
 90
        2
 70
   128
 43
0.0
 10
1.49441452487306
 20
0.4603170160709418
 10
1.810388763673707
 20
0.7762912548715893
  0
LWPOLYLINE
  5
1C
100
AcDbEntity
  8
USP-GEO
100
AcDbPolyline
 90
        2
 70
   128
 43
0.0
 10
2.040188210074177
 20
1.52385757894312
 10
0.0
 20
1.52385757894312
  0
ARC
  5
1D
100
AcDbEntity
  8
USP-GEO
100
AcDbCircle
 10
2.039718256598555
 20
1.606647250579099
 30
0.0
 40
0.09375
100
AcDbArc
 50
270.3252345489952
 51
280.1572290508328
  0
ARC
  5
1E
100
AcDbEntity
  8
USP-GEO
100
AcDbCircle
 10
2.039718256598555
 20
1.606647250579099
 30
0.0
 40
0.09375
100
AcDbArc
 50
81.9322729947876
 51
89.74267927605266
  0
ARC
  5
1F
100
AcDbEntity
  8
USP-GEO
100
AcDbCircle
 10
5.289718256598485
 20
1.606647250579095
 30
0.0
 40
0.09375
100
AcDbArc
 50
90.79854617025832
 51
98.5976305614297
  0
ARC
  5
20
100
AcDbEntity
  8
USP-GEO
100
AcDbCircle
 10
5.289718256598485
 20
1.606647250579095
 30
0.0
 40
0.09375
100
AcDbArc
 50
259.1813122947667
 51
268.9907311163183
  0
LWPOLYLINE
  5
21
100
AcDbEntity
  8
USP-GEO
100
AcDbPolyline
 90
        2
 70
   128
 43
0.0
 10
5.288259760290827
 20
1.52385757894312
 10
7.329166093635008
 20
1.52385757894312
  0
LWPOLYLINE
  5
22
100
AcDbEntity
  8
USP-GEO
100
AcDbPolyline
 90
        2
 70
   128
 43
0.0
 10
7.329166093635008
 20
0.4028671544708243
 10
7.329166093635008
 20
1.52385757894312
  0
LWPOLYLINE
  5
23
100
AcDbEntity
  8
USP-GEO
100
AcDbPolyline
 90
        2
 70
   128
 43
0.0
 10
7.329166093635008
 20
0.4028671544708243
 10
5.834751568761946
 20
0.4028671544708243
  0
LWPOLYLINE
  5
24
100
AcDbEntity
  8
USP-GEO
100
AcDbPolyline
 90
        2
 70
   128
 43
0.0
 10
5.834751568761946
 20
0.4028671544708243
 10
5.834751568761946
 20
0.4603170160709418
  0
LWPOLYLINE
  5
25
100
AcDbEntity
  8
USP-GEO
100
AcDbPolyline
 90
        2
 70
   128
 43
0.0
 10
5.834751568761946
 20
0.4603170160709418
 10
5.518059206691299
 20
0.7762912548715893
  0
ARC
  5
26
100
AcDbEntity
  8
USP-GEO
100
AcDbCircle
 10
5.37992699586227
 20
0.6341059898428174
 30
0.0
 40
0.1875000000000065
100
AcDbArc
 50
45.82837046995833
 51
124.1097659394689
  0
ARC
  5
27
100
AcDbEntity
  8
USP-GEO
100
AcDbCircle
 10
5.37992699586227
 20
0.6341059898428174
 30
0.0
 40
0.1875000000000065
100
AcDbArc
 50
142.7331908917511
 51
158.4110583611142
  0
ARC
  5
28
100
AcDbEntity
  8
USP-GEO
100
AcDbCircle
 10
1.94990951733488
 20
0.6341059898428174
 30
0.0
 40
0.1875000000000065
100
AcDbArc
 50
21.743034651843
 51
37.52543467528278
  0
ARC
  5
29
100
AcDbEntity
  8
USP-GEO
100
AcDbCircle
 10
1.94990951733488
 20
0.6341059898428174
 30
0.0
 40
0.1875000000000065
100
AcDbArc
 50
56.24005491258113
 51
134.4580850485285
  0
CIRCLE
  5
2A
100
AcDbEntity
  8
USP-GEO
100
AcDbCircle
 10
6.678089662946513
 20
0.7919819459202895
 30
0.0
 40
0.156
  0
CIRCLE
  5
2B
100
AcDbEntity
  8
USP-GEO
100
AcDbCircle
 10
7.024274875036908
 20
1.191997250579097
 30
0.0
 40
0.078
  0
CIRCLE
  5
2C
100
AcDbEntity
  8
USP-GEO
100
AcDbCircle
 10
6.208718256598524
 20
0.9519972505790921
 30
0.0
 40
0.078
  0
CIRCLE
  5
2D
100
AcDbEntity
  8
USP-GEO
100
AcDbCircle
 10
3.664918256598573
 20
3.150397250579056
 30
0.0
 40
0.078
  0
CIRCLE
  5
2E
100
AcDbEntity
  8
USP-GEO
100
AcDbCircle
 10
0.6517468502506354
 20
0.7919819459202966
 30
0.0
 40
0.156
  0
CIRCLE
  5
2F
100
AcDbEntity
  8
USP-GEO
100
AcDbCircle
 10
1.121118256598624
 20
0.9519972505790956
 30
0.0
 40
0.078
  0
CIRCLE
  5
30
100
AcDbEntity
  8
USP-GEO
100
AcDbCircle
 10
0.3055616381602331
 20
1.191997250579133
 30
0.0
 40
0.078
  0
LWPOLYLINE
  5
31
100
AcDbEntity
  8
USP-GEO
100
AcDbPolyline
 90
        2
 70
   128
 43
0.0
 10
2.040188210074177
 20
3.450582312357065
 10
5.288259760290827
 20
3.450582312357065
  0
LWPOLYLINE
  5
32
100
AcDbEntity
  8
USP-GEO
100
AcDbPolyline
 90
        2
 70
   128
 43
0.0
 10
5.417521948891092
 20
3.450582312357065
 10
5.431884414291122
 20
3.450582312357065
  0
LWPOLYLINE
  5
33
100
AcDbEntity
  8
USP-GEO
100
AcDbPolyline
 90
        2
 70
   128
 43
0.0
 10
5.431884414291122
 20
1.711287752413502
 10
5.417521948891092
 20
1.711287752413502
  0
LWPOLYLINE
  5
34
100
AcDbEntity
  8
USP-GEO
100
AcDbPolyline
 90
        2
 70
   128
 43
0.0
 10
5.345709621890947
 20
3.450582312357065
 10
5.417521948891092
 20
3.450582312357065
  0
LWPOLYLINE
  5
35
100
AcDbEntity
  8
USP-GEO
100
AcDbPolyline
 90
        2
 70
   128
 43
0.0
 10
5.417521948891092
 20
1.711287752413502
 10
5.345709621890947
 20
1.711287752413502
  0
ELLIPSE
  5
36
100
AcDbEntity
  8
USP-GEO
  6
CONTINUOUS
100
AcDbEllipse
 10
5.372965037830535
 20
3.16360690378446
 30
0.0
 11
-0.0148147412155075
 21
0.060718806336896
 31
0.0
210
0.0
220
0.0
230
1.0
 40
0.4531577022186973
 41
4.354036537203059
 42
7.189671028015559
1001
ACAD
1000
RTLwPs
1070
   128
  0
ELLIPSE
  5
38
100
AcDbEntity
  8
USP-GEO
  6
CONTINUOUS
100
AcDbEllipse
 10
5.372955138964478
 20
2.014148779080249
 30
0.0
 11
-0.0148147412155075
 21
0.060718806336896
 31
0.0
210
0.0
220
0.0
230
1.0
 40
0.4531577022186973
 41
0.9255240310614409
 42
4.336593398195067
1001
ACAD
1000
RTLwPs
1070
   128
  0
LWPOLYLINE
  5
39
100
AcDbEntity
  8
USP-GEO
100
AcDbPolyline
 90
        2
 70
   128
 43
0.0
 10
5.403159483491064
 20
1.998537060414092
 10
5.403159483491064
 20
3.148970538956447
  0
LWPOLYLINE
  5
3A
100
AcDbEntity
  8
USP-GEO
100
AcDbPolyline
 90
        2
 70
   128
 43
0.0
 10
5.360072087290975
 20
3.134608073556417
 10
5.360072087290975
 20
1.984174595014062
  0
ELLIPSE
  5
3B
100
AcDbEntity
  8
USP-GEO
  6
CONTINUOUS
100
AcDbEllipse
 10
5.327921817967684
 20
2.003160704273208
 30
0.0
 11
-0.0148147412155088
 21
0.0607188063368957
 31
0.0
210
0.0
220
0.0
230
1.0
 40
0.4531577022187303
 41
4.29634387125886
 42
4.303414856031572
1001
ACAD
1000
RTLwPs
1070
   128
  0
ELLIPSE
  5
3C
100
AcDbEntity
  8
USP-GEO
  6
CONTINUOUS
100
AcDbEllipse
 10
5.32793171683374
 20
3.152618828977415
 30
0.0
 11
-0.0148147412155088
 21
0.0607188063368957
 31
0.0
210
0.0
220
0.0
230
1.0
 40
0.4531577022187303
 41
5.339886073878374
 42
10.59604711814121
1001
ACAD
1000
RTLwPs
1070
   128
  0
LWPOLYLINE
  5
3D
100
AcDbEntity
  8
USP-GEO
100
AcDbPolyline
 90
        2
 70
   128
 43
0.0
 10
1.910926021473913
 20
3.450582312357065
 10
1.896563556073883
 20
3.450582312357065
  0
LWPOLYLINE
  5
3E
100
AcDbEntity
  8
USP-GEO
100
AcDbPolyline
 90
        2
 70
   128
 43
0.0
 10
1.896563556073883
 20
1.711287752413502
 10
1.910926021473913
 20
1.711287752413502
  0
LWPOLYLINE
  5
3F
100
AcDbEntity
  8
USP-GEO
100
AcDbPolyline
 90
        2
 70
   128
 43
0.0
 10
1.982738348474059
 20
3.450582312357065
 10
1.910926021473913
 20
3.450582312357065
  0
LWPOLYLINE
  5
40
100
AcDbEntity
  8
USP-GEO
100
AcDbPolyline
 90
        2
 70
   128
 43
0.0
 10
1.910926021473913
 20
1.711287752413502
 10
1.982738348474059
 20
1.711287752413502
  0
ELLIPSE
  5
41
100
AcDbEntity
  8
USP-GEO
  6
CONTINUOUS
100
AcDbEllipse
 10
1.956471475366508
 20
3.163606903784463
 30
0.0
 11
0.0148147412155076
 21
0.060718806336896
 31
0.0
210
0.0
220
0.0
230
1.0
 40
0.4531577022186962
 41
5.397670491162142
 42
8.204020904283019
1001
ACAD
1000
RTLwPs
1070
   128
  0
ELLIPSE
  5
42
100
AcDbEntity
  8
USP-GEO
  6
CONTINUOUS
100
AcDbEllipse
 10
1.956481374232561
 20
2.014148779080253
 30
0.0
 11
0.0148147412155076
 21
0.060718806336896
 31
0.0
210
0.0
220
0.0
230
1.0
 40
0.4531577022186962
 41
1.937690301393088
 42
5.378064203322845
1001
ACAD
1000
RTLwPs
1070
   128
  0
LWPOLYLINE
  5
43
100
AcDbEntity
  8
USP-GEO
100
AcDbPolyline
 90
        2
 70
   128
 43
0.0
 10
1.925288486873942
 20
1.998537060414092
 10
1.925288486873942
 20
3.148970538956447
  0
ELLIPSE
  5
44
100
AcDbEntity
  8
USP-GEO
  6
CONTINUOUS
100
AcDbEllipse
 10
2.001514695229356
 20
2.003160704273211
 30
0.0
 11
0.0148147412155089
 21
0.0607188063368956
 31
0.0
210
0.0
220
0.0
230
1.0
 40
0.4531577022187293
 41
1.977189284019788
 42
1.984141026762879
1001
ACAD
1000
RTLwPs
1070
   128
  0
LWPOLYLINE
  5
45
100
AcDbEntity
  8
USP-GEO
100
AcDbPolyline
 90
        2
 70
   128
 43
0.0
 10
1.96837588307403
 20
3.134608073556417
 10
1.96837588307403
 20
1.984174595014062
  0
ELLIPSE
  5
46
100
AcDbEntity
  8
USP-GEO
  6
CONTINUOUS
100
AcDbEllipse
 10
2.001504796363303
 20
3.152618828977418
 30
0.0
 11
0.0148147412155089
 21
0.0607188063368956
 31
0.0
210
0.0
220
0.0
230
1.0
 40
0.4531577022187293
 41
0.9604860491379525
 42
1.961188723737
1001
ACAD
1000
RTLwPs
1070
   128
  0
LWPOLYLINE
  5
47
100
AcDbEntity
  8
USP-GEO
100
AcDbPolyline
 90
        2
 70
   128
 43
0.0
 10
5.273897294890799
 20
0.675753997071384
 10
5.273897294890799
 20
0.0
  0
LWPOLYLINE
  5
48
100
AcDbEntity
  8
USP-GEO
100
AcDbPolyline
 90
        2
 70
   128
 43
0.0
 10
5.23080989869071
 20
0.0
 10
5.273897294890799
 20
0.0
  0
LWPOLYLINE
  5
49
100
AcDbEntity
  8
USP-GEO
100
AcDbPolyline
 90
        2
 70
   128
 43
0.0
 10
5.273897294890799
 20
2.545028868885211
 10
5.273897294890799
 20
0.675753997071384
  0
LWPOLYLINE
  5
4A
100
AcDbEntity
  8
USP-GEO
100
AcDbPolyline
 90
        2
 70
   128
 43
0.0
 10
5.23080989869071
 20
0.675753997071384
 10
5.273897294890799
 20
0.675753997071384
  0
LWPOLYLINE
  5
4B
100
AcDbEntity
  8
USP-GEO
100
AcDbPolyline
 90
        2
 70
   128
 43
0.0
 10
5.23080989869071
 20
0.675753997071384
 10
5.23080989869071
 20
2.501941472685121
  0
LWPOLYLINE
  5
4C
100
AcDbEntity
  8
USP-GEO
100
AcDbPolyline
 90
        2
 70
   128
 43
0.0
 10
5.23080989869071
 20
0.0
 10
5.23080989869071
 20
0.675753997071384
  0
LWPOLYLINE
  5
4D
100
AcDbEntity
  8
USP-GEO
100
AcDbPolyline
 90
        2
 70
   128
 43
0.0
 10
2.097638071674295
 20
2.501941472685121
 10
2.097638071674295
 20
0.675753997071384
  0
LWPOLYLINE
  5
4E
100
AcDbEntity
  8
USP-GEO
100
AcDbPolyline
 90
        2
 70
   128
 43
0.0
 10
2.097638071674295
 20
0.675753997071384
 10
2.054550675474207
 20
0.675753997071384
  0
LWPOLYLINE
  5
4F
100
AcDbEntity
  8
USP-GEO
100
AcDbPolyline
 90
        2
 70
   128
 43
0.0
 10
2.097638071674295
 20
0.675753997071384
 10
2.097638071674295
 20
0.0
  0
LWPOLYLINE
  5
50
100
AcDbEntity
  8
USP-GEO
100
AcDbPolyline
 90
        2
 70
   128
 43
0.0
 10
2.097638071674295
 20
0.0
 10
2.054550675474207
 20
0.0
  0
LWPOLYLINE
  5
51
100
AcDbEntity
  8
USP-GEO
100
AcDbPolyline
 90
        2
 70
   128
 43
0.0
 10
2.054550675474207
 20
0.675753997071384
 10
2.054550675474207
 20
2.545028868885211
  0
LWPOLYLINE
  5
52
100
AcDbEntity
  8
USP-GEO
100
AcDbPolyline
 90
        2
 70
   128
 43
0.0
 10
2.054550675474207
 20
0.675753997071384
 10
2.054550675474207
 20
0.0
  0
LWPOLYLINE
  5
53
100
AcDbEntity
  8
USP-GEO
100
AcDbPolyline
 90
        2
 70
   128
 43
0.0
 10
5.202084967890652
 20
0.6470290662713243
 10
5.202084967890652
 20
0.675753997071384
  0
LWPOLYLINE
  5
54
100
AcDbEntity
  8
USP-GEO
100
AcDbPolyline
 90
        2
 70
   128
 43
0.0
 10
4.339618920618885
 20
0.6470290662713243
 10
5.202084967890652
 20
0.6470290662713243
  0
LWPOLYLINE
  5
55
100
AcDbEntity
  8
USP-GEO
100
AcDbPolyline
 90
        2
 70
   128
 43
0.0
 10
4.339618920618885
 20
0.675753997071384
 10
4.339618920618885
 20
0.6470290662713243
  0
LWPOLYLINE
  5
56
100
AcDbEntity
  8
USP-GEO
100
AcDbPolyline
 90
        2
 70
   128
 43
0.0
 10
4.181631801218562
 20
0.6470290662713243
 10
4.181631801218562
 20
0.675753997071384
  0
LWPOLYLINE
  5
57
100
AcDbEntity
  8
USP-GEO
100
AcDbPolyline
 90
        2
 70
   128
 43
0.0
 10
3.146816169146443
 20
0.6470290662713243
 10
4.181631801218562
 20
0.6470290662713243
  0
LWPOLYLINE
  5
58
100
AcDbEntity
  8
USP-GEO
100
AcDbPolyline
 90
        2
 70
   128
 43
0.0
 10
3.146816169146443
 20
0.675753997071384
 10
3.146816169146443
 20
0.6470290662713243
  0
LWPOLYLINE
  5
59
100
AcDbEntity
  8
USP-GEO
100
AcDbPolyline
 90
        2
 70
   128
 43
0.0
 10
2.98882904974612
 20
0.6470290662713243
 10
2.98882904974612
 20
0.675753997071384
  0
LWPOLYLINE
  5
5A
100
AcDbEntity
  8
USP-GEO
100
AcDbPolyline
 90
        2
 70
   128
 43
0.0
 10
2.126363002474354
 20
0.6470290662713243
 10
2.98882904974612
 20
0.6470290662713243
  0
LWPOLYLINE
  5
5B
100
AcDbEntity
  8
USP-GEO
100
AcDbPolyline
 90
        2
 70
   128
 43
0.0
 10
2.126363002474354
 20
0.675753997071384
 10
2.126363002474354
 20
0.6470290662713243
  0
LWPOLYLINE
  5
5C
100
AcDbEntity
  8
USP-GEO
100
AcDbPolyline
 90
        2
 70
   128
 43
0.0
 10
5.23080989869071
 20
2.501941472685121
 10
2.097638071674295
 20
2.501941472685121
  0
LWPOLYLINE
  5
5D
100
AcDbEntity
  8
USP-GEO
100
AcDbPolyline
 90
        2
 70
   128
 43
0.0
 10
2.126363002474354
 20
0.675753997071384
 10
2.126363002474354
 20
0.7188413932714717
  0
ELLIPSE
  5
5E
100
AcDbEntity
  8
USP-GEO
  6
CONTINUOUS
100
AcDbEllipse
 10
1.949909517334882
 20
0.7075428809471927
 30
0.0
 11
-0.1874999999999742
 21
0.0000000000000001
 31
0.0
210
0.0
220
0.0
230
1.0
 40
0.4999999999999999
 41
2.795763607096069
 42
3.776264802008663
1001
ACAD
1000
RTLwPs
1070
   128
  0
ELLIPSE
  5
5F
100
AcDbEntity
  8
USP-GEO
  6
CONTINUOUS
100
AcDbEllipse
 10
3.070898256598542
 20
0.6743972505790677
 30
0.0
 11
-0.078
 21
0.0000000000000001
 31
0.0
210
0.0
220
0.0
230
1.0
 40
0.4999999999999999
 41
3.1773199050581
 42
6.250133874784886
1001
ACAD
1000
RTLwPs
1070
   128
  0
ELLIPSE
  5
60
100
AcDbEntity
  8
USP-GEO
  6
CONTINUOUS
100
AcDbEllipse
 10
4.25855825659854
 20
0.6743972505790677
 30
0.0
 11
-0.078
 21
0.0000000000000001
 31
0.0
210
0.0
220
0.0
230
1.0
 40
0.4999999999999999
 41
3.175055001200748
 42
6.247926066469488
1001
ACAD
1000
RTLwPs
1070
   128
  0
LWPOLYLINE
  5
61
100
AcDbEntity
  8
USP-GEO
100
AcDbPolyline
 90
        2
 70
   128
 43
0.0
 10
5.202084967890652
 20
0.675753997071384
 10
5.202084967890652
 20
0.7188413932714717
  0
ELLIPSE
  5
62
100
AcDbEntity
  8
USP-GEO
  6
CONTINUOUS
100
AcDbEllipse
 10
5.37992699586227
 20
0.7075428809471927
 30
0.0
 11
-0.1875000000000042
 21
0.0000000000000001
 31
0.0
210
0.0
220
0.0
230
1.0
 40
0.4999999999999999
 41
5.652973660988043
 42
6.62652217838392
1001
ACAD
1000
RTLwPs
1070
   128
  0
ELLIPSE
  5
63
100
AcDbEntity
  8
USP-GEO
  6
CONTINUOUS
100
AcDbEllipse
 10
5.394670630800263
 20
1.045805034292039
 30
0.0
 11
0.0510629863152225
 21
0.0589624577894392
 31
0.0
210
0.0
220
0.0
230
1.0
 40
0.3535533905932755
 41
4.202918296483503
 42
5.413348398356585
1001
ACAD
1000
RTLwPs
1070
   128
  0
ELLIPSE
  5
64
100
AcDbEntity
  8
USP-GEO
  6
CONTINUOUS
100
AcDbEllipse
 10
5.43301900793017
 20
1.012594365503632
 30
0.0
 11
0.0510629863152221
 21
0.0589624577894391
 31
0.0
210
0.0
220
0.0
230
1.0
 40
0.3535533905932739
 41
4.906305660561121
 42
9.86560876769327
1001
ACAD
1000
RTLwPs
1070
   128
  0
ELLIPSE
  5
65
100
AcDbEntity
  8
USP-GEO
  6
CONTINUOUS
100
AcDbEllipse
 10
5.43301900793017
 20
1.012594365503632
 30
0.0
 11
0.0510629863152221
 21
0.0589624577894391
 31
0.0
210
0.0
220
0.0
230
1.0
 40
0.3535533905932739
 41
0.7338828245020598
 42
3.607766953460461
1001
ACAD
1000
RTLwPs
1070
   128
  0
ELLIPSE
  5
66
100
AcDbEntity
  8
USP-GEO
  6
CONTINUOUS
100
AcDbEllipse
 10
5.43301900793017
 20
1.012594365503632
 30
0.0
 11
0.0510629863152221
 21
0.0589624577894391
 31
0.0
210
0.0
220
0.0
230
1.0
 40
0.3535533905932739
 41
0.7495524087176483
 42
6.662418406742327
1001
ACAD
1000
RTLwPs
1070
   128
  0
ELLIPSE
  5
67
100
AcDbEntity
  8
USP-GEO
  6
CONTINUOUS
100
AcDbEllipse
 10
5.43301900793017
 20
1.012594365503632
 30
0.0
 11
0.0510629863152221
 21
0.0589624577894391
 31
0.0
210
0.0
220
0.0
230
1.0
 40
0.3535533905932739
 41
0.3982981449437604
 42
6.304509274876629
1001
ACAD
1000
RTLwPs
1070
   128
  0
ELLIPSE
  5
68
100
AcDbEntity
  8
USP-GEO
  6
CONTINUOUS
100
AcDbEllipse
 10
5.43301900793017
 20
1.012594365503632
 30
0.0
 11
0.0510629863152221
 21
0.0589624577894391
 31
0.0
210
0.0
220
0.0
230
1.0
 40
0.3535533905932739
 41
4.908583317359763
 42
6.286799460929364
1001
ACAD
1000
RTLwPs
1070
   128
  0
ELLIPSE
  5
69
100
AcDbEntity
  8
USP-GEO
  6
CONTINUOUS
100
AcDbEllipse
 10
1.935165882396852
 20
1.045805034292053
 30
0.0
 11
-0.0510629863152224
 21
0.0589624577894393
 31
0.0
210
0.0
220
0.0
230
1.0
 40
0.3535533905932744
 41
0.8894313139853345
 42
2.048471579245928
1001
ACAD
1000
RTLwPs
1070
   128
  0
ELLIPSE
  5
6A
100
AcDbEntity
  8
USP-GEO
  6
CONTINUOUS
100
AcDbEllipse
 10
1.896817505266948
 20
1.012594365503646
 30
0.0
 11
-0.051062986315222
 21
0.0589624577894392
 31
0.0
210
0.0
220
0.0
230
1.0
 40
0.353553390593273
 41
6.278400448764059
 42
7.657935486670139
1001
ACAD
1000
RTLwPs
1070
   128
  0
ELLIPSE
  5
6B
100
AcDbEntity
  8
USP-GEO
  6
CONTINUOUS
100
AcDbEllipse
 10
1.896817505266948
 20
1.012594365503646
 30
0.0
 11
-0.051062986315222
 21
0.0589624577894392
 31
0.0
210
0.0
220
0.0
230
1.0
 40
0.353553390593273
 41
0.0127500992158437
 42
5.902683738070569
1001
ACAD
1000
RTLwPs
1070
   128
  0
ELLIPSE
  5
6C
100
AcDbEntity
  8
USP-GEO
  6
CONTINUOUS
100
AcDbEllipse
 10
1.896817505266948
 20
1.012594365503646
 30
0.0
 11
-0.051062986315222
 21
0.0589624577894392
 31
0.0
210
0.0
220
0.0
230
1.0
 40
0.353553390593273
 41
5.921805227504417
 42
11.83143964272199
1001
ACAD
1000
RTLwPs
1070
   128
  0
ELLIPSE
  5
6D
100
AcDbEntity
  8
USP-GEO
  6
CONTINUOUS
100
AcDbEllipse
 10
1.896817505266948
 20
1.012594365503646
 30
0.0
 11
-0.051062986315222
 21
0.0589624577894392
 31
0.0
210
0.0
220
0.0
230
1.0
 40
0.353553390593273
 41
1.372564248273424
 42
1.968015560594103
1001
ACAD
1000
RTLwPs
1070
   128
  0
ELLIPSE
  5
6E
100
AcDbEntity
  8
USP-GEO
  6
CONTINUOUS
100
AcDbEllipse
 10
1.896817505266948
 20
1.012594365503646
 30
0.0
 11
-0.051062986315222
 21
0.0589624577894392
 31
0.0
210
0.0
220
0.0
230
1.0
 40
0.353553390593273
 41
5.564141183976749
 42
10.83851618872691
1001
ACAD
1000
RTLwPs
1070
   128
  0
ELLIPSE
  5
6F
100
AcDbEntity
  8
USP-GEO
  6
CONTINUOUS
100
AcDbEllipse
 10
1.896817505266948
 20
1.012594365503646
 30
0.0
 11
-0.051062986315222
 21
0.0589624577894392
 31
0.0
210
0.0
220
0.0
230
1.0
 40
0.353553390593273
 41
1.953222684124051
 42
2.677095463691114
1001
ACAD
1000
RTLwPs
1070
   128
  0
ELLIPSE
  5
70
100
AcDbEntity
  8
USP-GEO
  6
CONTINUOUS
100
AcDbEllipse
 10
1.896817505266948
 20
1.012594365503646
 30
0.0
 11
-0.051062986315222
 21
0.0589624577894392
 31
0.0
210
0.0
220
0.0
230
1.0
 40
0.353553390593273
 41
2.651953959458134
 42
3.545511256784482
1001
ACAD
1000
RTLwPs
1070
   128
  0
ELLIPSE
  5
71
100
AcDbEntity
  8
USP-GEO
  6
CONTINUOUS
100
AcDbEllipse
 10
1.896817505266948
 20
1.012594365503646
 30
0.0
 11
-0.051062986315222
 21
0.0589624577894392
 31
0.0
210
0.0
220
0.0
230
1.0
 40
0.353553390593273
 41
4.552503993129766
 42
9.843671992585793
1001
ACAD
1000
RTLwPs
1070
   128
  0
LWPOLYLINE
  5
72
100
AcDbEntity
  8
USP-GEO
100
AcDbPolyline
 90
        2
 70
   128
 43
0.0
 10
5.273897294890799
 20
2.545028868885211
 10
2.054550675474207
 20
2.545028868885211
  0
ARC
  5
73
100
AcDbEntity
  8
USP-GEO
100
AcDbCircle
 10
2.103118256598591
 20
1.191256056976667
 30
0.0
 40
0.3020000000000007
100
AcDbArc
 50
99.08059300557155
 51
260.7843424754431
  0
ARC
  5
74
100
AcDbEntity
  8
USP-GEO
100
AcDbCircle
 10
5.226718256598527
 20
1.191256056976653
 30
0.0
 40
0.3020000000000007
100
AcDbArc
 50
278.9565151581062
 51
81.17487506962218
  0
LWPOLYLINE
  5
75
100
AcDbEntity
  8
USP-GEO
100
AcDbPolyline
 90
        2
 70
   128
 43
0.0
 10
1.896563556073883
 20
3.450582312357065
 10
1.896563556073883
 20
1.711287752413502
  0
LWPOLYLINE
  5
76
100
AcDbEntity
  8
USP-GEO
100
AcDbPolyline
 90
        2
 70
   128
 43
0.0
 10
5.431884414291122
 20
1.711287752413502
 10
5.431884414291122
 20
3.450582312357065
  0
TEXT
  5
77
100
AcDbEntity
  8
USP-TXT
100
AcDbText
 10
1.705890651849169
 20
-0.7579778890435769
 30
0.0
 40
0.25
  1
TMP31 - TOP VIEW
 72
     1
 11
3.664223985182502
 21
-0.7579778890435769
 31
0.0
100
AcDbText
  0
ENDBLK
  5
7E
100
AcDbEntity
  8
0
100
AcDbBlockEnd
  0
BLOCK
  5
108
100
AcDbEntity
  8
0
100
AcDbBlockBegin
  2
TMP31PR_F
 70
     0
 10
0.0
 20
0.0
 30
0.0
  3
TMP31PR_F
  1

  0
LWPOLYLINE
  5
81
100
AcDbEntity
  8
USP-GEO
100
AcDbPolyline
 90
        2
 70
   128
 43
0.0
 10
2.040188210074177
 20
3.220782865956595
 10
2.040188210074177
 20
3.206420400556565
  0
LWPOLYLINE
  5
82
100
AcDbEntity
  8
USP-GEO
100
AcDbPolyline
 90
        2
 70
   128
 43
0.0
 10
1.982738348474059
 20
3.220782865956595
 10
1.982738348474059
 20
3.206420400556565
  0
LWPOLYLINE
  5
83
100
AcDbEntity
  8
USP-GEO
100
AcDbPolyline
 90
        2
 70
   128
 43
0.0
 10
1.982738348474059
 20
3.278232727556712
 10
2.040188210074177
 20
3.278232727556712
  0
LWPOLYLINE
  5
84
100
AcDbEntity
  8
USP-GEO
100
AcDbPolyline
 90
        2
 70
   128
 43
0.0
 10
2.040188210074177
 20
3.220782865956595
 10
2.040188210074177
 20
3.278232727556712
  0
LWPOLYLINE
  5
85
100
AcDbEntity
  8
USP-GEO
100
AcDbPolyline
 90
        2
 70
   128
 43
0.0
 10
1.982738348474059
 20
3.220782865956595
 10
2.040188210074177
 20
3.220782865956595
  0
LWPOLYLINE
  5
86
100
AcDbEntity
  8
USP-GEO
100
AcDbPolyline
 90
        2
 70
   128
 43
0.0
 10
1.982738348474059
 20
3.278232727556712
 10
1.982738348474059
 20
3.220782865956595
  0
LWPOLYLINE
  5
87
100
AcDbEntity
  8
USP-GEO
100
AcDbPolyline
 90
        2
 70
   128
 43
0.0
 10
5.288259760290827
 20
3.220782865956595
 10
5.288259760290827
 20
3.206420400556565
  0
LWPOLYLINE
  5
88
100
AcDbEntity
  8
USP-GEO
100
AcDbPolyline
 90
        2
 70
   128
 43
0.0
 10
5.345709621890947
 20
3.220782865956595
 10
5.345709621890947
 20
3.206420400556565
  0
LWPOLYLINE
  5
89
100
AcDbEntity
  8
USP-GEO
100
AcDbPolyline
 90
        2
 70
   128
 43
0.0
 10
5.345709621890947
 20
3.220782865956595
 10
5.288259760290827
 20
3.220782865956595
  0
LWPOLYLINE
  5
8A
100
AcDbEntity
  8
USP-GEO
100
AcDbPolyline
 90
        2
 70
   128
 43
0.0
 10
5.288259760290827
 20
3.220782865956595
 10
5.288259760290827
 20
3.278232727556712
  0
LWPOLYLINE
  5
8B
100
AcDbEntity
  8
USP-GEO
100
AcDbPolyline
 90
        2
 70
   128
 43
0.0
 10
5.345709621890947
 20
3.278232727556712
 10
5.288259760290827
 20
3.278232727556712
  0
LWPOLYLINE
  5
8C
100
AcDbEntity
  8
USP-GEO
100
AcDbPolyline
 90
        2
 70
   128
 43
0.0
 10
5.345709621890947
 20
3.278232727556712
 10
5.345709621890947
 20
3.220782865956595
  0
LWPOLYLINE
  5
8D
100
AcDbEntity
  8
USP-GEO
100
AcDbPolyline
 90
        2
 70
   128
 43
0.0
 10
0.0
 20
0.8488217051417379
 10
0.0
 20
0.0
  0
LWPOLYLINE
  5
8E
100
AcDbEntity
  8
USP-GEO
100
AcDbPolyline
 90
        2
 70
   128
 43
0.0
 10
0.0
 20
0.8488217051417379
 10
1.49441452487306
 20
0.8488217051417379
  0
LWPOLYLINE
  5
8F
100
AcDbEntity
  8
USP-GEO
100
AcDbPolyline
 90
        2
 70
   128
 43
0.0
 10
1.49441452487306
 20
0.8488217051417379
 10
1.49441452487306
 20
0.8057343089416502
  0
LWPOLYLINE
  5
90
100
AcDbEntity
  8
USP-GEO
100
AcDbPolyline
 90
        2
 70
   128
 43
0.0
 10
0.7037608046014415
 20
0.0
 10
1.49441452487306
 20
0.8057343089416502
  0
LWPOLYLINE
  5
91
100
AcDbEntity
  8
USP-GEO
100
AcDbPolyline
 90
        2
 70
   128
 43
0.0
 10
0.0
 20
0.0
 10
0.7037608046014415
 20
0.0
  0
CIRCLE
  5
92
100
AcDbEntity
  8
USP-GEO
100
AcDbCircle
 10
0.4740220100875021
 20
0.3038632955419747
 30
0.0
 40
0.078
  0
LWPOLYLINE
  5
93
100
AcDbEntity
  8
USP-GEO
100
AcDbPolyline
 90
        2
 70
   128
 43
0.0
 10
1.49441452487306
 20
0.8488217051417379
 10
1.810388763673707
 20
0.8488217051417379
  0
LWPOLYLINE
  5
94
100
AcDbEntity
  8
USP-GEO
100
AcDbPolyline
 90
        2
 70
   128
 43
0.0
 10
1.982738348474059
 20
0.8488217051417379
 10
1.982738348474059
 20
2.932815434686006
  0
LWPOLYLINE
  5
95
100
AcDbEntity
  8
USP-GEO
100
AcDbPolyline
 90
        2
 70
   128
 43
0.0
 10
5.345709621890947
 20
0.8488217051417379
 10
5.345709621890947
 20
2.932815434686006
  0
LWPOLYLINE
  5
96
100
AcDbEntity
  8
USP-GEO
100
AcDbPolyline
 90
        2
 70
   128
 43
0.0
 10
7.329166093635008
 20
0.8488217051417379
 10
5.834751568761946
 20
0.8488217051417379
  0
LWPOLYLINE
  5
97
100
AcDbEntity
  8
USP-GEO
100
AcDbPolyline
 90
        2
 70
   128
 43
0.0
 10
7.329166093635008
 20
0.0
 10
7.329166093635008
 20
0.8488217051417379
  0
LWPOLYLINE
  5
98
100
AcDbEntity
  8
USP-GEO
100
AcDbPolyline
 90
        2
 70
   128
 43
0.0
 10
5.834751568761946
 20
0.8057343089416502
 10
5.834751568761946
 20
0.8488217051417379
  0
LWPOLYLINE
  5
99
100
AcDbEntity
  8
USP-GEO
100
AcDbPolyline
 90
        2
 70
   128
 43
0.0
 10
5.834751568761946
 20
0.8488217051417379
 10
5.518059206691299
 20
0.8488217051417379
  0
LWPOLYLINE
  5
9A
100
AcDbEntity
  8
USP-GEO
100
AcDbPolyline
 90
        2
 70
   128
 43
0.0
 10
5.202084967890652
 20
0.8488217051417379
 10
5.518059206691299
 20
0.8488217051417379
  0
LWPOLYLINE
  5
9B
100
AcDbEntity
  8
USP-GEO
100
AcDbPolyline
 90
        2
 70
   128
 43
0.0
 10
4.181631801218562
 20
0.8488217051417379
 10
4.339618920618885
 20
0.8488217051417379
  0
LWPOLYLINE
  5
9C
100
AcDbEntity
  8
USP-GEO
100
AcDbPolyline
 90
        2
 70
   128
 43
0.0
 10
2.98882904974612
 20
0.8488217051417379
 10
3.146816169146443
 20
0.8488217051417379
  0
LWPOLYLINE
  5
9D
100
AcDbEntity
  8
USP-GEO
100
AcDbPolyline
 90
        2
 70
   128
 43
0.0
 10
1.810388763673707
 20
0.8488217051417379
 10
2.126363002474354
 20
0.8488217051417379
  0
LWPOLYLINE
  5
9E
100
AcDbEntity
  8
USP-GEO
100
AcDbPolyline
 90
        2
 70
   128
 43
0.0
 10
7.329166093635008
 20
0.0
 10
6.624687165763564
 20
0.0
  0
LWPOLYLINE
  5
9F
100
AcDbEntity
  8
USP-GEO
100
AcDbPolyline
 90
        2
 70
   128
 43
0.0
 10
6.624687165763564
 20
0.0
 10
5.834751568761946
 20
0.8057343089416502
  0
CIRCLE
  5
A0
100
AcDbEntity
  8
USP-GEO
100
AcDbCircle
 10
6.855814503109648
 20
0.3038632955420226
 30
0.0
 40
0.078
  0
LWPOLYLINE
  5
A1
100
AcDbEntity
  8
USP-GEO
100
AcDbPolyline
 90
        2
 70
   128
 43
0.0
 10
5.388797018091034
 20
2.142161714414386
 10
5.345709621890947
 20
2.113436783614327
  0
LWPOLYLINE
  5
A2
100
AcDbEntity
  8
USP-GEO
100
AcDbPolyline
 90
        2
 70
   128
 43
0.0
 10
5.345709621890947
 20
2.932815434686006
 10
5.388797018091034
 20
2.961540365486063
  0
ELLIPSE
  5
A3
100
AcDbEntity
  8
USP-GEO
  6
CONTINUOUS
100
AcDbEllipse
 10
5.351771185118126
 20
2.214867810201864
 30
0.0
 11
0.0000000000000001
 21
-0.0827924579353581
 31
0.0
210
0.0
220
0.0
230
1.0
 40
0.906315404460947
 41
0.5119292496687983
 42
1.560685527052024
1001
ACAD
1000
RTLwPs
1070
   128
  0
ELLIPSE
  5
A4
100
AcDbEntity
  8
USP-GEO
  6
CONTINUOUS
100
AcDbEllipse
 10
5.351771185118124
 20
3.030867810201824
 30
0.0
 11
0.0000000000000001
 21
-0.0827924579353581
 31
0.0
210
0.0
220
0.0
230
1.0
 40
0.906315404460947
 41
0.532498428036932
 42
2.138740371097758
1001
ACAD
1000
RTLwPs
1070
   128
  0
LWPOLYLINE
  5
A5
100
AcDbEntity
  8
USP-GEO
100
AcDbPolyline
 90
        2
 70
   128
 43
0.0
 10
5.417521948891092
 20
3.0771582119563
 10
5.345709621890947
 20
3.220782865956595
  0
LWPOLYLINE
  5
A6
100
AcDbEntity
  8
USP-GEO
100
AcDbPolyline
 90
        2
 70
   128
 43
0.0
 10
5.345709621890947
 20
3.220782865956595
 10
5.288259760290827
 20
3.220782865956595
  0
LWPOLYLINE
  5
A7
100
AcDbEntity
  8
USP-GEO
100
AcDbPolyline
 90
        2
 70
   128
 43
0.0
 10
5.288259760290827
 20
3.220782865956595
 10
5.288259760290827
 20
3.192057935156535
  0
LWPOLYLINE
  5
A8
100
AcDbEntity
  8
USP-GEO
100
AcDbPolyline
 90
        2
 70
   128
 43
0.0
 10
5.288259760290827
 20
3.192057935156535
 10
5.288259760290827
 20
2.961540365486063
  0
LWPOLYLINE
  5
A9
100
AcDbEntity
  8
USP-GEO
100
AcDbPolyline
 90
        2
 70
   128
 43
0.0
 10
5.288259760290827
 20
3.192057935156535
 10
5.374434552691004
 20
3.047715157886241
  0
ELLIPSE
  5
AA
100
AcDbEntity
  8
USP-GEO
  6
CONTINUOUS
100
AcDbEllipse
 10
5.327921817967684
 20
2.986106413957868
 30
0.0
 11
-0.0289766180879641
 21
0.0553769410877984
 31
0.0
210
0.0
220
0.0
230
1.0
 40
0.2113009628740885
 41
4.801423551423015
 42
6.328335828381548
1001
ACAD
1000
RTLwPs
1070
   128
  0
LWPOLYLINE
  5
AB
100
AcDbEntity
  8
USP-GEO
100
AcDbPolyline
 90
        2
 70
   128
 43
0.0
 10
5.302622225690857
 20
3.033352692486211
 10
5.302622225690857
 20
2.961540365486063
  0
LWPOLYLINE
  5
AC
100
AcDbEntity
  8
USP-GEO
100
AcDbPolyline
 90
        2
 70
   128
 43
0.0
 10
5.360072087290975
 20
3.004627761686151
 10
5.288259760290827
 20
2.961540365486063
  0
ELLIPSE
  5
AD
100
AcDbEntity
  8
USP-GEO
  6
CONTINUOUS
100
AcDbEllipse
 10
5.351771185118124
 20
3.030867810201824
 30
0.0
 11
0.0
 21
-0.0254172883817431
 31
0.0
210
0.0
220
0.0
230
1.0
 40
0.906315404460947
 41
1.127357460613799
 42
6.619009007247078
1001
ACAD
1000
RTLwPs
1070
   128
  0
ELLIPSE
  5
AE
100
AcDbEntity
  8
USP-GEO
  6
CONTINUOUS
100
AcDbEllipse
 10
5.351771185118124
 20
3.030867810201824
 30
0.0
 11
0.0
 21
-0.0254172883817431
 31
0.0
210
0.0
220
0.0
230
1.0
 40
0.906315404460947
 41
2.163673612023081
 42
7.953027719877862
1001
ACAD
1000
RTLwPs
1070
   128
  0
ELLIPSE
  5
AF
100
AcDbEntity
  8
USP-GEO
  6
CONTINUOUS
100
AcDbEllipse
 10
5.351771185118124
 20
3.030867810201824
 30
0.0
 11
0.0
 21
-0.0254172883817431
 31
0.0
210
0.0
220
0.0
230
1.0
 40
0.906315404460947
 41
1.666819335802068
 42
7.422512866317738
1001
ACAD
1000
RTLwPs
1070
   128
  0
LWPOLYLINE
  5
B0
100
AcDbEntity
  8
USP-GEO
100
AcDbPolyline
 90
        2
 70
   128
 43
0.0
 10
5.288259760290827
 20
0.8488217051417379
 10
5.288259760290827
 20
2.961540365486063
  0
LWPOLYLINE
  5
B1
100
AcDbEntity
  8
USP-GEO
100
AcDbPolyline
 90
        2
 70
   128
 43
0.0
 10
1.810388763673707
 20
0.8057343089416502
 10
1.49441452487306
 20
0.8057343089416502
  0
LWPOLYLINE
  5
B2
100
AcDbEntity
  8
USP-GEO
100
AcDbPolyline
 90
        2
 70
   128
 43
0.0
 10
2.126363002474354
 20
0.8057343089416502
 10
1.810388763673707
 20
0.8057343089416502
  0
LWPOLYLINE
  5
B3
100
AcDbEntity
  8
USP-GEO
100
AcDbPolyline
 90
        2
 70
   128
 43
0.0
 10
2.98882904974612
 20
0.8057343089416502
 10
2.126363002474354
 20
0.8057343089416502
  0
LWPOLYLINE
  5
B4
100
AcDbEntity
  8
USP-GEO
100
AcDbPolyline
 90
        2
 70
   128
 43
0.0
 10
3.146816169146443
 20
0.8057343089416502
 10
2.98882904974612
 20
0.8057343089416502
  0
LWPOLYLINE
  5
B5
100
AcDbEntity
  8
USP-GEO
100
AcDbPolyline
 90
        2
 70
   128
 43
0.0
 10
4.181631801218562
 20
0.8057343089416502
 10
3.146816169146443
 20
0.8057343089416502
  0
LWPOLYLINE
  5
B6
100
AcDbEntity
  8
USP-GEO
100
AcDbPolyline
 90
        2
 70
   128
 43
0.0
 10
4.339618920618885
 20
0.8057343089416502
 10
4.181631801218562
 20
0.8057343089416502
  0
LWPOLYLINE
  5
B7
100
AcDbEntity
  8
USP-GEO
100
AcDbPolyline
 90
        2
 70
   128
 43
0.0
 10
5.202084967890652
 20
0.8057343089416502
 10
4.339618920618885
 20
0.8057343089416502
  0
LWPOLYLINE
  5
B8
100
AcDbEntity
  8
USP-GEO
100
AcDbPolyline
 90
        2
 70
   128
 43
0.0
 10
5.518059206691299
 20
0.8057343089416502
 10
5.202084967890652
 20
0.8057343089416502
  0
LWPOLYLINE
  5
B9
100
AcDbEntity
  8
USP-GEO
100
AcDbPolyline
 90
        2
 70
   128
 43
0.0
 10
5.834751568761946
 20
0.8057343089416502
 10
5.518059206691299
 20
0.8057343089416502
  0
LWPOLYLINE
  5
BA
100
AcDbEntity
  8
USP-GEO
100
AcDbPolyline
 90
        2
 70
   128
 43
0.0
 10
1.939650952273971
 20
2.142161714414386
 10
1.982738348474059
 20
2.113436783614327
  0
LWPOLYLINE
  5
BB
100
AcDbEntity
  8
USP-GEO
100
AcDbPolyline
 90
        2
 70
   128
 43
0.0
 10
1.982738348474059
 20
2.932815434686006
 10
1.939650952273971
 20
2.961540365486063
  0
ELLIPSE
  5
BC
100
AcDbEntity
  8
USP-GEO
  6
CONTINUOUS
100
AcDbEllipse
 10
1.977665328078916
 20
2.214867810201861
 30
0.0
 11
0.0
 21
-0.0827924579353581
 31
0.0
210
0.0
220
0.0
230
1.0
 40
0.906315404460947
 41
4.722376548666568
 42
5.759927150888719
1001
ACAD
1000
RTLwPs
1070
   128
  0
ELLIPSE
  5
BD
100
AcDbEntity
  8
USP-GEO
  6
CONTINUOUS
100
AcDbEllipse
 10
1.977665328078915
 20
3.030867810201824
 30
0.0
 11
0.0
 21
-0.0827924579353581
 31
0.0
210
0.0
220
0.0
230
1.0
 40
0.906315404460947
 41
4.151190309940211
 42
5.739089353434311
1001
ACAD
1000
RTLwPs
1070
   128
  0
LWPOLYLINE
  5
BE
100
AcDbEntity
  8
USP-GEO
100
AcDbPolyline
 90
        2
 70
   128
 43
0.0
 10
1.910926021473913
 20
3.0771582119563
 10
1.982738348474059
 20
3.220782865956595
  0
LWPOLYLINE
  5
BF
100
AcDbEntity
  8
USP-GEO
100
AcDbPolyline
 90
        2
 70
   128
 43
0.0
 10
1.982738348474059
 20
3.220782865956595
 10
2.040188210074177
 20
3.220782865956595
  0
LWPOLYLINE
  5
C0
100
AcDbEntity
  8
USP-GEO
100
AcDbPolyline
 90
        2
 70
   128
 43
0.0
 10
2.040188210074177
 20
3.220782865956595
 10
2.040188210074177
 20
3.192057935156535
  0
LWPOLYLINE
  5
C1
100
AcDbEntity
  8
USP-GEO
100
AcDbPolyline
 90
        2
 70
   128
 43
0.0
 10
2.040188210074177
 20
3.192057935156535
 10
2.040188210074177
 20
2.961540365486063
  0
LWPOLYLINE
  5
C2
100
AcDbEntity
  8
USP-GEO
100
AcDbPolyline
 90
        2
 70
   128
 43
0.0
 10
2.040188210074177
 20
3.192057935156535
 10
1.954013417674
 20
3.047715157886241
  0
LWPOLYLINE
  5
C3
100
AcDbEntity
  8
USP-GEO
100
AcDbPolyline
 90
        2
 70
   128
 43
0.0
 10
2.025825744674148
 20
3.033352692486211
 10
2.025825744674148
 20
2.961540365486063
  0
ELLIPSE
  5
C4
100
AcDbEntity
  8
USP-GEO
  6
CONTINUOUS
100
AcDbEllipse
 10
2.001514695229356
 20
2.986106413957868
 30
0.0
 11
0.0289766180879641
 21
0.0553769410877985
 31
0.0
210
0.0
220
0.0
230
1.0
 40
0.2113009628740896
 41
6.259111246480733
 42
7.911060307990892
1001
ACAD
1000
RTLwPs
1070
   128
  0
LWPOLYLINE
  5
C5
100
AcDbEntity
  8
USP-GEO
100
AcDbPolyline
 90
        2
 70
   128
 43
0.0
 10
1.96837588307403
 20
3.004627761686151
 10
2.040188210074177
 20
2.961540365486063
  0
ELLIPSE
  5
C6
100
AcDbEntity
  8
USP-GEO
  6
CONTINUOUS
100
AcDbEllipse
 10
1.977665328078915
 20
3.030867810201824
 30
0.0
 11
0.0
 21
-0.0254172883817431
 31
0.0
210
0.0
220
0.0
230
1.0
 40
0.906315404460947
 41
4.139132901421066
 42
5.91079799008376
1001
ACAD
1000
RTLwPs
1070
   128
  0
LWPOLYLINE
  5
C7
100
AcDbEntity
  8
USP-GEO
100
AcDbPolyline
 90
        2
 70
   128
 43
0.0
 10
2.040188210074177
 20
0.8488217051417379
 10
2.040188210074177
 20
2.961540365486063
  0
LWPOLYLINE
  5
C8
100
AcDbEntity
  8
USP-GEO
100
AcDbPolyline
 90
        2
 70
   128
 43
0.0
 10
2.126363002474354
 20
0.8057343089416502
 10
2.126363002474354
 20
0.8488217051417379
  0
LWPOLYLINE
  5
C9
100
AcDbEntity
  8
USP-GEO
100
AcDbPolyline
 90
        2
 70
   128
 43
0.0
 10
2.98882904974612
 20
0.8057343089416502
 10
2.98882904974612
 20
0.8488217051417379
  0
LWPOLYLINE
  5
CA
100
AcDbEntity
  8
USP-GEO
100
AcDbPolyline
 90
        2
 70
   128
 43
0.0
 10
3.146816169146443
 20
0.8057343089416502
 10
3.146816169146443
 20
0.8488217051417379
  0
LWPOLYLINE
  5
CB
100
AcDbEntity
  8
USP-GEO
100
AcDbPolyline
 90
        2
 70
   128
 43
0.0
 10
4.181631801218562
 20
0.8057343089416502
 10
4.181631801218562
 20
0.8488217051417379
  0
LWPOLYLINE
  5
CC
100
AcDbEntity
  8
USP-GEO
100
AcDbPolyline
 90
        2
 70
   128
 43
0.0
 10
4.339618920618885
 20
0.8057343089416502
 10
4.339618920618885
 20
0.8488217051417379
  0
LWPOLYLINE
  5
CD
100
AcDbEntity
  8
USP-GEO
100
AcDbPolyline
 90
        2
 70
   128
 43
0.0
 10
5.202084967890652
 20
0.8057343089416502
 10
5.202084967890652
 20
0.8488217051417379
  0
LWPOLYLINE
  5
CE
100
AcDbEntity
  8
USP-GEO
100
AcDbPolyline
 90
        2
 70
   128
 43
0.0
 10
5.273897294890799
 20
1.02117128994209
 10
5.273897294890799
 20
1.04989622074215
  0
LWPOLYLINE
  5
CF
100
AcDbEntity
  8
USP-GEO
100
AcDbPolyline
 90
        2
 70
   128
 43
0.0
 10
5.273897294890799
 20
1.078621151542208
 10
5.273897294890799
 20
1.04989622074215
  0
LWPOLYLINE
  5
D0
100
AcDbEntity
  8
USP-GEO
100
AcDbPolyline
 90
        2
 70
   128
 43
0.0
 10
5.23080989869071
 20
1.04989622074215
 10
5.273897294890799
 20
1.04989622074215
  0
LWPOLYLINE
  5
D1
100
AcDbEntity
  8
USP-GEO
100
AcDbPolyline
 90
        2
 70
   128
 43
0.0
 10
5.273897294890799
 20
3.925261793828036
 10
5.273897294890799
 20
1.078621151542208
  0
LWPOLYLINE
  5
D2
100
AcDbEntity
  8
USP-GEO
100
AcDbPolyline
 90
        2
 70
   128
 43
0.0
 10
5.273897294890799
 20
5.089339614500421
 10
5.273897294890799
 20
3.925261793828036
  0
LWPOLYLINE
  5
D3
100
AcDbEntity
  8
USP-GEO
100
AcDbPolyline
 90
        2
 70
   128
 43
0.0
 10
5.23080989869071
 20
3.925261793828036
 10
5.273897294890799
 20
3.925261793828036
  0
LWPOLYLINE
  5
D4
100
AcDbEntity
  8
USP-GEO
100
AcDbPolyline
 90
        2
 70
   128
 43
0.0
 10
5.23080989869071
 20
5.089339614500421
 10
5.273897294890799
 20
5.089339614500421
  0
LWPOLYLINE
  5
D5
100
AcDbEntity
  8
USP-GEO
100
AcDbPolyline
 90
        2
 70
   128
 43
0.0
 10
5.23080989869071
 20
3.925261793828036
 10
5.23080989869071
 20
5.089339614500421
  0
LWPOLYLINE
  5
D6
100
AcDbEntity
  8
USP-GEO
100
AcDbPolyline
 90
        2
 70
   128
 43
0.0
 10
5.23080989869071
 20
1.078621151542208
 10
5.23080989869071
 20
3.925261793828036
  0
LWPOLYLINE
  5
D7
100
AcDbEntity
  8
USP-GEO
100
AcDbPolyline
 90
        2
 70
   128
 43
0.0
 10
5.23080989869071
 20
1.04989622074215
 10
5.23080989869071
 20
1.078621151542208
  0
LWPOLYLINE
  5
D8
100
AcDbEntity
  8
USP-GEO
100
AcDbPolyline
 90
        2
 70
   128
 43
0.0
 10
2.097638071674295
 20
5.089339614500421
 10
2.054550675474207
 20
5.089339614500421
  0
LWPOLYLINE
  5
D9
100
AcDbEntity
  8
USP-GEO
100
AcDbPolyline
 90
        2
 70
   128
 43
0.0
 10
2.097638071674295
 20
5.089339614500421
 10
2.097638071674295
 20
3.925261793828036
  0
LWPOLYLINE
  5
DA
100
AcDbEntity
  8
USP-GEO
100
AcDbPolyline
 90
        2
 70
   128
 43
0.0
 10
2.097638071674295
 20
3.925261793828036
 10
2.054550675474207
 20
3.925261793828036
  0
LWPOLYLINE
  5
DB
100
AcDbEntity
  8
USP-GEO
100
AcDbPolyline
 90
        2
 70
   128
 43
0.0
 10
2.097638071674295
 20
3.925261793828036
 10
2.097638071674295
 20
1.078621151542208
  0
LWPOLYLINE
  5
DC
100
AcDbEntity
  8
USP-GEO
100
AcDbPolyline
 90
        2
 70
   128
 43
0.0
 10
2.097638071674295
 20
1.078621151542208
 10
2.097638071674295
 20
1.04989622074215
  0
LWPOLYLINE
  5
DD
100
AcDbEntity
  8
USP-GEO
100
AcDbPolyline
 90
        2
 70
   128
 43
0.0
 10
2.097638071674295
 20
1.04989622074215
 10
2.054550675474207
 20
1.04989622074215
  0
LWPOLYLINE
  5
DE
100
AcDbEntity
  8
USP-GEO
100
AcDbPolyline
 90
        2
 70
   128
 43
0.0
 10
2.054550675474207
 20
1.02117128994209
 10
2.054550675474207
 20
1.04989622074215
  0
LWPOLYLINE
  5
DF
100
AcDbEntity
  8
USP-GEO
100
AcDbPolyline
 90
        2
 70
   128
 43
0.0
 10
2.054550675474207
 20
5.089339614500421
 10
2.054550675474207
 20
3.925261793828036
  0
LWPOLYLINE
  5
E0
100
AcDbEntity
  8
USP-GEO
100
AcDbPolyline
 90
        2
 70
   128
 43
0.0
 10
2.054550675474207
 20
3.925261793828036
 10
2.054550675474207
 20
1.078621151542208
  0
LWPOLYLINE
  5
E1
100
AcDbEntity
  8
USP-GEO
100
AcDbPolyline
 90
        2
 70
   128
 43
0.0
 10
2.054550675474207
 20
1.04989622074215
 10
2.054550675474207
 20
1.078621151542208
  0
LWPOLYLINE
  5
E2
100
AcDbEntity
  8
USP-GEO
100
AcDbPolyline
 90
        2
 70
   128
 43
0.0
 10
5.202084967890652
 20
0.8488217051417379
 10
5.202084967890652
 20
0.8919091013418256
  0
LWPOLYLINE
  5
E3
100
AcDbEntity
  8
USP-GEO
100
AcDbPolyline
 90
        2
 70
   128
 43
0.0
 10
4.339618920618885
 20
0.8488217051417379
 10
5.202084967890652
 20
0.8488217051417379
  0
LWPOLYLINE
  5
E4
100
AcDbEntity
  8
USP-GEO
100
AcDbPolyline
 90
        2
 70
   128
 43
0.0
 10
4.339618920618885
 20
0.8919091013418256
 10
4.339618920618885
 20
0.8488217051417379
  0
LWPOLYLINE
  5
E5
100
AcDbEntity
  8
USP-GEO
100
AcDbPolyline
 90
        2
 70
   128
 43
0.0
 10
4.181631801218562
 20
0.8488217051417379
 10
4.181631801218562
 20
0.8919091013418256
  0
LWPOLYLINE
  5
E6
100
AcDbEntity
  8
USP-GEO
100
AcDbPolyline
 90
        2
 70
   128
 43
0.0
 10
3.146816169146443
 20
0.8488217051417379
 10
4.181631801218562
 20
0.8488217051417379
  0
LWPOLYLINE
  5
E7
100
AcDbEntity
  8
USP-GEO
100
AcDbPolyline
 90
        2
 70
   128
 43
0.0
 10
3.146816169146443
 20
0.8919091013418256
 10
3.146816169146443
 20
0.8488217051417379
  0
LWPOLYLINE
  5
E8
100
AcDbEntity
  8
USP-GEO
100
AcDbPolyline
 90
        2
 70
   128
 43
0.0
 10
2.98882904974612
 20
0.8488217051417379
 10
2.98882904974612
 20
0.8919091013418256
  0
LWPOLYLINE
  5
E9
100
AcDbEntity
  8
USP-GEO
100
AcDbPolyline
 90
        2
 70
   128
 43
0.0
 10
2.126363002474354
 20
0.8488217051417379
 10
2.98882904974612
 20
0.8488217051417379
  0
LWPOLYLINE
  5
EA
100
AcDbEntity
  8
USP-GEO
100
AcDbPolyline
 90
        2
 70
   128
 43
0.0
 10
2.126363002474354
 20
0.8919091013418256
 10
2.126363002474354
 20
0.8488217051417379
  0
LWPOLYLINE
  5
EB
100
AcDbEntity
  8
USP-GEO
100
AcDbPolyline
 90
        2
 70
   128
 43
0.0
 10
5.23080989869071
 20
4.040161517028272
 10
2.097638071674295
 20
4.040161517028272
  0
LWPOLYLINE
  5
EC
100
AcDbEntity
  8
USP-GEO
100
AcDbPolyline
 90
        2
 70
   128
 43
0.0
 10
2.097638071674295
 20
1.04989622074215
 10
2.097638071674295
 20
1.02117128994209
  0
ELLIPSE
  5
ED
100
AcDbEntity
  8
USP-GEO
  6
CONTINUOUS
100
AcDbEllipse
 10
1.949909517334882
 20
0.9583065323852295
 30
0.0
 11
-0.1874999999999742
 21
-0.0000000000000001
 31
0.0
210
0.0
220
0.0
230
1.0
 40
0.8660254037844385
 41
2.731702491689796
 42
3.76290930453801
1001
ACAD
1000
RTLwPs
1070
   128
  0
ELLIPSE
  5
EE
100
AcDbEntity
  8
USP-GEO
  6
CONTINUOUS
100
AcDbEllipse
 10
3.070898256598542
 20
0.9008966165387395
 30
0.0
 11
-0.078
 21
0.0
 31
0.0
210
0.0
220
0.0
230
1.0
 40
0.8660254037844387
 41
3.005735895219258
 42
6.408970585837231
1001
ACAD
1000
RTLwPs
1070
   128
  0
ELLIPSE
  5
EF
100
AcDbEntity
  8
USP-GEO
  6
CONTINUOUS
100
AcDbEllipse
 10
4.25855825659854
 20
0.9008966165387395
 30
0.0
 11
-0.078
 21
0.0
 31
0.0
210
0.0
220
0.0
230
1.0
 40
0.8660254037844387
 41
3.014259135934632
 42
6.417282332442299
1001
ACAD
1000
RTLwPs
1070
   128
  0
LWPOLYLINE
  5
F0
100
AcDbEntity
  8
USP-GEO
100
AcDbPolyline
 90
        2
 70
   128
 43
0.0
 10
5.23080989869071
 20
1.02117128994209
 10
5.23080989869071
 20
1.04989622074215
  0
ELLIPSE
  5
F1
100
AcDbEntity
  8
USP-GEO
  6
CONTINUOUS
100
AcDbEllipse
 10
5.37992699586227
 20
0.9583065323852313
 30
0.0
 11
-0.1875000000000042
 21
-0.0000000000000001
 31
0.0
210
0.0
220
0.0
230
1.0
 40
0.8660254037844387
 41
5.666290002366154
 42
6.690218223947554
1001
ACAD
1000
RTLwPs
1070
   128
  0
ELLIPSE
  5
F2
100
AcDbEntity
  8
USP-GEO
  6
CONTINUOUS
100
AcDbEllipse
 10
5.394670630800263
 20
4.499093114691744
 30
0.0
 11
-0.034882660448997
 21
0.0697653208979933
 31
0.0
210
0.0
220
0.0
230
0.9999999999999998
 40
0.6123724356957976
 41
3.571514958750438
 42
5.70154191718676
1001
ACAD
1000
RTLwPs
1070
   128
  0
ELLIPSE
  5
F3
100
AcDbEntity
  8
USP-GEO
  6
CONTINUOUS
100
AcDbEllipse
 10
5.43301900793017
 20
4.518267303256697
 30
0.0
 11
0.0348826604489966
 21
-0.0697653208979931
 31
0.0
210
0.0
220
0.0
230
1.0
 40
0.6123724356957952
 41
2.745341386941219
 42
6.109708295433906
1001
ACAD
1000
RTLwPs
1070
   128
  0
ELLIPSE
  5
F4
100
AcDbEntity
  8
USP-GEO
  6
CONTINUOUS
100
AcDbEllipse
 10
5.43301900793017
 20
4.518267303256697
 30
0.0
 11
0.0348826604489966
 21
-0.0697653208979931
 31
0.0
210
0.0
220
0.0
230
1.0
 40
0.6123724356957952
 41
0.217145843565398
 42
6.096383474565771
1001
ACAD
1000
RTLwPs
1070
   128
  0
ELLIPSE
  5
F5
100
AcDbEntity
  8
USP-GEO
  6
CONTINUOUS
100
AcDbEllipse
 10
5.43301900793017
 20
4.518267303256697
 30
0.0
 11
0.0348826604489966
 21
-0.0697653208979931
 31
0.0
210
0.0
220
0.0
230
1.0
 40
0.6123724356957952
 41
1.431711419458852
 42
2.760219903611314
1001
ACAD
1000
RTLwPs
1070
   128
  0
ELLIPSE
  5
F6
100
AcDbEntity
  8
USP-GEO
  6
CONTINUOUS
100
AcDbEllipse
 10
5.43301900793017
 20
4.518267303256697
 30
0.0
 11
0.0348826604489966
 21
-0.0697653208979931
 31
0.0
210
0.0
220
0.0
230
1.0
 40
0.6123724356957952
 41
0.2296839148033495
 42
1.429262359096899
1001
ACAD
1000
RTLwPs
1070
   128
  0
ELLIPSE
  5
F7
100
AcDbEntity
  8
USP-GEO
  6
CONTINUOUS
100
AcDbEllipse
 10
1.935165882396852
 20
4.499093114691737
 30
0.0
 11
0.0348826604489969
 21
0.0697653208979934
 31
0.0
210
0.0
220
0.0
230
1.0
 40
0.612372435695797
 41
0.5937749403274672
 42
2.69250050777765
1001
ACAD
1000
RTLwPs
1070
   128
  0
ELLIPSE
  5
F8
100
AcDbEntity
  8
USP-GEO
  6
CONTINUOUS
100
AcDbEllipse
 10
1.896817505266948
 20
4.518267303256683
 30
0.0
 11
-0.0348826604489965
 21
-0.0697653208979932
 31
0.0
210
0.0
220
0.0
230
1.0
 40
0.6123724356957943
 41
6.041958876780824
 42
6.726065772148694
1001
ACAD
1000
RTLwPs
1070
   128
  0
ELLIPSE
  5
F9
100
AcDbEntity
  8
USP-GEO
  6
CONTINUOUS
100
AcDbEllipse
 10
1.896817505266948
 20
4.518267303256683
 30
0.0
 11
-0.0348826604489965
 21
-0.0697653208979932
 31
0.0
210
0.0
220
0.0
230
1.0
 40
0.6123724356957943
 41
3.53685685672783
 42
6.054328685955523
1001
ACAD
1000
RTLwPs
1070
   128
  0
ELLIPSE
  5
FA
100
AcDbEntity
  8
USP-GEO
  6
CONTINUOUS
100
AcDbEllipse
 10
1.896817505266948
 20
4.518267303256683
 30
0.0
 11
-0.0348826604489965
 21
-0.0697653208979932
 31
0.0
210
0.0
220
0.0
230
1.0
 40
0.6123724356957943
 41
0.4296314404895769
 42
1.604993126655109
1001
ACAD
1000
RTLwPs
1070
   128
  0
ELLIPSE
  5
FB
100
AcDbEntity
  8
USP-GEO
  6
CONTINUOUS
100
AcDbEllipse
 10
1.896817505266948
 20
4.518267303256683
 30
0.0
 11
-0.0348826604489965
 21
-0.0697653208979932
 31
0.0
210
0.0
220
0.0
230
1.0
 40
0.6123724356957943
 41
2.801699241810279
 42
3.55169458688778
1001
ACAD
1000
RTLwPs
1070
   128
  0
ELLIPSE
  5
FC
100
AcDbEntity
  8
USP-GEO
  6
CONTINUOUS
100
AcDbEllipse
 10
1.896817505266948
 20
4.518267303256683
 30
0.0
 11
-0.0348826604489965
 21
-0.0697653208979932
 31
0.0
210
0.0
220
0.0
230
1.0
 40
0.6123724356957943
 41
1.608687065426515
 42
2.789374006772043
1001
ACAD
1000
RTLwPs
1070
   128
  0
ELLIPSE
  5
FD
100
AcDbEntity
  8
USP-GEO
  6
CONTINUOUS
100
AcDbEllipse
 10
5.379926995862271
 20
0.9323065323852315
 30
0.0
 11
-0.1875000000000042
 21
-0.0000000000000001
 31
0.0
210
0.0
220
0.0
230
1.0
 40
0.8660254037844387
 41
5.680469217496121
 42
6.26702629962025
1001
ACAD
1000
RTLwPs
1070
   128
  0
LWPOLYLINE
  5
FE
100
AcDbEntity
  8
USP-GEO
100
AcDbPolyline
 90
        2
 70
   128
 43
0.0
 10
5.23080989869071
 20
1.02117128994209
 10
5.273897294890799
 20
1.02117128994209
  0
LWPOLYLINE
  5
FF
100
AcDbEntity
  8
USP-GEO
100
AcDbPolyline
 90
        2
 70
   128
 43
0.0
 10
2.097638071674295
 20
1.02117128994209
 10
2.054550675474207
 20
1.02117128994209
  0
ELLIPSE
  5
100
100
AcDbEntity
  8
USP-GEO
  6
CONTINUOUS
100
AcDbEllipse
 10
1.94990951733488
 20
0.9323065323852279
 30
0.0
 11
-0.1874999999999742
 21
-0.0000000000000001
 31
0.0
210
0.0
220
0.0
230
1.0
 40
0.8660254037844385
 41
3.157869227451744
 42
3.748684933642534
1001
ACAD
1000
RTLwPs
1070
   128
  0
ELLIPSE
  5
101
100
AcDbEntity
  8
USP-GEO
  6
CONTINUOUS
100
AcDbEllipse
 10
3.070898256598544
 20
0.8748966165387397
 30
0.0
 11
-0.078
 21
0.0
 31
0.0
210
0.0
220
0.0
230
1.0
 40
0.8660254037844387
 41
3.181500174576326
 42
6.245917224068776
1001
ACAD
1000
RTLwPs
1070
   128
  0
ELLIPSE
  5
102
100
AcDbEntity
  8
USP-GEO
  6
CONTINUOUS
100
AcDbEllipse
 10
4.25855825659854
 20
0.8748966165387397
 30
0.0
 11
-0.078
 21
0.0
 31
0.0
210
0.0
220
0.0
230
1.0
 40
0.8660254037844387
 41
3.178992963019227
 42
6.243428289587873
1001
ACAD
1000
RTLwPs
1070
   128
  0
ARC
  5
103
100
AcDbEntity
  8
USP-GEO
100
AcDbCircle
 10
2.103118256598591
 20
4.415116927590863
 30
0.0
 40
0.3020000000000007
100
AcDbArc
 50
99.1719411561335
 51
260.8978023020729
  0
ARC
  5
104
100
AcDbEntity
  8
USP-GEO
100
AcDbCircle
 10
5.226718256598527
 20
4.415116927590878
 30
0.0
 40
0.3020000000000007
100
AcDbArc
 50
278.8461415211844
 51
81.08601255270093
  0
LWPOLYLINE
  5
105
100
AcDbEntity
  8
USP-GEO
100
AcDbPolyline
 90
        2
 70
   128
 43
0.0
 10
1.896563556073883
 20
2.213974041414532
 10
1.896563556073883
 20
3.033352692486211
  0
LWPOLYLINE
  5
106
100
AcDbEntity
  8
USP-GEO
100
AcDbPolyline
 90
        2
 70
   128
 43
0.0
 10
5.431884414291122
 20
3.033352692486211
 10
5.431884414291122
 20
2.213974041414532
  0
TEXT
  5
107
100
AcDbEntity
  8
USP-TXT
100
AcDbText
 10
1.455890651849169
 20
-0.8509720497677051
 30
0.0
 40
0.25
  1
TMP31 - FRONT VIEW
 72
     1
 11
3.664223985182502
 21
-0.8509720497677051
 31
0.0
100
AcDbText
  0
ENDBLK
  5
109
100
AcDbEntity
  8
0
100
AcDbBlockEnd
  0
BLOCK
  5
14B
100
AcDbEntity
  8
0
100
AcDbBlockBegin
  2
TMP31PR_S
 70
     0
 10
0.0
 20
0.0
 30
0.0
  3
TMP31PR_S
  1

  0
LWPOLYLINE
  5
10C
100
AcDbEntity
  8
USP-GEO
100
AcDbPolyline
 90
        2
 70
   128
 43
0.0
 10
1.710569629143501
 20
3.220782865956595
 10
3.449146065817062
 20
2.401404214884916
  0
LWPOLYLINE
  5
10D
100
AcDbEntity
  8
USP-GEO
100
AcDbPolyline
 90
        2
 70
   128
 43
0.0
 10
3.449146065817062
 20
2.401404214884916
 10
3.449146065817062
 20
2.703015988285534
  0
LWPOLYLINE
  5
10E
100
AcDbEntity
  8
USP-GEO
100
AcDbPolyline
 90
        2
 70
   128
 43
0.0
 10
3.449146065817062
 20
2.703015988285534
 10
2.975184707616092
 20
3.278232727556712
  0
LWPOLYLINE
  5
10F
100
AcDbEntity
  8
USP-GEO
100
AcDbPolyline
 90
        2
 70
   128
 43
0.0
 10
2.975184707616092
 20
3.278232727556712
 10
1.710569629143501
 20
3.278232727556712
  0
LWPOLYLINE
  5
110
100
AcDbEntity
  8
USP-GEO
100
AcDbPolyline
 90
        2
 70
   128
 43
0.0
 10
1.710569629143501
 20
3.278232727556712
 10
1.710569629143501
 20
3.220782865956595
  0
LWPOLYLINE
  5
111
100
AcDbEntity
  8
USP-GEO
100
AcDbPolyline
 90
        2
 70
   128
 43
0.0
 10
1.710569629143501
 20
0.8057343089416502
 10
1.710569629143501
 20
2.932815434686006
  0
LWPOLYLINE
  5
112
100
AcDbEntity
  8
USP-GEO
100
AcDbPolyline
 90
        2
 70
   128
 43
0.0
 10
1.523139455673119
 20
0.8488217051417379
 10
1.710569629143501
 20
0.8488217051417379
  0
LWPOLYLINE
  5
113
100
AcDbEntity
  8
USP-GEO
100
AcDbPolyline
 90
        2
 70
   128
 43
0.0
 10
0.4021490312008229
 20
0.8488217051417379
 10
1.523139455673119
 20
0.8488217051417379
  0
LWPOLYLINE
  5
114
100
AcDbEntity
  8
USP-GEO
100
AcDbPolyline
 90
        2
 70
   128
 43
0.0
 10
1.523139455673119
 20
0.8057343089416502
 10
1.523139455673119
 20
0.8488217051417379
  0
LWPOLYLINE
  5
115
100
AcDbEntity
  8
USP-GEO
100
AcDbPolyline
 90
        2
 70
   128
 43
0.0
 10
0.4021490312008229
 20
0.0
 10
0.4021490312008229
 20
0.8488217051417379
  0
LWPOLYLINE
  5
116
100
AcDbEntity
  8
USP-GEO
100
AcDbPolyline
 90
        2
 70
   128
 43
0.0
 10
0.4595988928009405
 20
0.8057343089416502
 10
0.4595988928009405
 20
0.0
  0
LWPOLYLINE
  5
117
100
AcDbEntity
  8
USP-GEO
100
AcDbPolyline
 90
        2
 70
   128
 43
0.0
 10
0.4595988928009405
 20
0.0
 10
0.4021490312008229
 20
0.0
  0
LWPOLYLINE
  5
118
100
AcDbEntity
  8
USP-GEO
100
AcDbPolyline
 90
        2
 70
   128
 43
0.0
 10
3.449146065817062
 20
0.8057343089416502
 10
3.449146065817062
 20
2.113436783614327
  0
LWPOLYLINE
  5
119
100
AcDbEntity
  8
USP-GEO
100
AcDbPolyline
 90
        2
 70
   128
 43
0.0
 10
3.449146065817062
 20
2.142161714414386
 10
3.449146065817062
 20
2.113436783614327
  0
LWPOLYLINE
  5
11A
100
AcDbEntity
  8
USP-GEO
100
AcDbPolyline
 90
        2
 70
   128
 43
0.0
 10
1.710569629143501
 20
2.932815434686006
 10
3.449146065817062
 20
2.113436783614327
  0
LWPOLYLINE
  5
11B
100
AcDbEntity
  8
USP-GEO
100
AcDbPolyline
 90
        2
 70
   128
 43
0.0
 10
1.710569629143501
 20
2.932815434686006
 10
1.710569629143501
 20
2.961540365486063
  0
LWPOLYLINE
  5
11C
100
AcDbEntity
  8
USP-GEO
100
AcDbPolyline
 90
        2
 70
   128
 43
0.0
 10
3.449146065817062
 20
2.257061437614622
 10
3.449146065817062
 20
2.142161714414386
  0
LWPOLYLINE
  5
11D
100
AcDbEntity
  8
USP-GEO
100
AcDbPolyline
 90
        2
 70
   128
 43
0.0
 10
1.710569629143501
 20
2.961540365486063
 10
1.710569629143501
 20
3.0771582119563
  0
LWPOLYLINE
  5
11E
100
AcDbEntity
  8
USP-GEO
100
AcDbPolyline
 90
        2
 70
   128
 43
0.0
 10
3.449146065817062
 20
2.401404214884916
 10
3.449146065817062
 20
2.257061437614622
  0
LWPOLYLINE
  5
11F
100
AcDbEntity
  8
USP-GEO
100
AcDbPolyline
 90
        2
 70
   128
 43
0.0
 10
1.710569629143501
 20
3.0771582119563
 10
1.710569629143501
 20
3.220782865956595
  0
ELLIPSE
  5
120
100
AcDbEntity
  8
USP-GEO
  6
CONTINUOUS
100
AcDbEllipse
 10
3.166628090087259
 20
2.473675596076052
 30
0.0
 11
0.0566447127822644
 21
-0.0264126203554089
 31
0.0
210
0.0
220
0.0
230
1.0
 40
0.8660254037699221
 41
4.814540447259011
 42
7.787832632748125
1001
ACAD
1000
RTLwPs
1070
   128
  0
ELLIPSE
  5
121
100
AcDbEntity
  8
USP-GEO
  6
CONTINUOUS
100
AcDbEllipse
 10
2.017169965383052
 20
3.009670416424652
 30
0.0
 11
0.0566447127822644
 21
-0.0264126203554089
 31
0.0
210
0.0
220
0.0
230
1.0
 40
0.8660254037699221
 41
3.471342126178642
 42
9.752617384471609
1001
ACAD
1000
RTLwPs
1070
   128
  0
ELLIPSE
  5
122
100
AcDbEntity
  8
USP-GEO
  6
CONTINUOUS
100
AcDbEllipse
 10
2.017169965383052
 20
3.009670416424652
 30
0.0
 11
0.0566447127822644
 21
-0.0264126203554089
 31
0.0
210
0.0
220
0.0
230
1.0
 40
0.8660254037699221
 41
2.873990853427483
 42
4.256617594017477
1001
ACAD
1000
RTLwPs
1070
   128
  0
ELLIPSE
  5
123
100
AcDbEntity
  8
USP-GEO
  6
CONTINUOUS
100
AcDbEllipse
 10
2.017169965383052
 20
3.009670416424652
 30
0.0
 11
0.0566447127822644
 21
-0.0264126203554089
 31
0.0
210
0.0
220
0.0
230
1.0
 40
0.8660254037699221
 41
4.250069647744515
 42
4.759196754901092
1001
ACAD
1000
RTLwPs
1070
   128
  0
ELLIPSE
  5
124
100
AcDbEntity
  8
USP-GEO
  6
CONTINUOUS
100
AcDbEllipse
 10
2.017169965383052
 20
3.009670416424652
 30
0.0
 11
0.0566447127822644
 21
-0.0264126203554089
 31
0.0
210
0.0
220
0.0
230
1.0
 40
0.8660254037699221
 41
1.584761403778166
 42
2.865672640846449
1001
ACAD
1000
RTLwPs
1070
   128
  0
LWPOLYLINE
  5
125
100
AcDbEntity
  8
USP-GEO
100
AcDbPolyline
 90
        2
 70
   128
 43
0.0
 10
1.99781893714409
 20
2.961540365486063
 10
3.147534292416443
 20
2.415766680284946
  0
LWPOLYLINE
  5
126
100
AcDbEntity
  8
USP-GEO
100
AcDbPolyline
 90
        2
 70
   128
 43
0.0
 10
3.190621688616532
 20
2.516303938085153
 10
3.449146065817062
 20
2.401404214884916
  0
LWPOLYLINE
  5
127
100
AcDbEntity
  8
USP-GEO
100
AcDbPolyline
 90
        2
 70
   128
 43
0.0
 10
3.190621688616532
 20
2.516303938085153
 10
3.191339811886534
 20
2.516303938085153
  0
LWPOLYLINE
  5
128
100
AcDbEntity
  8
USP-GEO
100
AcDbPolyline
 90
        2
 70
   128
 43
0.0
 10
3.190621688616532
 20
2.516303938085153
 10
2.04090633334418
 20
3.062795746556272
  0
LWPOLYLINE
  5
129
100
AcDbEntity
  8
USP-GEO
100
AcDbPolyline
 90
        2
 70
   128
 43
0.0
 10
2.04090633334418
 20
3.062795746556272
 10
2.041624456614181
 20
3.062795746556272
  0
LWPOLYLINE
  5
12A
100
AcDbEntity
  8
USP-GEO
100
AcDbPolyline
 90
        2
 70
   128
 43
0.0
 10
1.710569629143501
 20
3.220782865956595
 10
2.04090633334418
 20
3.062795746556272
  0
ELLIPSE
  5
12B
100
AcDbEntity
  8
USP-GEO
  6
CONTINUOUS
100
AcDbEllipse
 10
2.006181890576007
 20
2.986106413957868
 30
0.0
 11
0.0566447127822644
 21
-0.0264126203554089
 31
0.0
210
0.0
220
0.0
230
1.0
 40
0.8660254037699012
 41
1.596253628771041
 42
2.989021723986414
1001
ACAD
1000
RTLwPs
1070
   128
  0
LWPOLYLINE
  5
12C
100
AcDbEntity
  8
USP-GEO
100
AcDbPolyline
 90
        2
 70
   128
 43
0.0
 10
2.02654386794415
 20
3.033352692486211
 10
3.176259223216503
 20
2.501941472685123
  0
ELLIPSE
  5
12D
100
AcDbEntity
  8
USP-GEO
  6
CONTINUOUS
100
AcDbEllipse
 10
3.155640015280217
 20
2.450111593609271
 30
0.0
 11
0.0566447127822644
 21
-0.0264126203554089
 31
0.0
210
0.0
220
0.0
230
1.0
 40
0.8660254037699012
 41
0.1525517718902456
 42
1.620766457948422
1001
ACAD
1000
RTLwPs
1070
   128
  0
LWPOLYLINE
  5
12E
100
AcDbEntity
  8
USP-GEO
100
AcDbPolyline
 90
        2
 70
   128
 43
0.0
 10
1.523139455673119
 20
0.8057343089416502
 10
0.4595988928009405
 20
0.8057343089416502
  0
LWPOLYLINE
  5
12F
100
AcDbEntity
  8
USP-GEO
100
AcDbPolyline
 90
        2
 70
   128
 43
0.0
 10
1.710569629143501
 20
0.8057343089416502
 10
1.523139455673119
 20
0.8057343089416502
  0
LWPOLYLINE
  5
130
100
AcDbEntity
  8
USP-GEO
100
AcDbPolyline
 90
        2
 70
   128
 43
0.0
 10
3.449146065817062
 20
0.8057343089416502
 10
1.710569629143501
 20
0.8057343089416502
  0
LWPOLYLINE
  5
131
100
AcDbEntity
  8
USP-GEO
100
AcDbPolyline
 90
        2
 70
   128
 43
0.0
 10
0.8050161856716488
 20
1.02117128994209
 10
0.7619287894715594
 20
1.04989622074215
  0
ARC
  5
132
100
AcDbEntity
  8
USP-GEO
100
AcDbCircle
 10
0.5778814069658065
 20
1.034910902017101
 30
0.0
 40
0.1875000000000065
100
AcDbArc
 50
4.654810623138188
 51
13.35992263098119
  0
LWPOLYLINE
  5
133
100
AcDbEntity
  8
USP-GEO
100
AcDbPolyline
 90
        2
 70
   128
 43
0.0
 10
0.0
 20
3.925261793828036
 10
0.7619287894715594
 20
1.078621151542208
  0
LWPOLYLINE
  5
134
100
AcDbEntity
  8
USP-GEO
100
AcDbPolyline
 90
        2
 70
   128
 43
0.0
 10
0.675753997071384
 20
5.089339614500421
 10
0.0
 20
3.925261793828036
  0
LWPOLYLINE
  5
135
100
AcDbEntity
  8
USP-GEO
100
AcDbPolyline
 90
        2
 70
   128
 43
0.0
 10
2.543592622345206
 20
4.025799051628244
 10
0.675753997071384
 20
5.089339614500421
  0
LWPOLYLINE
  5
136
100
AcDbEntity
  8
USP-GEO
100
AcDbPolyline
 90
        2
 70
   128
 43
0.0
 10
0.9630033050719717
 20
3.737831620357653
 10
0.5608542738711489
 20
3.047715157886241
  0
ARC
  5
137
100
AcDbEntity
  8
USP-GEO
100
AcDbCircle
 10
1.030462444004053
 20
3.701382565216247
 30
0.0
 40
0.078
100
AcDbArc
 50
330.2221125986129
 51
151.6170671909065
  0
LWPOLYLINE
  5
138
100
AcDbEntity
  8
USP-GEO
100
AcDbPolyline
 90
        2
 70
   128
 43
0.0
 10
0.7044789278714419
 20
2.975902830886093
 10
1.092265493672236
 20
3.666019293357505
  0
ARC
  5
139
100
AcDbEntity
  8
USP-GEO
100
AcDbCircle
 10
0.6330994495005893
 20
3.013130721124474
 30
0.0
 40
0.078
100
AcDbArc
 50
154.4191286361572
 51
332.4557552340364
  0
LWPOLYLINE
  5
13A
100
AcDbEntity
  8
USP-GEO
100
AcDbPolyline
 90
        2
 70
   128
 43
0.0
 10
0.6470290662713243
 20
0.8488217051417379
 10
0.675753997071384
 20
0.8919091013418256
  0
LWPOLYLINE
  5
13B
100
AcDbEntity
  8
USP-GEO
100
AcDbPolyline
 90
        2
 70
   128
 43
0.0
 10
0.675753997071384
 20
0.8919091013418256
 10
0.7188413932714717
 20
0.8775466359417976
  0
LWPOLYLINE
  5
13C
100
AcDbEntity
  8
USP-GEO
100
AcDbPolyline
 90
        2
 70
   128
 43
0.0
 10
0.675753997071384
 20
0.8919091013418256
 10
0.7619287894715594
 20
1.04989622074215
  0
ELLIPSE
  5
13D
100
AcDbEntity
  8
USP-GEO
  6
CONTINUOUS
100
AcDbEllipse
 10
1.048826220594838
 20
4.499093114691744
 30
0.0
 11
0.039
 21
0.0675499814951862
 31
0.0
210
0.0
220
0.0
230
1.0
 40
0.7071067811865439
 41
1.514967419185964
 42
2.775705832679447
1001
ACAD
1000
RTLwPs
1070
   128
  0
ELLIPSE
  5
13E
100
AcDbEntity
  8
USP-GEO
  6
CONTINUOUS
100
AcDbEllipse
 10
1.048826220594838
 20
4.499093114691744
 30
0.0
 11
0.039
 21
0.0675499814951862
 31
0.0
210
0.0
220
0.0
230
1.0
 40
0.7071067811865439
 41
0.4302801241125433
 42
1.514967419185964
1001
ACAD
1000
RTLwPs
1070
   128
  0
CIRCLE
  5
13F
100
AcDbEntity
  8
USP-GEO
100
AcDbCircle
 10
1.194277243279453
 20
4.415116927590871
 30
0.0
 40
0.2974894956128709
  0
ELLIPSE
  5
140
100
AcDbEntity
  8
USP-GEO
  6
CONTINUOUS
100
AcDbEllipse
 10
1.015615551806435
 20
4.518267303256697
 30
0.0
 11
-0.0389999999999998
 21
-0.0675499814951859
 31
0.0
210
0.0
220
0.0
230
1.0
 40
0.7071067811865467
 41
5.850549436831763
 42
6.599631462787726
1001
ACAD
1000
RTLwPs
1070
   128
  0
ELLIPSE
  5
141
100
AcDbEntity
  8
USP-GEO
  6
CONTINUOUS
100
AcDbEllipse
 10
1.015615551806435
 20
4.518267303256697
 30
0.0
 11
-0.0389999999999998
 21
-0.0675499814951859
 31
0.0
210
0.0
220
0.0
230
1.0
 40
0.7071067811865467
 41
3.487975759871103
 42
5.859384399699537
1001
ACAD
1000
RTLwPs
1070
   128
  0
ELLIPSE
  5
142
100
AcDbEntity
  8
USP-GEO
  6
CONTINUOUS
100
AcDbEllipse
 10
1.015615551806435
 20
4.518267303256697
 30
0.0
 11
-0.0389999999999998
 21
-0.0675499814951859
 31
0.0
210
0.0
220
0.0
230
1.0
 40
0.7071067811865467
 41
1.257668952330954
 42
6.588001575704213
1001
ACAD
1000
RTLwPs
1070
   128
  0
ELLIPSE
  5
143
100
AcDbEntity
  8
USP-GEO
  6
CONTINUOUS
100
AcDbEllipse
 10
1.015615551806435
 20
4.518267303256697
 30
0.0
 11
-0.0389999999999998
 21
-0.0675499814951859
 31
0.0
210
0.0
220
0.0
230
1.0
 40
0.7071067811865467
 41
1.265418593251093
 42
3.475011126732317
1001
ACAD
1000
RTLwPs
1070
   128
  0
LWPOLYLINE
  5
144
100
AcDbEntity
  8
USP-GEO
100
AcDbPolyline
 90
        2
 70
   128
 43
0.0
 10
0.7188413932714717
 20
0.8488217051417379
 10
0.7188413932714717
 20
0.8775466359417976
  0
LWPOLYLINE
  5
145
100
AcDbEntity
  8
USP-GEO
100
AcDbPolyline
 90
        2
 70
   128
 43
0.0
 10
0.8050161856716488
 20
1.02117128994209
 10
0.7188413932714717
 20
0.8775466359417976
  0
LWPOLYLINE
  5
146
100
AcDbEntity
  8
USP-GEO
100
AcDbPolyline
 90
        2
 70
   128
 43
0.0
 10
2.112718660344325
 20
3.278232727556712
 10
2.543592622345206
 20
4.025799051628244
  0
LWPOLYLINE
  5
147
100
AcDbEntity
  8
USP-GEO
100
AcDbPolyline
 90
        2
 70
   128
 43
0.0
 10
1.99781893714409
 20
3.0771582119563
 10
1.998537060414092
 20
3.0771582119563
  0
LWPOLYLINE
  5
148
100
AcDbEntity
  8
USP-GEO
100
AcDbPolyline
 90
        2
 70
   128
 43
0.0
 10
1.954731540944001
 20
3.004627761686151
 10
1.969094006344031
 20
3.033352692486211
  0
LWPOLYLINE
  5
149
100
AcDbEntity
  8
USP-GEO
100
AcDbPolyline
 90
        2
 70
   128
 43
0.0
 10
0.8050161856716488
 20
1.02117128994209
 10
1.710569629143501
 20
2.57375379968527
  0
TEXT
  5
14A
100
AcDbEntity
  8
USP-TXT
100
AcDbText
 10
-0.3170936337581351
 20
-0.8509720497677051
 30
0.0
 40
0.25
  1
TMP31 - SIDE VIEW
 72
     1
 11
1.724573032908532
 21
-0.8509720497677051
 31
0.0
100
AcDbText
  0
ENDBLK
  5
14C
100
AcDbEntity
  8
0
100
AcDbBlockEnd
  0
ENDSEC
  0
SECTION
  2
ENTITIES
  0
INSERT
  5
3
100
AcDbEntity
  8
USP
100
AcDbBlockReference
  2
TMP31PR_T
 10
-0.0050775491095294
 20
10.9558847388117
 30
0.0
  0
INSERT
  5
7F
100
AcDbEntity
  8
USP
100
AcDbBlockReference
  2
TMP31PR_F
 10
-0.0050775491095294
 20
1.855826661353075
 30
0.0
  0
INSERT
  5
10A
100
AcDbEntity
  8
USP
100
AcDbBlockReference
  2
TMP31PR_S
 10
10.08311814787112
 20
1.855826661353075
 30
0.0
  0
ENDSEC
  0
SECTION
  2
OBJECTS
  0
DICTIONARY
  5
164
100
AcDbDictionary
  3
ACAD_GROUP
350
162
  3
ACAD_MLINESTYLE
350
163
  0
DICTIONARY
  5
9
100
AcDbDictionary
280
     1
  3
ACAD_XREC_ROUNDTRIP
360
A
  0
DICTIONARY
  5
79
100
AcDbDictionary
280
     1
  3
ACAD_XREC_ROUNDTRIP
360
7A
  0
DICTIONARY
  5
167
100
AcDbDictionary
280
     1
  3
ACAD_XREC_ROUNDTRIP
360
168
  0
DICTIONARY
  5
14D
100
AcDbDictionary
280
     1
  3
ACAD_LAYOUTSELFREF
360
14E
  0
DICTIONARY
  5
152
100
AcDbDictionary
280
     1
  3
ACAD_LAYOUTSELFREF
360
153
  0
DICTIONARY
  5
162
102
{ACAD_REACTORS
330
164
102
}
100
AcDbDictionary
  0
DICTIONARY
  5
163
102
{ACAD_REACTORS
330
164
102
}
100
AcDbDictionary
  3
STANDARD
350
165
  0
XRECORD
  5
A
102
{ACAD_REACTORS
330
9
102
}
100
AcDbXrecord
102
EXTNAMES
  1
USP-GEO
  2
USP-Geo
  0
XRECORD
  5
7A
102
{ACAD_REACTORS
330
79
102
}
100
AcDbXrecord
102
EXTNAMES
  1
USP-TXT
  2
USP-Txt
  0
XRECORD
  5
168
102
{ACAD_REACTORS
330
167
102
}
100
AcDbXrecord
102
ACADR14ROUNDTRIP
1000
DSTYLE
1002
{
1070
   276
 70
     2
1070
   277
 70
     5
1002
}
  0
XRECORD
  5
14E
102
{ACAD_REACTORS
330
14D
102
}
100
AcDbXrecord
340
2
  0
XRECORD
  5
153
102
{ACAD_REACTORS
330
152
102
}
100
AcDbXrecord
340
0
  0
MLINESTYLE
  5
165
102
{ACAD_REACTORS
330
163
102
}
100
AcDbMlineStyle
  2
STANDARD
 70
     0
  3

 62
     0
 51
90.0
 52
90.0
 71
     2
 49
0.5
 62
   256
  6
BYLAYER
 49
-0.5
 62
   256
  6
BYLAYER
  0
ENDSEC
  0
EOF
