  0
SECTION
  2
HEADER
  9
$ACADVER
  1
AC1014
  9
$ACADMAINTVER
 70
     8
  9
$DWGCODEPAGE
  3
ANSI_1252
  9
$INSBASE
 10
0.0
 20
0.0
 30
0.0
  9
$EXTMIN
 10
0.0023664324177046
 20
1.186206119593032
 30
0.0
  9
$EXTMAX
 10
14.27590471131798
 20
13.60239188402448
 30
0.0
  9
$LIMMIN
 10
0.0
 20
0.0
  9
$LIMMAX
 10
12.0
 20
9.0
  9
$ORTHOMODE
 70
     0
  9
$REGENMODE
 70
     1
  9
$FILLMODE
 70
     1
  9
$QTEXTMODE
 70
     0
  9
$MIRRTEXT
 70
     0
  9
$DRAGMODE
 70
     2
  9
$LTSCALE
 40
1.5
  9
$OSMODE
 70
     0
  9
$ATTMODE
 70
     1
  9
$TEXTSIZE
 40
0.25
  9
$TRACEWID
 40
0.05
  9
$TEXTSTYLE
  7
STANDARD
  9
$CLAYER
  8
USP
  9
$CELTYPE
  6
BYLAYER
  9
$CECOLOR
 62
   256
  9
$CELTSCALE
 40
1.0
  9
$DELOBJ
 70
     1
  9
$DISPSILH
 70
     1
  9
$DIMSCALE
 40
5.0
  9
$DIMASZ
 40
0.125
  9
$DIMEXO
 40
0.0625
  9
$DIMDLI
 40
0.38
  9
$DIMRND
 40
0.0
  9
$DIMDLE
 40
0.0
  9
$DIMEXE
 40
0.09375
  9
$DIMTP
 40
0.0
  9
$DIMTM
 40
0.0
  9
$DIMTXT
 40
0.109375
  9
$DIMCEN
 40
0.0
  9
$DIMTSZ
 40
0.0
  9
$DIMTOL
 70
     0
  9
$DIMLIM
 70
     0
  9
$DIMTIH
 70
     1
  9
$DIMTOH
 70
     1
  9
$DIMSE1
 70
     0
  9
$DIMSE2
 70
     0
  9
$DIMTAD
 70
     0
  9
$DIMZIN
 70
     8
  9
$DIMBLK
  1

  9
$DIMASO
 70
     1
  9
$DIMSHO
 70
     1
  9
$DIMPOST
  1

  9
$DIMAPOST
  1

  9
$DIMALT
 70
     0
  9
$DIMALTD
 70
     2
  9
$DIMALTF
 40
25.4
  9
$DIMLFAC
 40
1.0
  9
$DIMTOFL
 70
     0
  9
$DIMTVP
 40
0.0
  9
$DIMTIX
 70
     0
  9
$DIMSOXD
 70
     0
  9
$DIMSAH
 70
     0
  9
$DIMBLK1
  1

  9
$DIMBLK2
  1

  9
$DIMSTYLE
  2
STANDARD
  9
$DIMCLRD
 70
   256
  9
$DIMCLRE
 70
   256
  9
$DIMCLRT
 70
   256
  9
$DIMTFAC
 40
1.0
  9
$DIMGAP
 40
0.09
  9
$DIMJUST
 70
     0
  9
$DIMSD1
 70
     0
  9
$DIMSD2
 70
     0
  9
$DIMTOLJ
 70
     1
  9
$DIMTZIN
 70
     0
  9
$DIMALTZ
 70
     0
  9
$DIMALTTZ
 70
     0
  9
$DIMFIT
 70
     3
  9
$DIMUPT
 70
     1
  9
$DIMUNIT
 70
     7
  9
$DIMDEC
 70
     4
  9
$DIMTDEC
 70
     4
  9
$DIMALTU
 70
     2
  9
$DIMALTTD
 70
     2
  9
$DIMTXSTY
  7
STANDARD
  9
$DIMAUNIT
 70
     0
  9
$LUNITS
 70
     5
  9
$LUPREC
 70
     6
  9
$SKETCHINC
 40
0.1
  9
$FILLETRAD
 40
0.0
  9
$AUNITS
 70
     0
  9
$AUPREC
 70
     1
  9
$MENU
  1
CUSTOM
  9
$ELEVATION
 40
0.0
  9
$PELEVATION
 40
0.0
  9
$THICKNESS
 40
0.0
  9
$LIMCHECK
 70
     0
  9
$BLIPMODE
 70
     0
  9
$CHAMFERA
 40
0.0
  9
$CHAMFERB
 40
0.0
  9
$CHAMFERC
 40
0.0
  9
$CHAMFERD
 40
0.0
  9
$SKPOLY
 70
     0
  9
$TDCREATE
 40
2451263.621564698
  9
$TDUPDATE
 40
2453026.022060717
  9
$TDINDWG
 40
1.1187881597
  9
$TDUSRTIMER
 40
1.1187881597
  9
$USRTIMER
 70
     1
  9
$ANGBASE
 50
0.0
  9
$ANGDIR
 70
     0
  9
$PDMODE
 70
     0
  9
$PDSIZE
 40
0.0
  9
$PLINEWID
 40
0.0
  9
$COORDS
 70
     2
  9
$SPLFRAME
 70
     0
  9
$SPLINETYPE
 70
     6
  9
$SPLINESEGS
 70
     8
  9
$ATTDIA
 70
     0
  9
$ATTREQ
 70
     0
  9
$HANDLING
 70
     1
  9
$HANDSEED
  5
175
  9
$SURFTAB1
 70
     6
  9
$SURFTAB2
 70
     6
  9
$SURFTYPE
 70
     6
  9
$SURFU
 70
     6
  9
$SURFV
 70
     6
  9
$UCSNAME
  2

  9
$UCSORG
 10
0.0
 20
0.0
 30
0.0
  9
$UCSXDIR
 10
1.0
 20
0.0
 30
0.0
  9
$UCSYDIR
 10
0.0
 20
1.0
 30
0.0
  9
$PUCSNAME
  2

  9
$PUCSORG
 10
0.0
 20
0.0
 30
0.0
  9
$PUCSXDIR
 10
1.0
 20
0.0
 30
0.0
  9
$PUCSYDIR
 10
0.0
 20
1.0
 30
0.0
  9
$USERI1
 70
     0
  9
$USERI2
 70
     0
  9
$USERI3
 70
     0
  9
$USERI4
 70
     0
  9
$USERI5
 70
     0
  9
$USERR1
 40
0.0
  9
$USERR2
 40
0.0
  9
$USERR3
 40
0.0
  9
$USERR4
 40
0.0
  9
$USERR5
 40
0.0
  9
$WORLDVIEW
 70
     1
  9
$SHADEDGE
 70
     3
  9
$SHADEDIF
 70
    70
  9
$TILEMODE
 70
     1
  9
$MAXACTVP
 70
    16
  9
$PINSBASE
 10
0.0
 20
0.0
 30
0.0
  9
$PLIMCHECK
 70
     0
  9
$PEXTMIN
 10
1.000000000000000E+20
 20
1.000000000000000E+20
 30
1.000000000000000E+20
  9
$PEXTMAX
 10
-1.000000000000000E+20
 20
-1.000000000000000E+20
 30
-1.000000000000000E+20
  9
$PLIMMIN
 10
0.0
 20
0.0
  9
$PLIMMAX
 10
12.0
 20
9.0
  9
$UNITMODE
 70
     0
  9
$VISRETAIN
 70
     0
  9
$PLINEGEN
 70
     0
  9
$PSLTSCALE
 70
     0
  9
$TREEDEPTH
 70
  3020
  9
$PICKSTYLE
 70
     1
  9
$CMLSTYLE
  2
STANDARD
  9
$CMLJUST
 70
     0
  9
$CMLSCALE
 40
1.0
  9
$PROXYGRAPHICS
 70
     1
  9
$MEASUREMENT
 70
     0
  0
ENDSEC
  0
SECTION
  2
CLASSES
  0
CLASS
  1
ACDBDICTIONARYWDFLT
  2
AcDbDictionaryWithDefault
  3
AutoCAD 2000
 90
        0
280
     0
281
     0
  0
CLASS
  1
ACDBPLACEHOLDER
  2
AcDbPlaceHolder
  3
AutoCAD 2000
 90
        0
280
     0
281
     0
  0
CLASS
  1
LAYOUT
  2
AcDbLayout
  3
AutoCAD 2000
 90
        0
280
     0
281
     0
  0
CLASS
  1
DICTIONARYVAR
  2
AcDbDictionaryVar
  3
"AutoCAD"
 90
        0
280
     0
281
     0
  0
CLASS
  1
SORTENTSTABLE
  2
AcDbSortentsTable
  3
"AutoCAD"
 90
        0
280
     0
281
     0
  0
CLASS
  1
LONG_TRANSACTION
  2
AcDbLongTransaction
  3
AutoCAD 2000
 90
        0
280
     0
281
     0
  0
CLASS
  1
LWPOLYLINE
  2
AcDbPolyline
  3
"AutoCAD"
 90
        0
280
     0
281
     1
  0
CLASS
  1
HATCH
  2
AcDbHatch
  3
"ACAD_SEDONA"
 90
        0
280
     0
281
     1
  0
CLASS
  1
XRECORD
  2
AcDbXrecord
  3
"<Built In>"
 90
        0
280
     0
281
     0
  0
CLASS
  1
LONG_TRANSACTION
  2
AcDbLongTransaction
  3
AutoCAD 2000
 90
        0
280
     0
281
     0
  0
CLASS
  1
LWPOLYLINE
  2
AcDbPolyline
  3
"AutoCAD"
 90
        0
280
     0
281
     1
  0
CLASS
  1
HATCH
  2
AcDbHatch
  3
"ACAD_SEDONA"
 90
        0
280
     0
281
     1
  0
CLASS
  1
XRECORD
  2
AcDbXrecord
  3
"<Built In>"
 90
        0
280
     0
281
     0
  0
CLASS
  1
LONG_TRANSACTION
  2
AcDbLongTransaction
  3
AutoCAD 2000
 90
        0
280
     0
281
     0
  0
CLASS
  1
LWPOLYLINE
  2
AcDbPolyline
  3
"AutoCAD"
 90
        0
280
     0
281
     1
  0
CLASS
  1
HATCH
  2
AcDbHatch
  3
"ACAD_SEDONA"
 90
        0
280
     0
281
     1
  0
CLASS
  1
XRECORD
  2
AcDbXrecord
  3
"<Built In>"
 90
        0
280
     0
281
     0
  0
CLASS
  1
LONG_TRANSACTION
  2
AcDbLongTransaction
  3
AutoCAD 2000
 90
        0
280
     0
281
     0
  0
CLASS
  1
LWPOLYLINE
  2
AcDbPolyline
  3
"AutoCAD"
 90
        0
280
     0
281
     1
  0
CLASS
  1
HATCH
  2
AcDbHatch
  3
"ACAD_SEDONA"
 90
        0
280
     0
281
     1
  0
CLASS
  1
XRECORD
  2
AcDbXrecord
  3
"<Built In>"
 90
        0
280
     0
281
     0
  0
CLASS
  1
LONG_TRANSACTION
  2
AcDbLongTransaction
  3
AutoCAD 2000
 90
        0
280
     0
281
     0
  0
CLASS
  1
LWPOLYLINE
  2
AcDbPolyline
  3
"AutoCAD"
 90
        0
280
     0
281
     1
  0
CLASS
  1
HATCH
  2
AcDbHatch
  3
"ACAD_SEDONA"
 90
        0
280
     0
281
     1
  0
CLASS
  1
XRECORD
  2
AcDbXrecord
  3
"<Built In>"
 90
        0
280
     0
281
     0
  0
ENDSEC
  0
SECTION
  2
TABLES
  0
TABLE
  2
VPORT
  5
166
100
AcDbSymbolTable
 70
     1
  0
VPORT
  5
167
100
AcDbSymbolTableRecord
100
AcDbViewportTableRecord
  2
*ACTIVE
 70
     0
 10
0.0
 20
0.0
 11
1.0
 21
1.0
 12
0.1532749080147742
 22
11.34940630991782
 13
0.0
 23
0.0
 14
1.0
 24
1.0
 15
0.0
 25
0.0
 16
0.0
 26
0.0
 36
1.0
 17
6.985766645977506
 27
-3.347606881417268
 37
-2.456663054550069
 40
13.72150206830629
 41
1.379227053140096
 42
50.0
 43
0.0
 44
0.0
 50
0.0
 51
0.0
 71
     0
 72
   100
 73
     1
 74
     1
 75
     0
 76
     0
 77
     0
 78
     0
  0
ENDTAB
  0
TABLE
  2
LTYPE
  5
161
100
AcDbSymbolTable
 70
     1
  0
LTYPE
  5
162
100
AcDbSymbolTableRecord
100
AcDbLinetypeTableRecord
  2
BYBLOCK
 70
     0
  3

 72
    65
 73
     0
 40
0.0
  0
LTYPE
  5
163
100
AcDbSymbolTableRecord
100
AcDbLinetypeTableRecord
  2
BYLAYER
 70
     0
  3

 72
    65
 73
     0
 40
0.0
  0
LTYPE
  5
5
100
AcDbSymbolTableRecord
100
AcDbLinetypeTableRecord
  2
CONTINUOUS
 70
     0
  3
Solid line
 72
    65
 73
     0
 40
0.0
  0
ENDTAB
  0
TABLE
  2
LAYER
  5
15F
100
AcDbSymbolTable
 70
     4
  0
LAYER
  5
81
100
AcDbSymbolTableRecord
100
AcDbLayerTableRecord
  2
0
 70
     0
 62
     7
  6
CONTINUOUS
  0
LAYER
  5
8
102
{ACAD_XDICTIONARY
360
9
102
}
100
AcDbSymbolTableRecord
100
AcDbLayerTableRecord
  2
USP-GEO
 70
     0
 62
     7
  6
CONTINUOUS
  0
LAYER
  5
7C
102
{ACAD_XDICTIONARY
360
7D
102
}
100
AcDbSymbolTableRecord
100
AcDbLayerTableRecord
  2
USP-TXT
 70
     0
 62
     7
  6
CONTINUOUS
  0
LAYER
  5
4
100
AcDbSymbolTableRecord
100
AcDbLayerTableRecord
  2
USP
 70
     0
 62
     7
  6
CONTINUOUS
  0
ENDTAB
  0
TABLE
  2
STYLE
  5
160
100
AcDbSymbolTable
 70
     1
  0
STYLE
  5
7F
100
AcDbSymbolTableRecord
100
AcDbTextStyleTableRecord
  2
STANDARD
 70
     0
 40
0.0
 41
1.0
 50
0.0
 71
     0
 42
0.25
  3
txt
  4

  0
ENDTAB
  0
TABLE
  2
VIEW
  5
164
100
AcDbSymbolTable
 70
     0
  0
ENDTAB
  0
TABLE
  2
UCS
  5
165
100
AcDbSymbolTable
 70
     0
  0
ENDTAB
  0
TABLE
  2
APPID
  5
168
100
AcDbSymbolTable
 70
     1
  0
APPID
  5
1A
100
AcDbSymbolTableRecord
100
AcDbRegAppTableRecord
  2
ACAD
 70
     0
  0
ENDTAB
  0
TABLE
  2
DIMSTYLE
  5
169
100
AcDbSymbolTable
 70
     1
  0
DIMSTYLE
105
16F
102
{ACAD_XDICTIONARY
360
170
102
}
100
AcDbSymbolTableRecord
100
AcDbDimStyleTableRecord
  2
STANDARD
 70
     0
  3

  4

  5

  6

  7

 40
1.0
 41
0.125
 42
0.0625
 43
0.38
 44
0.09375
 45
0.0
 46
0.0
 47
0.0
 48
0.0
140
0.109375
141
0.0
142
0.0
143
25.4
144
1.0
145
0.0
146
1.0
147
0.09
 71
     0
 72
     0
 73
     1
 74
     1
 75
     0
 76
     0
 77
     0
 78
     8
170
     0
171
     2
172
     0
173
     0
174
     0
175
     0
176
     0
177
     0
178
     0
270
     7
271
     4
272
     4
273
     2
274
     2
340
7F
275
     0
280
     0
281
     0
282
     0
283
     1
284
     0
285
     0
286
     0
287
     3
288
     0
  0
ENDTAB
  0
TABLE
  2
BLOCK_RECORD
  5
1
100
AcDbSymbolTable
 70
     3
  0
BLOCK_RECORD
  5
2
102
{ACAD_XDICTIONARY
360
156
102
}
100
AcDbSymbolTableRecord
100
AcDbBlockTableRecord
  2
*MODEL_SPACE
  0
BLOCK_RECORD
  5
15A
102
{ACAD_XDICTIONARY
360
15B
102
}
100
AcDbSymbolTableRecord
100
AcDbBlockTableRecord
  2
*PAPER_SPACE
  0
BLOCK_RECORD
  5
6
100
AcDbSymbolTableRecord
100
AcDbBlockTableRecord
  2
TMP4PR_T
  0
BLOCK_RECORD
  5
84
100
AcDbSymbolTableRecord
100
AcDbBlockTableRecord
  2
TMP4PR_F
  0
BLOCK_RECORD
  5
10E
100
AcDbSymbolTableRecord
100
AcDbBlockTableRecord
  2
TMP4PR_S
  0
ENDTAB
  0
ENDSEC
  0
SECTION
  2
BLOCKS
  0
BLOCK
  5
158
100
AcDbEntity
  8
0
100
AcDbBlockBegin
  2
*MODEL_SPACE
 70
     0
 10
0.0
 20
0.0
 30
0.0
  3
*MODEL_SPACE
  1

  0
ENDBLK
  5
159
100
AcDbEntity
  8
0
100
AcDbBlockEnd
  0
BLOCK
  5
15D
100
AcDbEntity
 67
     1
  8
0
100
AcDbBlockBegin
  2
*PAPER_SPACE
 70
     0
 10
0.0
 20
0.0
 30
0.0
  3
*PAPER_SPACE
  1

  0
ENDBLK
  5
15E
100
AcDbEntity
 67
     1
  8
0
100
AcDbBlockEnd
  0
BLOCK
  5
80
100
AcDbEntity
  8
0
100
AcDbBlockBegin
  2
TMP4PR_T
 70
     0
 10
0.0
 20
0.0
 30
0.0
  3
TMP4PR_T
  1

  0
LWPOLYLINE
  5
7
100
AcDbEntity
  8
USP-GEO
100
AcDbPolyline
 90
        2
 70
   128
 43
0.0
 10
5.495952211206126
 20
2.78289794877112
 10
5.495952211206126
 20
3.258241872281978
  0
LWPOLYLINE
  5
B
100
AcDbEntity
  8
USP-GEO
100
AcDbPolyline
 90
        2
 70
   128
 43
0.0
 10
5.550199734573983
 20
3.258241872281978
 10
5.495952211206126
 20
3.258241872281978
  0
LWPOLYLINE
  5
C
100
AcDbEntity
  8
USP-GEO
100
AcDbPolyline
 90
        2
 70
   128
 43
0.0
 10
5.550199734573983
 20
3.258241872281978
 10
5.550199734573983
 20
2.78289794877112
  0
LWPOLYLINE
  5
D
100
AcDbEntity
  8
USP-GEO
100
AcDbPolyline
 90
        2
 70
   128
 43
0.0
 10
5.495952211206126
 20
2.78289794877112
 10
5.495952211206126
 20
1.507403055584356
  0
LWPOLYLINE
  5
E
100
AcDbEntity
  8
USP-GEO
100
AcDbPolyline
 90
        2
 70
   128
 43
0.0
 10
5.550199734573983
 20
2.78289794877112
 10
5.495952211206126
 20
2.78289794877112
  0
LWPOLYLINE
  5
F
100
AcDbEntity
  8
USP-GEO
100
AcDbPolyline
 90
        2
 70
   128
 43
0.0
 10
5.550199734573983
 20
2.78289794877112
 10
5.550199734573983
 20
1.507403055584356
  0
LWPOLYLINE
  5
10
100
AcDbEntity
  8
USP-GEO
100
AcDbPolyline
 90
        2
 70
   128
 43
0.0
 10
5.550199734573983
 20
1.507403055584356
 10
5.495952211206126
 20
1.507403055584356
  0
LWPOLYLINE
  5
11
100
AcDbEntity
  8
USP-GEO
100
AcDbPolyline
 90
        2
 70
   128
 43
0.0
 10
1.764400697539585
 20
3.258241872281978
 10
1.805086340065479
 20
3.258241872281978
  0
LWPOLYLINE
  5
12
100
AcDbEntity
  8
USP-GEO
100
AcDbPolyline
 90
        2
 70
   128
 43
0.0
 10
1.805086340065479
 20
2.78289794877112
 10
1.805086340065479
 20
3.258241872281978
  0
LWPOLYLINE
  5
13
100
AcDbEntity
  8
USP-GEO
100
AcDbPolyline
 90
        2
 70
   128
 43
0.0
 10
1.764400697539585
 20
3.258241872281978
 10
1.764400697539585
 20
2.78289794877112
  0
LWPOLYLINE
  5
14
100
AcDbEntity
  8
USP-GEO
100
AcDbPolyline
 90
        2
 70
   128
 43
0.0
 10
1.764400697539585
 20
2.78289794877112
 10
1.805086340065479
 20
2.78289794877112
  0
LWPOLYLINE
  5
15
100
AcDbEntity
  8
USP-GEO
100
AcDbPolyline
 90
        2
 70
   128
 43
0.0
 10
1.805086340065479
 20
2.78289794877112
 10
1.805086340065479
 20
1.507403055584356
  0
LWPOLYLINE
  5
16
100
AcDbEntity
  8
USP-GEO
100
AcDbPolyline
 90
        2
 70
   128
 43
0.0
 10
1.764400697539585
 20
2.78289794877112
 10
1.764400697539585
 20
1.507403055584356
  0
LWPOLYLINE
  5
17
100
AcDbEntity
  8
USP-GEO
100
AcDbPolyline
 90
        2
 70
   128
 43
0.0
 10
1.764400697539585
 20
1.507403055584356
 10
1.805086340065479
 20
1.507403055584356
  0
LWPOLYLINE
  5
18
100
AcDbEntity
  8
USP-GEO
100
AcDbPolyline
 90
        2
 70
   128
 43
0.0
 10
1.683029412487798
 20
1.507403055584356
 10
1.764400697539585
 20
1.507403055584356
  0
ELLIPSE
  5
19
100
AcDbEntity
  8
USP-GEO
  6
CONTINUOUS
100
AcDbEllipse
 10
1.730081245964258
 20
3.000253483460609
 30
0.0
 11
0.0148147412155075
 21
0.060718806336896
 31
0.0
210
0.0
220
0.0
230
1.0
 40
0.4531577022186965
 41
5.243505651542834
 42
8.164418844429864
1001
ACAD
1000
RTLwPs
1070
   128
  0
ELLIPSE
  5
1B
100
AcDbEntity
  8
USP-GEO
  6
CONTINUOUS
100
AcDbEllipse
 10
1.775114566961046
 20
2.989265408653567
 30
0.0
 11
0.0148147412155089
 21
0.0607188063368957
 31
0.0
210
0.0
220
0.0
230
1.0
 40
0.4531577022187294
 41
1.893293990714188
 42
7.090963810914034
1001
ACAD
1000
RTLwPs
1070
   128
  0
ELLIPSE
  5
1C
100
AcDbEntity
  8
USP-GEO
  6
CONTINUOUS
100
AcDbEllipse
 10
1.730091144830312
 20
1.850795358756402
 30
0.0
 11
0.0148147412155075
 21
0.060718806336896
 31
0.0
210
0.0
220
0.0
230
1.0
 40
0.4531577022186965
 41
1.956217981906874
 42
5.168769915641788
1001
ACAD
1000
RTLwPs
1070
   128
  0
ELLIPSE
  5
1D
100
AcDbEntity
  8
USP-GEO
  6
CONTINUOUS
100
AcDbEllipse
 10
1.775124465827101
 20
1.83980728394936
 30
0.0
 11
0.0148147412155089
 21
0.0607188063368957
 31
0.0
210
0.0
220
0.0
230
1.0
 40
0.4531577022187294
 41
1.959817583893122
 42
1.965207264283144
1001
ACAD
1000
RTLwPs
1070
   128
  0
LWPOLYLINE
  5
1E
100
AcDbEntity
  8
USP-GEO
100
AcDbPolyline
 90
        2
 70
   128
 43
0.0
 10
1.696591293329762
 20
1.832888195791506
 10
1.696591293329762
 20
2.987004255442688
  0
LWPOLYLINE
  5
1F
100
AcDbEntity
  8
USP-GEO
100
AcDbPolyline
 90
        2
 70
   128
 43
0.0
 10
1.737276935855656
 20
2.973442374600722
 10
1.737276935855656
 20
1.819326314949542
  0
LWPOLYLINE
  5
20
100
AcDbEntity
  8
USP-GEO
100
AcDbPolyline
 90
        2
 70
   128
 43
0.0
 10
1.669467531645834
 20
1.507403055584356
 10
1.683029412487798
 20
1.507403055584356
  0
LWPOLYLINE
  5
21
100
AcDbEntity
  8
USP-GEO
100
AcDbPolyline
 90
        2
 70
   128
 43
0.0
 10
1.764400697539585
 20
3.258241872281978
 10
1.683029412487798
 20
3.258241872281978
  0
LWPOLYLINE
  5
22
100
AcDbEntity
  8
USP-GEO
100
AcDbPolyline
 90
        2
 70
   128
 43
0.0
 10
1.683029412487798
 20
3.258241872281978
 10
1.669467531645834
 20
3.258241872281978
  0
LWPOLYLINE
  5
23
100
AcDbEntity
  8
USP-GEO
100
AcDbPolyline
 90
        2
 70
   128
 43
0.0
 10
5.550199734573983
 20
3.258241872281978
 10
5.631571019625771
 20
3.258241872281978
  0
LWPOLYLINE
  5
24
100
AcDbEntity
  8
USP-GEO
100
AcDbPolyline
 90
        2
 70
   128
 43
0.0
 10
5.631571019625771
 20
1.507403055584356
 10
5.550199734573983
 20
1.507403055584356
  0
ELLIPSE
  5
25
100
AcDbEntity
  8
USP-GEO
  6
CONTINUOUS
100
AcDbEllipse
 10
5.584075307508997
 20
3.000253483460612
 30
0.0
 11
-0.0148147412155076
 21
0.060718806336896
 31
0.0
210
0.0
220
0.0
230
1.0
 40
0.4531577022186961
 41
4.404710267240067
 42
7.317095228904694
1001
ACAD
1000
RTLwPs
1070
   128
  0
ELLIPSE
  5
26
100
AcDbEntity
  8
USP-GEO
  6
CONTINUOUS
100
AcDbEllipse
 10
5.539041986512208
 20
2.989265408653571
 30
0.0
 11
-0.014814741215509
 21
0.0607188063368956
 31
0.0
210
0.0
220
0.0
230
1.0
 40
0.4531577022187291
 41
4.269118350191931
 42
5.464928462778019
1001
ACAD
1000
RTLwPs
1070
   128
  0
ELLIPSE
  5
27
100
AcDbEntity
  8
USP-GEO
  6
CONTINUOUS
100
AcDbEllipse
 10
5.584065408642943
 20
1.850795358756405
 30
0.0
 11
-0.0148147412155076
 21
0.060718806336896
 31
0.0
210
0.0
220
0.0
230
1.0
 40
0.4531577022186961
 41
1.109620620303592
 42
4.330776890023101
1001
ACAD
1000
RTLwPs
1070
   128
  0
ELLIPSE
  5
28
100
AcDbEntity
  8
USP-GEO
  6
CONTINUOUS
100
AcDbEllipse
 10
5.539032087646154
 20
1.839807283949363
 30
0.0
 11
-0.014814741215509
 21
0.0607188063368956
 31
0.0
210
0.0
220
0.0
230
1.0
 40
0.4531577022187291
 41
4.165440218624694
 42
4.177607342664896
1001
ACAD
1000
RTLwPs
1070
   128
  0
LWPOLYLINE
  5
29
100
AcDbEntity
  8
USP-GEO
100
AcDbPolyline
 90
        2
 70
   128
 43
0.0
 10
5.618009138783807
 20
1.832888195791506
 10
5.618009138783807
 20
2.987004255442688
  0
LWPOLYLINE
  5
2A
100
AcDbEntity
  8
USP-GEO
100
AcDbPolyline
 90
        2
 70
   128
 43
0.0
 10
5.563761615415949
 20
2.973442374600722
 10
5.563761615415949
 20
1.819326314949542
  0
LWPOLYLINE
  5
2B
100
AcDbEntity
  8
USP-GEO
100
AcDbPolyline
 90
        2
 70
   128
 43
0.0
 10
5.631571019625771
 20
3.258241872281978
 10
5.63224911366787
 20
3.258241872281978
  0
LWPOLYLINE
  5
2C
100
AcDbEntity
  8
USP-GEO
100
AcDbPolyline
 90
        2
 70
   128
 43
0.0
 10
5.631571019625771
 20
1.507403055584356
 10
5.63224911366787
 20
1.507403055584356
  0
ARC
  5
2D
100
AcDbEntity
  8
USP-GEO
100
AcDbCircle
 10
1.942269537472948
 20
0.4417758970601629
 30
0.0
 40
0.1875000000000067
100
AcDbArc
 50
23.02247655985128
 51
55.50685445637652
  0
ARC
  5
2E
100
AcDbEntity
  8
USP-GEO
100
AcDbCircle
 10
1.942269537472948
 20
0.4417758970601629
 30
0.0
 40
0.1875000000000067
100
AcDbArc
 50
73.91868962941083
 51
110.7874142617105
  0
ARC
  5
2F
100
AcDbEntity
  8
USP-GEO
100
AcDbCircle
 10
1.942269537472948
 20
0.4417758970601629
 30
0.0
 40
0.1875000000000067
100
AcDbArc
 50
128.4620157500286
 51
133.9988484712085
  0
LWPOLYLINE
  5
30
100
AcDbEntity
  8
USP-GEO
100
AcDbPolyline
 90
        2
 70
   128
 43
0.0
 10
1.493163080700294
 20
0.2583538300394235
 10
1.805086340065479
 20
0.583838970246573
  0
LWPOLYLINE
  5
31
100
AcDbEntity
  8
USP-GEO
100
AcDbPolyline
 90
        2
 70
   128
 43
0.0
 10
1.493163080700294
 20
0.2583538300394235
 10
1.493163080700294
 20
0.2041063066715658
  0
LWPOLYLINE
  5
32
100
AcDbEntity
  8
USP-GEO
100
AcDbPolyline
 90
        2
 70
   128
 43
0.0
 10
0.0
 20
0.2041063066715658
 10
1.493163080700294
 20
0.2041063066715658
  0
LWPOLYLINE
  5
33
100
AcDbEntity
  8
USP-GEO
100
AcDbPolyline
 90
        2
 70
   128
 43
0.0
 10
0.0
 20
1.33042051059672
 10
0.0
 20
0.2041063066715658
  0
LWPOLYLINE
  5
34
100
AcDbEntity
  8
USP-GEO
100
AcDbPolyline
 90
        2
 70
   128
 43
0.0
 10
1.60165812743601
 20
1.33042051059672
 10
0.0
 20
1.33042051059672
  0
LWPOLYLINE
  5
35
100
AcDbEntity
  8
USP-GEO
100
AcDbPolyline
 90
        2
 70
   128
 43
0.0
 10
1.818648220907443
 20
1.507403055584356
 10
1.805086340065479
 20
1.507403055584356
  0
LWPOLYLINE
  5
36
100
AcDbEntity
  8
USP-GEO
100
AcDbPolyline
 90
        2
 70
   128
 43
0.0
 10
1.805086340065479
 20
3.258241872281978
 10
5.495952211206126
 20
3.258241872281978
  0
LWPOLYLINE
  5
37
100
AcDbEntity
  8
USP-GEO
100
AcDbPolyline
 90
        2
 70
   128
 43
0.0
 10
5.495952211206126
 20
1.507403055584356
 10
5.496630305248223
 20
1.507403055584356
  0
LWPOLYLINE
  5
38
100
AcDbEntity
  8
USP-GEO
100
AcDbPolyline
 90
        2
 70
   128
 43
0.0
 10
5.712942304677558
 20
1.33042051059672
 10
7.314600432113569
 20
1.33042051059672
  0
LWPOLYLINE
  5
39
100
AcDbEntity
  8
USP-GEO
100
AcDbPolyline
 90
        2
 70
   128
 43
0.0
 10
7.314600432113569
 20
0.2041063066715658
 10
7.314600432113569
 20
1.33042051059672
  0
LWPOLYLINE
  5
3A
100
AcDbEntity
  8
USP-GEO
100
AcDbPolyline
 90
        2
 70
   128
 43
0.0
 10
7.314600432113569
 20
0.2041063066715658
 10
5.821437351413275
 20
0.2041063066715658
  0
LWPOLYLINE
  5
3B
100
AcDbEntity
  8
USP-GEO
100
AcDbPolyline
 90
        2
 70
   128
 43
0.0
 10
5.821437351413275
 20
0.2041063066715658
 10
5.821437351413275
 20
0.2583538300394235
  0
LWPOLYLINE
  5
3C
100
AcDbEntity
  8
USP-GEO
100
AcDbPolyline
 90
        2
 70
   128
 43
0.0
 10
5.821437351413275
 20
0.2583538300394235
 10
5.50951409204809
 20
0.583838970246573
  0
ARC
  5
3D
100
AcDbEntity
  8
USP-GEO
100
AcDbCircle
 10
5.372287016000337
 20
0.4417758970601629
 30
0.0
 40
0.1875000000000067
100
AcDbArc
 50
45.99199538512183
 51
51.52808087130096
  0
ARC
  5
3E
100
AcDbEntity
  8
USP-GEO
100
AcDbCircle
 10
5.372287016000337
 20
0.4417758970601629
 30
0.0
 40
0.1875000000000067
100
AcDbArc
 50
69.20056252437365
 51
106.0686081959261
  0
ARC
  5
3F
100
AcDbEntity
  8
USP-GEO
100
AcDbCircle
 10
5.372287016000337
 20
0.4417758970601629
 30
0.0
 40
0.1875000000000067
100
AcDbArc
 50
127.7387073492159
 51
156.9723436928192
  0
CIRCLE
  5
40
100
AcDbEntity
  8
USP-GEO
100
AcDbCircle
 10
6.20107827673659
 20
0.7596671577964412
 30
0.0
 40
0.078
  0
CIRCLE
  5
41
100
AcDbEntity
  8
USP-GEO
100
AcDbCircle
 10
6.670449683084579
 20
0.5996518531376421
 30
0.0
 40
0.156
  0
CIRCLE
  5
42
100
AcDbEntity
  8
USP-GEO
100
AcDbCircle
 10
7.016634895174971
 20
0.9996671577964502
 30
0.0
 40
0.078
  0
CIRCLE
  5
43
100
AcDbEntity
  8
USP-GEO
100
AcDbCircle
 10
3.657278276736637
 20
2.958067157796401
 30
0.0
 40
0.078
  0
CIRCLE
  5
44
100
AcDbEntity
  8
USP-GEO
100
AcDbCircle
 10
0.2979216582982991
 20
0.9996671577964715
 30
0.0
 40
0.078
  0
CIRCLE
  5
45
100
AcDbEntity
  8
USP-GEO
100
AcDbCircle
 10
0.6441068703887032
 20
0.599651853137635
 30
0.0
 40
0.156
  0
CIRCLE
  5
46
100
AcDbEntity
  8
USP-GEO
100
AcDbCircle
 10
1.113478276736691
 20
0.7596671577964376
 30
0.0
 40
0.078
  0
LWPOLYLINE
  5
47
100
AcDbEntity
  8
USP-GEO
100
AcDbPolyline
 90
        2
 70
   128
 43
0.0
 10
1.818648220907443
 20
0.6787721361403243
 10
1.818648220907443
 20
0.0
  0
LWPOLYLINE
  5
48
100
AcDbEntity
  8
USP-GEO
100
AcDbPolyline
 90
        2
 70
   128
 43
0.0
 10
1.872895744275301
 20
0.0
 10
1.818648220907443
 20
0.0
  0
LWPOLYLINE
  5
49
100
AcDbEntity
  8
USP-GEO
100
AcDbPolyline
 90
        2
 70
   128
 43
0.0
 10
5.495952211206126
 20
2.348917761828255
 10
1.818648220907443
 20
2.348917761828255
  0
LWPOLYLINE
  5
4A
100
AcDbEntity
  8
USP-GEO
100
AcDbPolyline
 90
        2
 70
   128
 43
0.0
 10
1.872895744275301
 20
0.6787721361403243
 10
1.818648220907443
 20
0.6787721361403243
  0
LWPOLYLINE
  5
4B
100
AcDbEntity
  8
USP-GEO
100
AcDbPolyline
 90
        2
 70
   128
 43
0.0
 10
1.818648220907443
 20
0.6787721361403243
 10
1.818648220907443
 20
2.348917761828255
  0
LWPOLYLINE
  5
4C
100
AcDbEntity
  8
USP-GEO
100
AcDbPolyline
 90
        2
 70
   128
 43
0.0
 10
1.872895744275301
 20
0.6787721361403243
 10
1.872895744275301
 20
0.0
  0
LWPOLYLINE
  5
4D
100
AcDbEntity
  8
USP-GEO
100
AcDbPolyline
 90
        2
 70
   128
 43
0.0
 10
1.872895744275301
 20
2.308232119302362
 10
1.872895744275301
 20
0.6787721361403243
  0
LWPOLYLINE
  5
4E
100
AcDbEntity
  8
USP-GEO
100
AcDbPolyline
 90
        2
 70
   128
 43
0.0
 10
5.495952211206126
 20
2.348917761828255
 10
5.495952211206126
 20
0.6787721361403243
  0
LWPOLYLINE
  5
4F
100
AcDbEntity
  8
USP-GEO
100
AcDbPolyline
 90
        2
 70
   128
 43
0.0
 10
5.441704687838268
 20
0.6787721361403243
 10
5.495952211206126
 20
0.6787721361403243
  0
LWPOLYLINE
  5
50
100
AcDbEntity
  8
USP-GEO
100
AcDbPolyline
 90
        2
 70
   128
 43
0.0
 10
5.495952211206126
 20
0.6787721361403243
 10
5.495952211206126
 20
0.0
  0
LWPOLYLINE
  5
51
100
AcDbEntity
  8
USP-GEO
100
AcDbPolyline
 90
        2
 70
   128
 43
0.0
 10
5.441704687838268
 20
0.0
 10
5.495952211206126
 20
0.0
  0
LWPOLYLINE
  5
52
100
AcDbEntity
  8
USP-GEO
100
AcDbPolyline
 90
        2
 70
   128
 43
0.0
 10
5.441704687838268
 20
0.6787721361403243
 10
5.441704687838268
 20
2.308232119302362
  0
LWPOLYLINE
  5
53
100
AcDbEntity
  8
USP-GEO
100
AcDbPolyline
 90
        2
 70
   128
 43
0.0
 10
5.441704687838268
 20
0.0
 10
5.441704687838268
 20
0.6787721361403243
  0
LWPOLYLINE
  5
54
100
AcDbEntity
  8
USP-GEO
100
AcDbPolyline
 90
        2
 70
   128
 43
0.0
 10
5.441704687838268
 20
2.308232119302362
 10
1.872895744275301
 20
2.308232119302362
  0
LWPOLYLINE
  5
55
100
AcDbEntity
  8
USP-GEO
100
AcDbPolyline
 90
        2
 70
   128
 43
0.0
 10
5.197590832682906
 20
0.4617820426688919
 10
5.197590832682906
 20
0.4889058043528199
  0
LWPOLYLINE
  5
56
100
AcDbEntity
  8
USP-GEO
100
AcDbPolyline
 90
        2
 70
   128
 43
0.0
 10
4.328952364755077
 20
0.4617820426688919
 10
5.197590832682906
 20
0.4617820426688919
  0
LWPOLYLINE
  5
57
100
AcDbEntity
  8
USP-GEO
100
AcDbPolyline
 90
        2
 70
   128
 43
0.0
 10
4.328952364755077
 20
0.4889058043528199
 10
4.328952364755077
 20
0.4617820426688919
  0
LWPOLYLINE
  5
58
100
AcDbEntity
  8
USP-GEO
100
AcDbPolyline
 90
        2
 70
   128
 43
0.0
 10
4.166209794651503
 20
0.4617820426688919
 10
4.166209794651503
 20
0.4889058043528199
  0
LWPOLYLINE
  5
59
100
AcDbEntity
  8
USP-GEO
100
AcDbPolyline
 90
        2
 70
   128
 43
0.0
 10
3.134828756620101
 20
0.4617820426688919
 10
4.166209794651503
 20
0.4617820426688919
  0
LWPOLYLINE
  5
5A
100
AcDbEntity
  8
USP-GEO
100
AcDbPolyline
 90
        2
 70
   128
 43
0.0
 10
3.134828756620101
 20
0.4889058043528199
 10
3.134828756620101
 20
0.4617820426688919
  0
LWPOLYLINE
  5
5B
100
AcDbEntity
  8
USP-GEO
100
AcDbPolyline
 90
        2
 70
   128
 43
0.0
 10
2.985648067358491
 20
0.4617820426688919
 10
2.985648067358491
 20
0.4889058043528199
  0
LWPOLYLINE
  5
5C
100
AcDbEntity
  8
USP-GEO
100
AcDbPolyline
 90
        2
 70
   128
 43
0.0
 10
2.117009599430663
 20
0.4617820426688919
 10
2.985648067358491
 20
0.4617820426688919
  0
LWPOLYLINE
  5
5D
100
AcDbEntity
  8
USP-GEO
100
AcDbPolyline
 90
        2
 70
   128
 43
0.0
 10
2.117009599430663
 20
0.4889058043528199
 10
2.117009599430663
 20
0.4617820426688919
  0
ELLIPSE
  5
5E
100
AcDbEntity
  8
USP-GEO
  6
CONTINUOUS
100
AcDbEllipse
 10
3.063258276736612
 20
0.4820671577964131
 30
0.0
 11
-0.078
 21
-0.0000000000000001
 31
0.0
210
0.0
220
0.0
230
1.0
 40
0.5000000000000015
 41
3.328687429042019
 42
6.10874586614319
1001
ACAD
1000
RTLwPs
1070
   128
  0
ELLIPSE
  5
5F
100
AcDbEntity
  8
USP-GEO
  6
CONTINUOUS
100
AcDbEllipse
 10
4.25091827673661
 20
0.4820671577964131
 30
0.0
 11
-0.078
 21
-0.0000000000000001
 31
0.0
210
0.0
220
0.0
230
1.0
 40
0.5000000000000015
 41
3.313638173923891
 42
6.123103803459556
1001
ACAD
1000
RTLwPs
1070
   128
  0
ELLIPSE
  5
60
100
AcDbEntity
  8
USP-GEO
  6
CONTINUOUS
100
AcDbEllipse
 10
5.372287016000339
 20
0.5602461091613318
 30
0.0
 11
-0.1875000000000065
 21
-0.0000000000000002
 31
0.0
210
0.0
220
0.0
230
1.0
 40
0.5000000000000015
 41
0.3375193598361225
 42
6.462816791997355
1001
ACAD
1000
RTLwPs
1070
   128
  0
LWPOLYLINE
  5
61
100
AcDbEntity
  8
USP-GEO
100
AcDbPolyline
 90
        2
 70
   128
 43
0.0
 10
5.197590832682906
 20
0.4889058043528199
 10
5.197590832682906
 20
0.5295914468787136
  0
ELLIPSE
  5
62
100
AcDbEntity
  8
USP-GEO
  6
CONTINUOUS
100
AcDbEllipse
 10
5.372287016000339
 20
0.5152127881645417
 30
0.0
 11
-0.1875000000000065
 21
-0.0000000000000002
 31
0.0
210
0.0
220
0.0
230
1.0
 40
0.5000000000000015
 41
5.485836858686108
 42
6.57571891889092
1001
ACAD
1000
RTLwPs
1070
   128
  0
LWPOLYLINE
  5
63
100
AcDbEntity
  8
USP-GEO
100
AcDbPolyline
 90
        2
 70
   128
 43
0.0
 10
5.2382764752088
 20
0.583838970246573
 10
5.441704687838268
 20
0.6787721361403243
  0
LWPOLYLINE
  5
64
100
AcDbEntity
  8
USP-GEO
100
AcDbPolyline
 90
        2
 70
   128
 43
0.0
 10
1.872895744275301
 20
0.6787721361403243
 10
2.07632395690477
 20
0.583838970246573
  0
LWPOLYLINE
  5
65
100
AcDbEntity
  8
USP-GEO
100
AcDbPolyline
 90
        2
 70
   128
 43
0.0
 10
2.117009599430663
 20
0.4889058043528199
 10
2.117009599430663
 20
0.5295914468787136
  0
ELLIPSE
  5
66
100
AcDbEntity
  8
USP-GEO
  6
CONTINUOUS
100
AcDbEllipse
 10
1.94226953747295
 20
0.5602461091613283
 30
0.0
 11
-0.1875000000000065
 21
-0.0000000000000002
 31
0.0
210
0.0
220
0.0
230
1.0
 40
0.5000000000000015
 41
2.948396107360971
 42
9.087337065269609
1001
ACAD
1000
RTLwPs
1070
   128
  0
ELLIPSE
  5
67
100
AcDbEntity
  8
USP-GEO
  6
CONTINUOUS
100
AcDbEllipse
 10
1.94226953747295
 20
0.5152127881645381
 30
0.0
 11
-0.1875000000000065
 21
-0.0000000000000002
 31
0.0
210
0.0
220
0.0
230
1.0
 40
0.5000000000000015
 41
2.849128381224372
 42
3.938777461600445
1001
ACAD
1000
RTLwPs
1070
   128
  0
ELLIPSE
  5
68
100
AcDbEntity
  8
USP-GEO
  6
CONTINUOUS
100
AcDbEllipse
 10
5.606280650938329
 20
1.043351011289127
 30
0.0
 11
0.0510629863152223
 21
0.0589624577894397
 31
0.0
210
0.0
220
0.0
230
1.0
 40
0.3535533905932746
 41
5.320291314109111
 42
10.57279040917994
1001
ACAD
1000
RTLwPs
1070
   128
  0
ELLIPSE
  5
69
100
AcDbEntity
  8
USP-GEO
  6
CONTINUOUS
100
AcDbEllipse
 10
5.644629028068234
 20
1.010140342500724
 30
0.0
 11
0.0510629863152223
 21
0.0589624577894397
 31
0.0
210
0.0
220
0.0
230
1.0
 40
0.3535533905932746
 41
4.080841586129051
 42
9.751867261270783
1001
ACAD
1000
RTLwPs
1070
   128
  0
ELLIPSE
  5
6A
100
AcDbEntity
  8
USP-GEO
  6
CONTINUOUS
100
AcDbEllipse
 10
5.644629028068234
 20
1.010140342500724
 30
0.0
 11
0.0510629863152223
 21
0.0589624577894397
 31
0.0
210
0.0
220
0.0
230
1.0
 40
0.3535533905932746
 41
4.915520167128537
 42
10.34706404224518
1001
ACAD
1000
RTLwPs
1070
   128
  0
ELLIPSE
  5
6B
100
AcDbEntity
  8
USP-GEO
  6
CONTINUOUS
100
AcDbEllipse
 10
5.644629028068234
 20
1.010140342500724
 30
0.0
 11
0.0510629863152223
 21
0.0589624577894397
 31
0.0
210
0.0
220
0.0
230
1.0
 40
0.3535533905932746
 41
0.6993941479399249
 42
3.488811499228203
1001
ACAD
1000
RTLwPs
1070
   128
  0
ELLIPSE
  5
6C
100
AcDbEntity
  8
USP-GEO
  6
CONTINUOUS
100
AcDbEllipse
 10
5.644629028068234
 20
1.010140342500724
 30
0.0
 11
0.0510629863152223
 21
0.0589624577894397
 31
0.0
210
0.0
220
0.0
230
1.0
 40
0.3535533905932746
 41
0.7154941814155114
 42
6.622807666126063
1001
ACAD
1000
RTLwPs
1070
   128
  0
ELLIPSE
  5
6D
100
AcDbEntity
  8
USP-GEO
  6
CONTINUOUS
100
AcDbEllipse
 10
5.644629028068234
 20
1.010140342500724
 30
0.0
 11
0.0510629863152223
 21
0.0589624577894397
 31
0.0
210
0.0
220
0.0
230
1.0
 40
0.3535533905932746
 41
0.3587173540965195
 42
6.269448566086806
1001
ACAD
1000
RTLwPs
1070
   128
  0
ELLIPSE
  5
6E
100
AcDbEntity
  8
USP-GEO
  6
CONTINUOUS
100
AcDbEllipse
 10
5.644629028068234
 20
1.010140342500724
 30
0.0
 11
0.0510629863152223
 21
0.0589624577894397
 31
0.0
210
0.0
220
0.0
230
1.0
 40
0.3535533905932746
 41
4.917506014135579
 42
6.25219056138914
1001
ACAD
1000
RTLwPs
1070
   128
  0
ELLIPSE
  5
6F
100
AcDbEntity
  8
USP-GEO
  6
CONTINUOUS
100
AcDbEllipse
 10
1.707875902534857
 20
1.043697421450714
 30
0.0
 11
-0.0510629863152224
 21
0.0589624577894396
 31
0.0
210
0.0
220
0.0
230
1.0
 40
0.3535533905932744
 41
0.9671728060594755
 42
2.002134587746567
1001
ACAD
1000
RTLwPs
1070
   128
  0
ELLIPSE
  5
70
100
AcDbEntity
  8
USP-GEO
  6
CONTINUOUS
100
AcDbEllipse
 10
1.669527525404952
 20
1.010486752662311
 30
0.0
 11
-0.0510629863152224
 21
0.0589624577894396
 31
0.0
210
0.0
220
0.0
230
1.0
 40
0.3535533905932744
 41
0.0
 42
6.283185307179586
1001
ACAD
1000
RTLwPs
1070
   128
  0
ELLIPSE
  5
71
100
AcDbEntity
  8
USP-GEO
  6
CONTINUOUS
100
AcDbEllipse
 10
1.669527525404952
 20
1.010486752662311
 30
0.0
 11
-0.0510629863152224
 21
0.0589624577894396
 31
0.0
210
0.0
220
0.0
230
1.0
 40
0.3535533905932744
 41
0.0101055329699673
 42
5.560813297587661
1001
ACAD
1000
RTLwPs
1070
   128
  0
ELLIPSE
  5
72
100
AcDbEntity
  8
USP-GEO
  6
CONTINUOUS
100
AcDbEllipse
 10
1.669527525404952
 20
1.010486752662311
 30
0.0
 11
-0.0510629863152224
 21
0.0589624577894396
 31
0.0
210
0.0
220
0.0
230
1.0
 40
0.3535533905932744
 41
0.0101055329699673
 42
1.376771638862483
1001
ACAD
1000
RTLwPs
1070
   128
  0
ELLIPSE
  5
73
100
AcDbEntity
  8
USP-GEO
  6
CONTINUOUS
100
AcDbEllipse
 10
1.669527525404952
 20
1.010486752662311
 30
0.0
 11
-0.0510629863152224
 21
0.0589624577894396
 31
0.0
210
0.0
220
0.0
230
1.0
 40
0.3535533905932744
 41
1.374534064260786
 42
2.820699537053259
1001
ACAD
1000
RTLwPs
1070
   128
  0
ELLIPSE
  5
74
100
AcDbEntity
  8
USP-GEO
  6
CONTINUOUS
100
AcDbEllipse
 10
1.669527525404952
 20
1.010486752662311
 30
0.0
 11
-0.0510629863152224
 21
0.0589624577894396
 31
0.0
210
0.0
220
0.0
230
1.0
 40
0.3535533905932744
 41
0.0
 42
6.283185307179586
1001
ACAD
1000
RTLwPs
1070
   128
  0
ELLIPSE
  5
75
100
AcDbEntity
  8
USP-GEO
  6
CONTINUOUS
100
AcDbEllipse
 10
1.669527525404952
 20
1.010486752662311
 30
0.0
 11
-0.0510629863152224
 21
0.0589624577894396
 31
0.0
210
0.0
220
0.0
230
1.0
 40
0.3535533905932744
 41
3.547214993552772
 42
9.103884844232844
1001
ACAD
1000
RTLwPs
1070
   128
  0
ELLIPSE
  5
76
100
AcDbEntity
  8
USP-GEO
  6
CONTINUOUS
100
AcDbEllipse
 10
1.669527525404952
 20
1.010486752662311
 30
0.0
 11
-0.0510629863152224
 21
0.0589624577894396
 31
0.0
210
0.0
220
0.0
230
1.0
 40
0.3535533905932744
 41
3.562119072536617
 42
5.544952403946824
1001
ACAD
1000
RTLwPs
1070
   128
  0
ARC
  5
77
100
AcDbEntity
  8
USP-GEO
100
AcDbCircle
 10
1.875828276736593
 20
1.189148444135328
 30
0.0
 40
0.3020000000000001
100
AcDbArc
 50
100.651933761373
 51
258.9465630028527
  0
ARC
  5
78
100
AcDbEntity
  8
USP-GEO
100
AcDbCircle
 10
5.438328276736595
 20
1.188802033973741
 30
0.0
 40
0.3020000000000001
100
AcDbArc
 50
281.1499712759473
 51
79.27922304280309
  0
LWPOLYLINE
  5
79
100
AcDbEntity
  8
USP-GEO
100
AcDbPolyline
 90
        2
 70
   128
 43
0.0
 10
5.631571019625771
 20
1.507403055584356
 10
5.631571019625771
 20
3.258241872281978
  0
LWPOLYLINE
  5
7A
100
AcDbEntity
  8
USP-GEO
100
AcDbPolyline
 90
        2
 70
   128
 43
0.0
 10
1.669467531645834
 20
3.258241872281978
 10
1.669467531645834
 20
1.507403055584356
  0
TEXT
  5
7B
100
AcDbEntity
  8
USP-TXT
100
AcDbText
 10
1.782300216056784
 20
-0.7998688121204581
 30
0.0
 40
0.25
  1
TMP4 - TOP VIEW
 72
     1
 11
3.657300216056785
 21
-0.7998688121204581
 31
0.0
100
AcDbText
  0
ENDBLK
  5
82
100
AcDbEntity
  8
0
100
AcDbBlockEnd
  0
BLOCK
  5
10B
100
AcDbEntity
  8
0
100
AcDbBlockBegin
  2
TMP4PR_F
 70
     0
 10
0.0
 20
0.0
 30
0.0
  3
TMP4PR_F
  1

  0
LWPOLYLINE
  5
85
100
AcDbEntity
  8
USP-GEO
100
AcDbPolyline
 90
        2
 70
   128
 43
0.0
 10
5.495952211206126
 20
2.999888042242552
 10
5.496630305248223
 20
2.999888042242552
  0
LWPOLYLINE
  5
86
100
AcDbEntity
  8
USP-GEO
100
AcDbPolyline
 90
        2
 70
   128
 43
0.0
 10
5.550199734573983
 20
2.999888042242552
 10
5.550877828616083
 20
2.999888042242552
  0
LWPOLYLINE
  5
87
100
AcDbEntity
  8
USP-GEO
100
AcDbPolyline
 90
        2
 70
   128
 43
0.0
 10
5.550199734573983
 20
2.999888042242552
 10
5.495952211206126
 20
2.999888042242552
  0
LWPOLYLINE
  5
88
100
AcDbEntity
  8
USP-GEO
100
AcDbPolyline
 90
        2
 70
   128
 43
0.0
 10
5.495952211206126
 20
2.999888042242552
 10
5.495952211206126
 20
3.067697446452376
  0
LWPOLYLINE
  5
89
100
AcDbEntity
  8
USP-GEO
100
AcDbPolyline
 90
        2
 70
   128
 43
0.0
 10
5.550199734573983
 20
3.067697446452376
 10
5.495952211206126
 20
3.067697446452376
  0
LWPOLYLINE
  5
8A
100
AcDbEntity
  8
USP-GEO
100
AcDbPolyline
 90
        2
 70
   128
 43
0.0
 10
5.550199734573983
 20
3.067697446452376
 10
5.550199734573983
 20
2.999888042242552
  0
LWPOLYLINE
  5
8B
100
AcDbEntity
  8
USP-GEO
100
AcDbPolyline
 90
        2
 70
   128
 43
0.0
 10
1.805086340065479
 20
2.999888042242552
 10
1.805764434107577
 20
2.999888042242552
  0
LWPOLYLINE
  5
8C
100
AcDbEntity
  8
USP-GEO
100
AcDbPolyline
 90
        2
 70
   128
 43
0.0
 10
1.764400697539585
 20
2.999888042242552
 10
1.765078791581683
 20
2.999888042242552
  0
LWPOLYLINE
  5
8D
100
AcDbEntity
  8
USP-GEO
100
AcDbPolyline
 90
        2
 70
   128
 43
0.0
 10
1.764400697539585
 20
3.067697446452376
 10
1.805086340065479
 20
3.067697446452376
  0
LWPOLYLINE
  5
8E
100
AcDbEntity
  8
USP-GEO
100
AcDbPolyline
 90
        2
 70
   128
 43
0.0
 10
1.805086340065479
 20
2.999888042242552
 10
1.805086340065479
 20
3.067697446452376
  0
LWPOLYLINE
  5
8F
100
AcDbEntity
  8
USP-GEO
100
AcDbPolyline
 90
        2
 70
   128
 43
0.0
 10
1.764400697539585
 20
2.999888042242552
 10
1.805086340065479
 20
2.999888042242552
  0
LWPOLYLINE
  5
90
100
AcDbEntity
  8
USP-GEO
100
AcDbPolyline
 90
        2
 70
   128
 43
0.0
 10
1.764400697539585
 20
3.067697446452376
 10
1.764400697539585
 20
2.999888042242552
  0
LWPOLYLINE
  5
91
100
AcDbEntity
  8
USP-GEO
100
AcDbPolyline
 90
        2
 70
   128
 43
0.0
 10
1.493163080700294
 20
0.8550765870858629
 10
1.493163080700294
 20
0.8008290637180053
  0
LWPOLYLINE
  5
92
100
AcDbEntity
  8
USP-GEO
100
AcDbPolyline
 90
        2
 70
   128
 43
0.0
 10
0.6923340169822892
 20
0.0
 10
1.493163080700294
 20
0.8008290637180053
  0
LWPOLYLINE
  5
93
100
AcDbEntity
  8
USP-GEO
100
AcDbPolyline
 90
        2
 70
   128
 43
0.0
 10
0.0
 20
0.0
 10
0.6923340169822892
 20
0.0
  0
LWPOLYLINE
  5
94
100
AcDbEntity
  8
USP-GEO
100
AcDbPolyline
 90
        2
 70
   128
 43
0.0
 10
0.0
 20
0.8550765870858629
 10
0.0
 20
0.0
  0
CIRCLE
  5
95
100
AcDbEntity
  8
USP-GEO
100
AcDbCircle
 10
0.466382030225569
 20
0.3106607507697099
 30
0.0
 40
0.078
  0
LWPOLYLINE
  5
96
100
AcDbEntity
  8
USP-GEO
100
AcDbPolyline
 90
        2
 70
   128
 43
0.0
 10
5.550199734573983
 20
2.715088544561298
 10
5.550199734573983
 20
0.8550765870858629
  0
LWPOLYLINE
  5
97
100
AcDbEntity
  8
USP-GEO
100
AcDbPolyline
 90
        2
 70
   128
 43
0.0
 10
7.314600432113569
 20
0.0
 10
7.314600432113569
 20
0.8550765870858629
  0
LWPOLYLINE
  5
98
100
AcDbEntity
  8
USP-GEO
100
AcDbPolyline
 90
        2
 70
   128
 43
0.0
 10
5.821437351413275
 20
0.8008290637180053
 10
5.821437351413275
 20
0.8550765870858629
  0
LWPOLYLINE
  5
99
100
AcDbEntity
  8
USP-GEO
100
AcDbPolyline
 90
        2
 70
   128
 43
0.0
 10
5.197590832682906
 20
0.8008290637180053
 10
5.197590832682906
 20
0.8550765870858629
  0
LWPOLYLINE
  5
9A
100
AcDbEntity
  8
USP-GEO
100
AcDbPolyline
 90
        2
 70
   128
 43
0.0
 10
4.328952364755077
 20
0.8008290637180053
 10
4.328952364755077
 20
0.8550765870858629
  0
LWPOLYLINE
  5
9B
100
AcDbEntity
  8
USP-GEO
100
AcDbPolyline
 90
        2
 70
   128
 43
0.0
 10
4.166209794651503
 20
0.8008290637180053
 10
4.166209794651503
 20
0.8550765870858629
  0
LWPOLYLINE
  5
9C
100
AcDbEntity
  8
USP-GEO
100
AcDbPolyline
 90
        2
 70
   128
 43
0.0
 10
3.134828756620101
 20
0.8008290637180053
 10
3.134828756620101
 20
0.8550765870858629
  0
LWPOLYLINE
  5
9D
100
AcDbEntity
  8
USP-GEO
100
AcDbPolyline
 90
        2
 70
   128
 43
0.0
 10
2.985648067358491
 20
0.8008290637180053
 10
2.985648067358491
 20
0.8550765870858629
  0
LWPOLYLINE
  5
9E
100
AcDbEntity
  8
USP-GEO
100
AcDbPolyline
 90
        2
 70
   128
 43
0.0
 10
2.117009599430663
 20
0.8008290637180053
 10
2.117009599430663
 20
0.8550765870858629
  0
LWPOLYLINE
  5
9F
100
AcDbEntity
  8
USP-GEO
100
AcDbPolyline
 90
        2
 70
   128
 43
0.0
 10
1.764400697539585
 20
2.715088544561298
 10
1.764400697539585
 20
0.8550765870858629
  0
LWPOLYLINE
  5
A0
100
AcDbEntity
  8
USP-GEO
100
AcDbPolyline
 90
        2
 70
   128
 43
0.0
 10
7.314600432113569
 20
0.0
 10
6.622266415131281
 20
0.0
  0
LWPOLYLINE
  5
A1
100
AcDbEntity
  8
USP-GEO
100
AcDbPolyline
 90
        2
 70
   128
 43
0.0
 10
5.821437351413275
 20
0.8008290637180053
 10
6.622266415131281
 20
0.0
  0
CIRCLE
  5
A2
100
AcDbEntity
  8
USP-GEO
100
AcDbCircle
 10
6.848174523247714
 20
0.3106607507697685
 30
0.0
 40
0.078
  0
LWPOLYLINE
  5
A3
100
AcDbEntity
  8
USP-GEO
100
AcDbPolyline
 90
        2
 70
   128
 43
0.0
 10
1.805086340065479
 20
0.8550765870858629
 10
1.805086340065479
 20
2.742212306245226
  0
LWPOLYLINE
  5
A4
100
AcDbEntity
  8
USP-GEO
100
AcDbPolyline
 90
        2
 70
   128
 43
0.0
 10
1.764400697539585
 20
2.999888042242552
 10
1.805086340065479
 20
2.999888042242552
  0
LWPOLYLINE
  5
A5
100
AcDbEntity
  8
USP-GEO
100
AcDbPolyline
 90
        2
 70
   128
 43
0.0
 10
1.805086340065479
 20
2.999888042242552
 10
1.805086340065479
 20
2.986326161400588
  0
LWPOLYLINE
  5
A6
100
AcDbEntity
  8
USP-GEO
100
AcDbPolyline
 90
        2
 70
   128
 43
0.0
 10
1.805086340065479
 20
2.986326161400588
 10
1.805086340065479
 20
2.742212306245226
  0
LWPOLYLINE
  5
A7
100
AcDbEntity
  8
USP-GEO
100
AcDbPolyline
 90
        2
 70
   128
 43
0.0
 10
1.805086340065479
 20
2.986326161400588
 10
1.723715055013691
 20
2.823583591297014
  0
ELLIPSE
  5
A8
100
AcDbEntity
  8
USP-GEO
  6
CONTINUOUS
100
AcDbEllipse
 10
1.751275348217029
 20
2.818915265429533
 30
0.0
 11
0.0
 21
-0.0254172883817431
 31
0.0
210
0.0
220
0.0
230
1.0
 40
0.906315404460947
 41
4.556280097675712
 42
5.703648815358679
1001
ACAD
1000
RTLwPs
1070
   128
  0
LWPOLYLINE
  5
A9
100
AcDbEntity
  8
USP-GEO
100
AcDbPolyline
 90
        2
 70
   128
 43
0.0
 10
1.683029412487798
 20
2.864269233822907
 10
1.764400697539585
 20
2.999888042242552
  0
LWPOLYLINE
  5
AA
100
AcDbEntity
  8
USP-GEO
100
AcDbPolyline
 90
        2
 70
   128
 43
0.0
 10
1.805086340065479
 20
2.81002171045505
 10
1.805086340065479
 20
2.755774187087192
  0
ELLIPSE
  5
AB
100
AcDbEntity
  8
USP-GEO
  6
CONTINUOUS
100
AcDbEllipse
 10
1.775124465827101
 20
2.760641983876279
 30
0.0
 11
0.0289766180879641
 21
0.0553769410877985
 31
0.0
210
0.0
220
0.0
230
1.0
 40
0.2113009628740891
 41
1.414848459360803
 42
5.948841618836056
1001
ACAD
1000
RTLwPs
1070
   128
  0
LWPOLYLINE
  5
AC
100
AcDbEntity
  8
USP-GEO
100
AcDbPolyline
 90
        2
 70
   128
 43
0.0
 10
1.737276935855656
 20
2.796459829613086
 10
1.805086340065479
 20
2.742212306245226
  0
ELLIPSE
  5
AD
100
AcDbEntity
  8
USP-GEO
  6
CONTINUOUS
100
AcDbEllipse
 10
1.751275348217029
 20
2.818915265429533
 30
0.0
 11
0.0
 21
-0.0827924579353581
 31
0.0
210
0.0
220
0.0
230
1.0
 40
0.906315404460947
 41
4.170274932451175
 42
5.749009145271208
1001
ACAD
1000
RTLwPs
1070
   128
  0
LWPOLYLINE
  5
AE
100
AcDbEntity
  8
USP-GEO
100
AcDbPolyline
 90
        2
 70
   128
 43
0.0
 10
1.764400697539585
 20
2.715088544561298
 10
1.710153174171727
 20
2.742212306245226
  0
LWPOLYLINE
  5
AF
100
AcDbEntity
  8
USP-GEO
100
AcDbPolyline
 90
        2
 70
   128
 43
0.0
 10
1.805086340065479
 20
0.8008290637180053
 10
1.493163080700294
 20
0.8008290637180053
  0
LWPOLYLINE
  5
B0
100
AcDbEntity
  8
USP-GEO
100
AcDbPolyline
 90
        2
 70
   128
 43
0.0
 10
2.117009599430663
 20
0.8008290637180053
 10
1.805086340065479
 20
0.8008290637180053
  0
LWPOLYLINE
  5
B1
100
AcDbEntity
  8
USP-GEO
100
AcDbPolyline
 90
        2
 70
   128
 43
0.0
 10
2.985648067358491
 20
0.8008290637180053
 10
2.117009599430663
 20
0.8008290637180053
  0
LWPOLYLINE
  5
B2
100
AcDbEntity
  8
USP-GEO
100
AcDbPolyline
 90
        2
 70
   128
 43
0.0
 10
3.134828756620101
 20
0.8008290637180053
 10
2.985648067358491
 20
0.8008290637180053
  0
LWPOLYLINE
  5
B3
100
AcDbEntity
  8
USP-GEO
100
AcDbPolyline
 90
        2
 70
   128
 43
0.0
 10
4.166209794651503
 20
0.8008290637180053
 10
3.134828756620101
 20
0.8008290637180053
  0
LWPOLYLINE
  5
B4
100
AcDbEntity
  8
USP-GEO
100
AcDbPolyline
 90
        2
 70
   128
 43
0.0
 10
4.328952364755077
 20
0.8008290637180053
 10
4.166209794651503
 20
0.8008290637180053
  0
LWPOLYLINE
  5
B5
100
AcDbEntity
  8
USP-GEO
100
AcDbPolyline
 90
        2
 70
   128
 43
0.0
 10
5.197590832682906
 20
0.8008290637180053
 10
4.328952364755077
 20
0.8008290637180053
  0
LWPOLYLINE
  5
B6
100
AcDbEntity
  8
USP-GEO
100
AcDbPolyline
 90
        2
 70
   128
 43
0.0
 10
5.50951409204809
 20
0.8008290637180053
 10
5.197590832682906
 20
0.8008290637180053
  0
LWPOLYLINE
  5
B7
100
AcDbEntity
  8
USP-GEO
100
AcDbPolyline
 90
        2
 70
   128
 43
0.0
 10
5.821437351413275
 20
0.8008290637180053
 10
5.50951409204809
 20
0.8008290637180053
  0
ELLIPSE
  5
B8
100
AcDbEntity
  8
USP-GEO
  6
CONTINUOUS
100
AcDbEllipse
 10
1.751275348217026
 20
2.002915265429571
 30
0.0
 11
0.0
 21
-0.0827924579353581
 31
0.0
210
0.0
220
0.0
230
1.0
 40
0.906315404460947
 41
4.792916459540976
 42
5.743642359423661
1001
ACAD
1000
RTLwPs
1070
   128
  0
LWPOLYLINE
  5
B9
100
AcDbEntity
  8
USP-GEO
100
AcDbPolyline
 90
        2
 70
   128
 43
0.0
 10
1.710153174171727
 20
1.92714326764316
 10
1.764400697539585
 20
1.90001950595923
  0
LWPOLYLINE
  5
BA
100
AcDbEntity
  8
USP-GEO
100
AcDbPolyline
 90
        2
 70
   128
 43
0.0
 10
5.550199734573983
 20
2.999888042242552
 10
5.495952211206126
 20
2.999888042242552
  0
LWPOLYLINE
  5
BB
100
AcDbEntity
  8
USP-GEO
100
AcDbPolyline
 90
        2
 70
   128
 43
0.0
 10
5.495952211206126
 20
2.999888042242552
 10
5.495952211206126
 20
2.986326161400588
  0
LWPOLYLINE
  5
BC
100
AcDbEntity
  8
USP-GEO
100
AcDbPolyline
 90
        2
 70
   128
 43
0.0
 10
5.495952211206126
 20
2.986326161400588
 10
5.495952211206126
 20
2.742212306245226
  0
LWPOLYLINE
  5
BD
100
AcDbEntity
  8
USP-GEO
100
AcDbPolyline
 90
        2
 70
   128
 43
0.0
 10
5.495952211206126
 20
2.986326161400588
 10
5.577323496257913
 20
2.823583591297014
  0
ELLIPSE
  5
BE
100
AcDbEntity
  8
USP-GEO
  6
CONTINUOUS
100
AcDbEllipse
 10
5.562881205256227
 20
2.818915265429533
 30
0.0
 11
0.0
 21
-0.0254172883817431
 31
0.0
210
0.0
220
0.0
230
1.0
 40
0.906315404460947
 41
0.6171634127395781
 42
1.855779538793066
1001
ACAD
1000
RTLwPs
1070
   128
  0
LWPOLYLINE
  5
BF
100
AcDbEntity
  8
USP-GEO
100
AcDbPolyline
 90
        2
 70
   128
 43
0.0
 10
5.631571019625771
 20
2.864269233822907
 10
5.550199734573983
 20
2.999888042242552
  0
LWPOLYLINE
  5
C0
100
AcDbEntity
  8
USP-GEO
100
AcDbPolyline
 90
        2
 70
   128
 43
0.0
 10
5.50951409204809
 20
2.81002171045505
 10
5.50951409204809
 20
2.755774187087192
  0
ELLIPSE
  5
C1
100
AcDbEntity
  8
USP-GEO
  6
CONTINUOUS
100
AcDbEllipse
 10
5.539032087646154
 20
2.760641983876277
 30
0.0
 11
-0.0289766180879641
 21
0.0553769410877985
 31
0.0
210
0.0
220
0.0
230
1.0
 40
0.2113009628740905
 41
0.2624267334867289
 42
4.863248127197076
1001
ACAD
1000
RTLwPs
1070
   128
  0
LWPOLYLINE
  5
C2
100
AcDbEntity
  8
USP-GEO
100
AcDbPolyline
 90
        2
 70
   128
 43
0.0
 10
5.577323496257913
 20
2.796459829613086
 10
5.495952211206126
 20
2.742212306245226
  0
ELLIPSE
  5
C3
100
AcDbEntity
  8
USP-GEO
  6
CONTINUOUS
100
AcDbEllipse
 10
5.562881205256226
 20
2.002915265429571
 30
0.0
 11
0.0
 21
-0.0827924579353581
 31
0.0
210
0.0
220
0.0
230
1.0
 40
0.906315404460947
 41
0.5442870586340024
 42
1.474976641870755
1001
ACAD
1000
RTLwPs
1070
   128
  0
ELLIPSE
  5
C4
100
AcDbEntity
  8
USP-GEO
  6
CONTINUOUS
100
AcDbEllipse
 10
5.562881205256227
 20
2.818915265429533
 30
0.0
 11
0.0
 21
-0.0827924579353581
 31
0.0
210
0.0
220
0.0
230
1.0
 40
0.906315404460947
 41
0.5388929671554092
 42
2.110049409485217
1001
ACAD
1000
RTLwPs
1070
   128
  0
LWPOLYLINE
  5
C5
100
AcDbEntity
  8
USP-GEO
100
AcDbPolyline
 90
        2
 70
   128
 43
0.0
 10
5.604447257941843
 20
1.92714326764316
 10
5.550199734573983
 20
1.90001950595923
  0
LWPOLYLINE
  5
C6
100
AcDbEntity
  8
USP-GEO
100
AcDbPolyline
 90
        2
 70
   128
 43
0.0
 10
5.550199734573983
 20
2.715088544561298
 10
5.604447257941843
 20
2.742212306245226
  0
LWPOLYLINE
  5
C7
100
AcDbEntity
  8
USP-GEO
100
AcDbPolyline
 90
        2
 70
   128
 43
0.0
 10
5.495952211206126
 20
2.742212306245226
 10
5.495952211206126
 20
0.8550765870858629
  0
LWPOLYLINE
  5
C8
100
AcDbEntity
  8
USP-GEO
100
AcDbPolyline
 90
        2
 70
   128
 43
0.0
 10
4.166209794651503
 20
0.8550765870858629
 10
4.328952364755077
 20
0.8550765870858629
  0
LWPOLYLINE
  5
C9
100
AcDbEntity
  8
USP-GEO
100
AcDbPolyline
 90
        2
 70
   128
 43
0.0
 10
2.985648067358491
 20
0.8550765870858629
 10
3.134828756620101
 20
0.8550765870858629
  0
LWPOLYLINE
  5
CA
100
AcDbEntity
  8
USP-GEO
100
AcDbPolyline
 90
        2
 70
   128
 43
0.0
 10
1.805086340065479
 20
0.8550765870858629
 10
2.117009599430663
 20
0.8550765870858629
  0
LWPOLYLINE
  5
CB
100
AcDbEntity
  8
USP-GEO
100
AcDbPolyline
 90
        2
 70
   128
 43
0.0
 10
1.493163080700294
 20
0.8550765870858629
 10
1.805086340065479
 20
0.8550765870858629
  0
LWPOLYLINE
  5
CC
100
AcDbEntity
  8
USP-GEO
100
AcDbPolyline
 90
        2
 70
   128
 43
0.0
 10
0.0
 20
0.8550765870858629
 10
1.493163080700294
 20
0.8550765870858629
  0
LWPOLYLINE
  5
CD
100
AcDbEntity
  8
USP-GEO
100
AcDbPolyline
 90
        2
 70
   128
 43
0.0
 10
7.314600432113569
 20
0.8550765870858629
 10
5.821437351413275
 20
0.8550765870858629
  0
LWPOLYLINE
  5
CE
100
AcDbEntity
  8
USP-GEO
100
AcDbPolyline
 90
        2
 70
   128
 43
0.0
 10
5.821437351413275
 20
0.8550765870858629
 10
5.50951409204809
 20
0.8550765870858629
  0
LWPOLYLINE
  5
CF
100
AcDbEntity
  8
USP-GEO
100
AcDbPolyline
 90
        2
 70
   128
 43
0.0
 10
5.197590832682906
 20
0.8550765870858629
 10
5.50951409204809
 20
0.8550765870858629
  0
LWPOLYLINE
  5
D0
100
AcDbEntity
  8
USP-GEO
100
AcDbPolyline
 90
        2
 70
   128
 43
0.0
 10
1.818648220907443
 20
4.995518808137634
 10
1.818648220907443
 20
3.814278986802523
  0
LWPOLYLINE
  5
D1
100
AcDbEntity
  8
USP-GEO
100
AcDbPolyline
 90
        2
 70
   128
 43
0.0
 10
1.818648220907443
 20
3.814278986802523
 10
1.818648220907443
 20
1.249049225544933
  0
LWPOLYLINE
  5
D2
100
AcDbEntity
  8
USP-GEO
100
AcDbPolyline
 90
        2
 70
   128
 43
0.0
 10
1.872895744275301
 20
3.814278986802523
 10
1.818648220907443
 20
3.814278986802523
  0
LWPOLYLINE
  5
D3
100
AcDbEntity
  8
USP-GEO
100
AcDbPolyline
 90
        2
 70
   128
 43
0.0
 10
1.872895744275301
 20
1.221925463861003
 10
1.818648220907443
 20
1.221925463861003
  0
LWPOLYLINE
  5
D4
100
AcDbEntity
  8
USP-GEO
100
AcDbPolyline
 90
        2
 70
   128
 43
0.0
 10
1.818648220907443
 20
1.249049225544933
 10
1.818648220907443
 20
1.221925463861003
  0
LWPOLYLINE
  5
D5
100
AcDbEntity
  8
USP-GEO
100
AcDbPolyline
 90
        2
 70
   128
 43
0.0
 10
1.872895744275301
 20
1.249049225544933
 10
1.818648220907443
 20
1.249049225544933
  0
LWPOLYLINE
  5
D6
100
AcDbEntity
  8
USP-GEO
100
AcDbPolyline
 90
        2
 70
   128
 43
0.0
 10
1.872895744275301
 20
4.995518808137634
 10
1.818648220907443
 20
4.995518808137634
  0
LWPOLYLINE
  5
D7
100
AcDbEntity
  8
USP-GEO
100
AcDbPolyline
 90
        2
 70
   128
 43
0.0
 10
1.872895744275301
 20
3.814278986802523
 10
1.872895744275301
 20
1.249049225544933
  0
LWPOLYLINE
  5
D8
100
AcDbEntity
  8
USP-GEO
100
AcDbPolyline
 90
        2
 70
   128
 43
0.0
 10
1.872895744275301
 20
4.995518808137634
 10
1.872895744275301
 20
3.814278986802523
  0
LWPOLYLINE
  5
D9
100
AcDbEntity
  8
USP-GEO
100
AcDbPolyline
 90
        2
 70
   128
 43
0.0
 10
5.495952211206126
 20
1.221925463861003
 10
5.495952211206126
 20
1.249049225544933
  0
LWPOLYLINE
  5
DA
100
AcDbEntity
  8
USP-GEO
100
AcDbPolyline
 90
        2
 70
   128
 43
0.0
 10
5.441704687838268
 20
1.221925463861003
 10
5.495952211206126
 20
1.221925463861003
  0
LWPOLYLINE
  5
DB
100
AcDbEntity
  8
USP-GEO
100
AcDbPolyline
 90
        2
 70
   128
 43
0.0
 10
5.495952211206126
 20
3.814278986802523
 10
5.495952211206126
 20
1.249049225544933
  0
LWPOLYLINE
  5
DC
100
AcDbEntity
  8
USP-GEO
100
AcDbPolyline
 90
        2
 70
   128
 43
0.0
 10
5.441704687838268
 20
1.249049225544933
 10
5.495952211206126
 20
1.249049225544933
  0
LWPOLYLINE
  5
DD
100
AcDbEntity
  8
USP-GEO
100
AcDbPolyline
 90
        2
 70
   128
 43
0.0
 10
5.441704687838268
 20
4.995518808137634
 10
5.495952211206126
 20
4.995518808137634
  0
LWPOLYLINE
  5
DE
100
AcDbEntity
  8
USP-GEO
100
AcDbPolyline
 90
        2
 70
   128
 43
0.0
 10
5.495952211206126
 20
4.995518808137634
 10
5.495952211206126
 20
3.814278986802523
  0
LWPOLYLINE
  5
DF
100
AcDbEntity
  8
USP-GEO
100
AcDbPolyline
 90
        2
 70
   128
 43
0.0
 10
5.441704687838268
 20
3.814278986802523
 10
5.495952211206126
 20
3.814278986802523
  0
LWPOLYLINE
  5
E0
100
AcDbEntity
  8
USP-GEO
100
AcDbPolyline
 90
        2
 70
   128
 43
0.0
 10
5.441704687838268
 20
3.814278986802523
 10
5.441704687838268
 20
4.995518808137634
  0
LWPOLYLINE
  5
E1
100
AcDbEntity
  8
USP-GEO
100
AcDbPolyline
 90
        2
 70
   128
 43
0.0
 10
5.441704687838268
 20
1.249049225544933
 10
5.441704687838268
 20
3.814278986802523
  0
LWPOLYLINE
  5
E2
100
AcDbEntity
  8
USP-GEO
100
AcDbPolyline
 90
        2
 70
   128
 43
0.0
 10
5.441704687838268
 20
4.058392841957885
 10
1.872895744275301
 20
4.058392841957885
  0
LWPOLYLINE
  5
E3
100
AcDbEntity
  8
USP-GEO
100
AcDbPolyline
 90
        2
 70
   128
 43
0.0
 10
5.197590832682906
 20
0.8550765870858629
 10
5.197590832682906
 20
0.9093241104537206
  0
LWPOLYLINE
  5
E4
100
AcDbEntity
  8
USP-GEO
100
AcDbPolyline
 90
        2
 70
   128
 43
0.0
 10
4.328952364755077
 20
0.8550765870858629
 10
5.197590832682906
 20
0.8550765870858629
  0
LWPOLYLINE
  5
E5
100
AcDbEntity
  8
USP-GEO
100
AcDbPolyline
 90
        2
 70
   128
 43
0.0
 10
4.328952364755077
 20
0.9093241104537206
 10
4.328952364755077
 20
0.8550765870858629
  0
LWPOLYLINE
  5
E6
100
AcDbEntity
  8
USP-GEO
100
AcDbPolyline
 90
        2
 70
   128
 43
0.0
 10
4.166209794651503
 20
0.8550765870858629
 10
4.166209794651503
 20
0.9093241104537206
  0
LWPOLYLINE
  5
E7
100
AcDbEntity
  8
USP-GEO
100
AcDbPolyline
 90
        2
 70
   128
 43
0.0
 10
3.134828756620101
 20
0.8550765870858629
 10
4.166209794651503
 20
0.8550765870858629
  0
LWPOLYLINE
  5
E8
100
AcDbEntity
  8
USP-GEO
100
AcDbPolyline
 90
        2
 70
   128
 43
0.0
 10
3.134828756620101
 20
0.9093241104537206
 10
3.134828756620101
 20
0.8550765870858629
  0
LWPOLYLINE
  5
E9
100
AcDbEntity
  8
USP-GEO
100
AcDbPolyline
 90
        2
 70
   128
 43
0.0
 10
2.985648067358491
 20
0.8550765870858629
 10
2.985648067358491
 20
0.9093241104537206
  0
LWPOLYLINE
  5
EA
100
AcDbEntity
  8
USP-GEO
100
AcDbPolyline
 90
        2
 70
   128
 43
0.0
 10
2.117009599430663
 20
0.8550765870858629
 10
2.985648067358491
 20
0.8550765870858629
  0
LWPOLYLINE
  5
EB
100
AcDbEntity
  8
USP-GEO
100
AcDbPolyline
 90
        2
 70
   128
 43
0.0
 10
2.117009599430663
 20
0.9093241104537206
 10
2.117009599430663
 20
0.8550765870858629
  0
ELLIPSE
  5
EC
100
AcDbEntity
  8
USP-GEO
  6
CONTINUOUS
100
AcDbEllipse
 10
3.063258276736612
 20
0.8816940717664873
 30
0.0
 11
-0.078
 21
0.0
 31
0.0
210
0.0
220
0.0
230
1.0
 40
0.8660254037844378
 41
3.149760620725868
 42
6.275652957029441
1001
ACAD
1000
RTLwPs
1070
   128
  0
ELLIPSE
  5
ED
100
AcDbEntity
  8
USP-GEO
  6
CONTINUOUS
100
AcDbEllipse
 10
3.063258276736612
 20
0.9076940717664889
 30
0.0
 11
-0.078
 21
0.0
 31
0.0
210
0.0
220
0.0
230
1.0
 40
0.8660254037844378
 41
3.167885236924542
 42
6.258938011869529
1001
ACAD
1000
RTLwPs
1070
   128
  0
ELLIPSE
  5
EE
100
AcDbEntity
  8
USP-GEO
  6
CONTINUOUS
100
AcDbEllipse
 10
4.25091827673661
 20
0.8816940717664873
 30
0.0
 11
-0.078
 21
0.0
 31
0.0
210
0.0
220
0.0
230
1.0
 40
0.8660254037844378
 41
3.149084089792717
 42
6.276284120508552
1001
ACAD
1000
RTLwPs
1070
   128
  0
ELLIPSE
  5
EF
100
AcDbEntity
  8
USP-GEO
  6
CONTINUOUS
100
AcDbEllipse
 10
4.25091827673661
 20
0.9076940717664889
 30
0.0
 11
-0.078
 21
0.0
 31
0.0
210
0.0
220
0.0
230
1.0
 40
0.8660254037844378
 41
3.165708289575348
 42
6.260969150850304
1001
ACAD
1000
RTLwPs
1070
   128
  0
ELLIPSE
  5
F0
100
AcDbEntity
  8
USP-GEO
  6
CONTINUOUS
100
AcDbEllipse
 10
5.372287016000339
 20
0.9391039876129791
 30
0.0
 11
-0.1875000000000065
 21
0.0
 31
0.0
210
0.0
220
0.0
230
1.0
 40
0.8660254037844378
 41
5.543801554840647
 42
6.216393155732243
1001
ACAD
1000
RTLwPs
1070
   128
  0
ELLIPSE
  5
F1
100
AcDbEntity
  8
USP-GEO
  6
CONTINUOUS
100
AcDbEllipse
 10
5.372287016000339
 20
0.9651039876129789
 30
0.0
 11
-0.1875000000000065
 21
0.0
 31
0.0
210
0.0
220
0.0
230
1.0
 40
0.8660254037844378
 41
5.538540602090875
 42
6.636414083506328
1001
ACAD
1000
RTLwPs
1070
   128
  0
LWPOLYLINE
  5
F2
100
AcDbEntity
  8
USP-GEO
100
AcDbPolyline
 90
        2
 70
   128
 43
0.0
 10
5.441704687838268
 20
1.221925463861003
 10
5.441704687838268
 20
1.249049225544933
  0
LWPOLYLINE
  5
F3
100
AcDbEntity
  8
USP-GEO
100
AcDbPolyline
 90
        2
 70
   128
 43
0.0
 10
5.441704687838268
 20
1.221925463861003
 10
5.2382764752088
 20
1.044942918873365
  0
LWPOLYLINE
  5
F4
100
AcDbEntity
  8
USP-GEO
100
AcDbPolyline
 90
        2
 70
   128
 43
0.0
 10
5.2382764752088
 20
1.072066680557295
 10
5.441704687838268
 20
1.249049225544933
  0
LWPOLYLINE
  5
F5
100
AcDbEntity
  8
USP-GEO
100
AcDbPolyline
 90
        2
 70
   128
 43
0.0
 10
1.872895744275301
 20
1.221925463861003
 10
2.07632395690477
 20
1.044942918873365
  0
LWPOLYLINE
  5
F6
100
AcDbEntity
  8
USP-GEO
100
AcDbPolyline
 90
        2
 70
   128
 43
0.0
 10
1.872895744275301
 20
1.249049225544933
 10
1.872895744275301
 20
1.221925463861003
  0
LWPOLYLINE
  5
F7
100
AcDbEntity
  8
USP-GEO
100
AcDbPolyline
 90
        2
 70
   128
 43
0.0
 10
1.872895744275301
 20
1.249049225544933
 10
2.07632395690477
 20
1.072066680557295
  0
ELLIPSE
  5
F8
100
AcDbEntity
  8
USP-GEO
  6
CONTINUOUS
100
AcDbEllipse
 10
1.94226953747295
 20
0.9391039876129791
 30
0.0
 11
-0.1875000000000065
 21
0.0
 31
0.0
210
0.0
220
0.0
230
1.0
 40
0.8660254037844378
 41
3.208369287177207
 42
3.880813414454801
1001
ACAD
1000
RTLwPs
1070
   128
  0
ELLIPSE
  5
F9
100
AcDbEntity
  8
USP-GEO
  6
CONTINUOUS
100
AcDbEllipse
 10
1.94226953747295
 20
0.9651039876129789
 30
0.0
 11
-0.1875000000000065
 21
0.0
 31
0.0
210
0.0
220
0.0
230
1.0
 40
0.8660254037844378
 41
2.788445382264884
 42
3.886074217675183
1001
ACAD
1000
RTLwPs
1070
   128
  0
ELLIPSE
  5
FA
100
AcDbEntity
  8
USP-GEO
  6
CONTINUOUS
100
AcDbEllipse
 10
5.606280650938329
 20
4.39626556991949
 30
0.0
 11
-0.0348826604489969
 21
0.0697653208979937
 31
0.0
210
0.0
220
0.0
230
1.0
 40
0.6123724356957934
 41
4.249783787490739
 42
5.89385712034111
1001
ACAD
1000
RTLwPs
1070
   128
  0
ELLIPSE
  5
FB
100
AcDbEntity
  8
USP-GEO
  6
CONTINUOUS
100
AcDbEllipse
 10
5.606280650938329
 20
4.39626556991949
 30
0.0
 11
-0.0348826604489969
 21
0.0697653208979937
 31
0.0
210
0.0
220
0.0
230
1.0
 40
0.6123724356957934
 41
4.251999333422406
 42
9.923512041345858
1001
ACAD
1000
RTLwPs
1070
   128
  0
ELLIPSE
  5
FC
100
AcDbEntity
  8
USP-GEO
  6
CONTINUOUS
100
AcDbEllipse
 10
5.644629028068234
 20
4.415439758484444
 30
0.0
 11
0.0348826604489969
 21
-0.0697653208979937
 31
0.0
210
0.0
220
0.0
230
1.0
 40
0.6123724356957934
 41
3.286311937041474
 42
4.83582359393899
1001
ACAD
1000
RTLwPs
1070
   128
  0
ELLIPSE
  5
FD
100
AcDbEntity
  8
USP-GEO
  6
CONTINUOUS
100
AcDbEllipse
 10
5.644629028068234
 20
4.415439758484444
 30
0.0
 11
0.0348826604489969
 21
-0.0697653208979937
 31
0.0
210
0.0
220
0.0
230
1.0
 40
0.6123724356957934
 41
3.298600938679087
 42
9.209312360132299
1001
ACAD
1000
RTLwPs
1070
   128
  0
ELLIPSE
  5
FE
100
AcDbEntity
  8
USP-GEO
  6
CONTINUOUS
100
AcDbEllipse
 10
5.644629028068234
 20
4.415439758484444
 30
0.0
 11
0.0348826604489969
 21
-0.0697653208979937
 31
0.0
210
0.0
220
0.0
230
1.0
 40
0.6123724356957934
 41
4.830654743990678
 42
5.618858334265029
1001
ACAD
1000
RTLwPs
1070
   128
  0
ELLIPSE
  5
FF
100
AcDbEntity
  8
USP-GEO
  6
CONTINUOUS
100
AcDbEllipse
 10
5.644629028068234
 20
4.415439758484444
 30
0.0
 11
0.0348826604489969
 21
-0.0697653208979937
 31
0.0
210
0.0
220
0.0
230
1.0
 40
0.6123724356957934
 41
5.607118969173733
 42
6.141665291714721
1001
ACAD
1000
RTLwPs
1070
   128
  0
ELLIPSE
  5
100
100
AcDbEntity
  8
USP-GEO
  6
CONTINUOUS
100
AcDbEllipse
 10
5.644629028068234
 20
4.415439758484444
 30
0.0
 11
0.0348826604489969
 21
-0.0697653208979937
 31
0.0
210
0.0
220
0.0
230
1.0
 40
0.6123724356957934
 41
0.2479551443239347
 42
6.128425741025563
1001
ACAD
1000
RTLwPs
1070
   128
  0
ELLIPSE
  5
101
100
AcDbEntity
  8
USP-GEO
  6
CONTINUOUS
100
AcDbEllipse
 10
5.644629028068234
 20
4.415439758484444
 30
0.0
 11
0.0348826604489969
 21
-0.0697653208979937
 31
0.0
210
0.0
220
0.0
230
1.0
 40
0.6123724356957934
 41
0.260077687314582
 42
2.913714055363175
1001
ACAD
1000
RTLwPs
1070
   128
  0
ELLIPSE
  5
102
100
AcDbEntity
  8
USP-GEO
  6
CONTINUOUS
100
AcDbEllipse
 10
1.707875902534857
 20
4.396065569919452
 30
0.0
 11
0.0348826604489969
 21
0.0697653208979937
 31
0.0
210
0.0
220
0.0
230
0.9999999999999998
 40
0.6123724356957947
 41
0.3812170428752667
 42
2.646136861183163
1001
ACAD
1000
RTLwPs
1070
   128
  0
ELLIPSE
  5
103
100
AcDbEntity
  8
USP-GEO
  6
CONTINUOUS
100
AcDbEllipse
 10
1.669527525404952
 20
4.415239758484402
 30
0.0
 11
-0.0348826604489969
 21
-0.0697653208979937
 31
0.0
210
0.0
220
0.0
230
0.9999999999999998
 40
0.6123724356957947
 41
3.58550944703768
 42
6.715014905307798
1001
ACAD
1000
RTLwPs
1070
   128
  0
ELLIPSE
  5
104
100
AcDbEntity
  8
USP-GEO
  6
CONTINUOUS
100
AcDbEllipse
 10
1.669527525404952
 20
4.415239758484402
 30
0.0
 11
-0.0348826604489969
 21
-0.0697653208979937
 31
0.0
210
0.0
220
0.0
230
0.9999999999999998
 40
0.6123724356957947
 41
2.978881873184778
 42
3.597672536297151
1001
ACAD
1000
RTLwPs
1070
   128
  0
ELLIPSE
  5
105
100
AcDbEntity
  8
USP-GEO
  6
CONTINUOUS
100
AcDbEllipse
 10
1.669527525404952
 20
4.415239758484402
 30
0.0
 11
-0.0348826604489969
 21
-0.0697653208979937
 31
0.0
210
0.0
220
0.0
230
0.9999999999999998
 40
0.6123724356957947
 41
0.4451358739947141
 42
2.966844451509508
1001
ACAD
1000
RTLwPs
1070
   128
  0
ARC
  5
106
100
AcDbEntity
  8
USP-GEO
100
AcDbCircle
 10
1.875828276736593
 20
4.312089382818582
 30
0.0
 40
0.3020000000000001
100
AcDbArc
 50
100.6861397754511
 51
259.0078853272491
  0
ARC
  5
107
100
AcDbEntity
  8
USP-GEO
100
AcDbCircle
 10
5.438328276736595
 20
4.312289382818624
 30
0.0
 40
0.3020000000000001
100
AcDbArc
 50
281.0680089354693
 51
79.22589280386572
  0
LWPOLYLINE
  5
108
100
AcDbEntity
  8
USP-GEO
100
AcDbPolyline
 90
        2
 70
   128
 43
0.0
 10
5.631571019625771
 20
2.823583591297014
 10
5.631571019625771
 20
1.99563076589508
  0
LWPOLYLINE
  5
109
100
AcDbEntity
  8
USP-GEO
100
AcDbPolyline
 90
        2
 70
   128
 43
0.0
 10
1.669467531645834
 20
1.99563076589508
 10
1.669467531645834
 20
2.823583591297014
  0
TEXT
  5
10A
100
AcDbEntity
  8
USP-TXT
100
AcDbText
 10
1.532300216056785
 20
-0.796366259036244
 30
0.0
 40
0.25
  1
TMP4 - FRONT VIEW
 72
     1
 11
3.657300216056785
 21
-0.796366259036244
 31
0.0
100
AcDbText
  0
ENDBLK
  5
10C
100
AcDbEntity
  8
0
100
AcDbBlockEnd
  0
BLOCK
  5
154
100
AcDbEntity
  8
0
100
AcDbBlockBegin
  2
TMP4PR_S
 70
     0
 10
0.0
 20
0.0
 30
0.0
  3
TMP4PR_S
  1

  0
LWPOLYLINE
  5
10F
100
AcDbEntity
  8
USP-GEO
100
AcDbPolyline
 90
        2
 70
   128
 43
0.0
 10
1.519608748342125
 20
2.999888042242552
 10
3.270447565039745
 20
2.185497097682583
  0
LWPOLYLINE
  5
110
100
AcDbEntity
  8
USP-GEO
100
AcDbPolyline
 90
        2
 70
   128
 43
0.0
 10
3.270447565039745
 20
2.185497097682583
 10
3.270447565039745
 20
2.497420357047767
  0
LWPOLYLINE
  5
111
100
AcDbEntity
  8
USP-GEO
100
AcDbPolyline
 90
        2
 70
   128
 43
0.0
 10
3.270447565039745
 20
2.497420357047767
 10
2.795103641528889
 20
3.067697446452376
  0
LWPOLYLINE
  5
112
100
AcDbEntity
  8
USP-GEO
100
AcDbPolyline
 90
        2
 70
   128
 43
0.0
 10
2.795103641528889
 20
3.067697446452376
 10
1.519608748342125
 20
3.067697446452376
  0
LWPOLYLINE
  5
113
100
AcDbEntity
  8
USP-GEO
100
AcDbPolyline
 90
        2
 70
   128
 43
0.0
 10
1.519608748342125
 20
3.067697446452376
 10
1.519608748342125
 20
2.999888042242552
  0
LWPOLYLINE
  5
114
100
AcDbEntity
  8
USP-GEO
100
AcDbPolyline
 90
        2
 70
   128
 43
0.0
 10
1.519608748342125
 20
2.715088544561298
 10
1.519608748342125
 20
0.8008290637180053
  0
LWPOLYLINE
  5
115
100
AcDbEntity
  8
USP-GEO
100
AcDbPolyline
 90
        2
 70
   128
 43
0.0
 10
1.329742416554623
 20
0.8008290637180053
 10
1.329742416554623
 20
0.8550765870858629
  0
LWPOLYLINE
  5
116
100
AcDbEntity
  8
USP-GEO
100
AcDbPolyline
 90
        2
 70
   128
 43
0.0
 10
0.2169900934714324
 20
0.0
 10
0.2169900934714324
 20
0.8550765870858629
  0
LWPOLYLINE
  5
117
100
AcDbEntity
  8
USP-GEO
100
AcDbPolyline
 90
        2
 70
   128
 43
0.0
 10
0.2712376168392918
 20
0.0
 10
0.2169900934714324
 20
0.0
  0
LWPOLYLINE
  5
118
100
AcDbEntity
  8
USP-GEO
100
AcDbPolyline
 90
        2
 70
   128
 43
0.0
 10
0.2712376168392918
 20
0.8008290637180053
 10
0.2712376168392918
 20
0.0
  0
LWPOLYLINE
  5
119
100
AcDbEntity
  8
USP-GEO
100
AcDbPolyline
 90
        2
 70
   128
 43
0.0
 10
3.270447565039745
 20
0.8008290637180053
 10
1.519608748342125
 20
0.8008290637180053
  0
LWPOLYLINE
  5
11A
100
AcDbEntity
  8
USP-GEO
100
AcDbPolyline
 90
        2
 70
   128
 43
0.0
 10
1.329742416554623
 20
0.8008290637180053
 10
0.2712376168392918
 20
0.8008290637180053
  0
LWPOLYLINE
  5
11B
100
AcDbEntity
  8
USP-GEO
100
AcDbPolyline
 90
        2
 70
   128
 43
0.0
 10
1.519608748342125
 20
0.8008290637180053
 10
1.329742416554623
 20
0.8008290637180053
  0
LWPOLYLINE
  5
11C
100
AcDbEntity
  8
USP-GEO
100
AcDbPolyline
 90
        2
 70
   128
 43
0.0
 10
3.270447565039745
 20
0.8008290637180053
 10
3.270447565039745
 20
1.90001950595923
  0
LWPOLYLINE
  5
11D
100
AcDbEntity
  8
USP-GEO
100
AcDbPolyline
 90
        2
 70
   128
 43
0.0
 10
1.519608748342125
 20
2.999888042242552
 10
1.885779531075169
 20
2.837145472138979
  0
LWPOLYLINE
  5
11E
100
AcDbEntity
  8
USP-GEO
100
AcDbPolyline
 90
        2
 70
   128
 43
0.0
 10
3.039217496684251
 20
2.2939921444183
 10
3.270447565039745
 20
2.185497097682583
  0
LWPOLYLINE
  5
11F
100
AcDbEntity
  8
USP-GEO
100
AcDbPolyline
 90
        2
 70
   128
 43
0.0
 10
3.270447565039745
 20
2.185497097682583
 10
3.270447565039745
 20
2.036316408420974
  0
LWPOLYLINE
  5
120
100
AcDbEntity
  8
USP-GEO
100
AcDbPolyline
 90
        2
 70
   128
 43
0.0
 10
1.519608748342125
 20
2.864269233822907
 10
1.519608748342125
 20
2.999888042242552
  0
LWPOLYLINE
  5
121
100
AcDbEntity
  8
USP-GEO
100
AcDbPolyline
 90
        2
 70
   128
 43
0.0
 10
3.039217496684251
 20
2.2939921444183
 10
1.885779531075169
 20
2.837145472138979
  0
LWPOLYLINE
  5
122
100
AcDbEntity
  8
USP-GEO
100
AcDbPolyline
 90
        2
 70
   128
 43
0.0
 10
1.872217650233203
 20
2.81002171045505
 10
3.025655615842286
 20
2.26686838273437
  0
LWPOLYLINE
  5
123
100
AcDbEntity
  8
USP-GEO
100
AcDbPolyline
 90
        2
 70
   128
 43
0.0
 10
3.039217496684251
 20
2.2939921444183
 10
3.039895590726349
 20
2.2939921444183
  0
ELLIPSE
  5
124
100
AcDbEntity
  8
USP-GEO
  6
CONTINUOUS
100
AcDbEllipse
 10
3.010129508190804
 20
2.248211165994455
 30
0.0
 11
0.0566447127822643
 21
-0.0264126203554092
 31
0.0
210
0.0
220
0.0
230
1.0
 40
0.8660254037699226
 41
1.449189042806603
 42
7.111819101271373
1001
ACAD
1000
RTLwPs
1070
   128
  0
ELLIPSE
  5
125
100
AcDbEntity
  8
USP-GEO
  6
CONTINUOUS
100
AcDbEllipse
 10
3.010129508190804
 20
2.248211165994455
 30
0.0
 11
0.0566447127822643
 21
-0.0264126203554092
 31
0.0
210
0.0
220
0.0
230
1.0
 40
0.8660254037699226
 41
4.680529301650031
 42
6.355697493890057
1001
ACAD
1000
RTLwPs
1070
   128
  0
ELLIPSE
  5
126
100
AcDbEntity
  8
USP-GEO
  6
CONTINUOUS
100
AcDbEllipse
 10
3.010129508190804
 20
2.248211165994455
 30
0.0
 11
0.0566447127822643
 21
-0.0264126203554092
 31
0.0
210
0.0
220
0.0
230
1.0
 40
0.8660254037699226
 41
0.8250716724210978
 42
6.360373936819931
1001
ACAD
1000
RTLwPs
1070
   128
  0
ELLIPSE
  5
127
100
AcDbEntity
  8
USP-GEO
  6
CONTINUOUS
100
AcDbEllipse
 10
2.999141433383762
 20
2.224647163527679
 30
0.0
 11
0.0566447127822643
 21
-0.0264126203554092
 31
0.0
210
0.0
220
0.0
230
1.0
 40
0.8660254037699012
 41
0.2991093903583826
 42
1.462900642561716
1001
ACAD
1000
RTLwPs
1070
   128
  0
ELLIPSE
  5
128
100
AcDbEntity
  8
USP-GEO
  6
CONTINUOUS
100
AcDbEllipse
 10
1.860671383486597
 20
2.784205986343055
 30
0.0
 11
0.0566447127822643
 21
-0.0264126203554092
 31
0.0
210
0.0
220
0.0
230
1.0
 40
0.8660254037699226
 41
2.440458692595507
 42
4.853810459002007
1001
ACAD
1000
RTLwPs
1070
   128
  0
ELLIPSE
  5
129
100
AcDbEntity
  8
USP-GEO
  6
CONTINUOUS
100
AcDbEllipse
 10
1.860671383486597
 20
2.784205986343055
 30
0.0
 11
0.0566447127822643
 21
-0.0264126203554092
 31
0.0
210
0.0
220
0.0
230
1.0
 40
0.8660254037699226
 41
1.565126822419103
 42
2.430247711675573
1001
ACAD
1000
RTLwPs
1070
   128
  0
LWPOLYLINE
  5
12A
100
AcDbEntity
  8
USP-GEO
100
AcDbPolyline
 90
        2
 70
   128
 43
0.0
 10
1.885779531075169
 20
2.837145472138979
 10
1.886457625117266
 20
2.837145472138979
  0
ELLIPSE
  5
12B
100
AcDbEntity
  8
USP-GEO
  6
CONTINUOUS
100
AcDbEllipse
 10
1.849683308679555
 20
2.760641983876277
 30
0.0
 11
0.0566447127822643
 21
-0.0264126203554092
 31
0.0
210
0.0
220
0.0
230
1.0
 40
0.8660254037699012
 41
1.577892478633551
 42
2.874151374753469
1001
ACAD
1000
RTLwPs
1070
   128
  0
LWPOLYLINE
  5
12C
100
AcDbEntity
  8
USP-GEO
100
AcDbPolyline
 90
        2
 70
   128
 43
0.0
 10
1.845093888549275
 20
2.728650425403262
 10
2.984969973316392
 20
2.199058978524547
  0
LWPOLYLINE
  5
12D
100
AcDbEntity
  8
USP-GEO
100
AcDbPolyline
 90
        2
 70
   128
 43
0.0
 10
3.270447565039745
 20
2.036316408420974
 10
3.270447565039745
 20
1.92714326764316
  0
LWPOLYLINE
  5
12E
100
AcDbEntity
  8
USP-GEO
100
AcDbPolyline
 90
        2
 70
   128
 43
0.0
 10
1.519608748342125
 20
2.742212306245226
 10
1.519608748342125
 20
2.864269233822907
  0
LWPOLYLINE
  5
12F
100
AcDbEntity
  8
USP-GEO
100
AcDbPolyline
 90
        2
 70
   128
 43
0.0
 10
3.270447565039745
 20
1.92714326764316
 10
3.270447565039745
 20
1.90001950595923
  0
LWPOLYLINE
  5
130
100
AcDbEntity
  8
USP-GEO
100
AcDbPolyline
 90
        2
 70
   128
 43
0.0
 10
1.519608748342125
 20
2.715088544561298
 10
3.270447565039745
 20
1.90001950595923
  0
LWPOLYLINE
  5
131
100
AcDbEntity
  8
USP-GEO
100
AcDbPolyline
 90
        2
 70
   128
 43
0.0
 10
1.519608748342125
 20
2.715088544561298
 10
1.519608748342125
 20
2.742212306245226
  0
LWPOLYLINE
  5
132
100
AcDbEntity
  8
USP-GEO
100
AcDbPolyline
 90
        2
 70
   128
 43
0.0
 10
1.329742416554623
 20
0.8550765870858629
 10
1.519608748342125
 20
0.8550765870858629
  0
LWPOLYLINE
  5
133
100
AcDbEntity
  8
USP-GEO
100
AcDbPolyline
 90
        2
 70
   128
 43
0.0
 10
0.2169900934714324
 20
0.8550765870858629
 10
1.329742416554623
 20
0.8550765870858629
  0
LWPOLYLINE
  5
134
100
AcDbEntity
  8
USP-GEO
100
AcDbPolyline
 90
        2
 70
   128
 43
0.0
 10
0.5289133528366179
 20
0.8550765870858629
 10
0.5424752336785819
 20
0.8822003487697926
  0
ARC
  5
135
100
AcDbEntity
  8
USP-GEO
100
AcDbCircle
 10
1.035209669590116
 20
3.598355020443959
 30
0.0
 40
0.078
100
AcDbArc
 50
61.09161672892691
 51
151.055151291008
  0
LWPOLYLINE
  5
136
100
AcDbEntity
  8
USP-GEO
100
AcDbPolyline
 90
        2
 70
   128
 43
0.0
 10
0.96357163382158
 20
3.637974535856985
 10
0.5695989953625116
 20
2.945640518874695
  0
ARC
  5
137
100
AcDbEntity
  8
USP-GEO
100
AcDbCircle
 10
0.6378466750866636
 20
2.910103176352171
 30
0.0
 40
0.078
100
AcDbArc
 50
152.4934947040401
 51
240.5914384277866
  0
LWPOLYLINE
  5
138
100
AcDbEntity
  8
USP-GEO
100
AcDbPolyline
 90
        2
 70
   128
 43
0.0
 10
1.790846365181415
 20
3.067697446452376
 10
2.347561573744059
 20
4.031269080273956
  0
LWPOLYLINE
  5
139
100
AcDbEntity
  8
USP-GEO
100
AcDbPolyline
 90
        2
 70
   128
 43
0.0
 10
1.709475080129628
 20
2.918516757190767
 10
1.710153174171729
 20
2.918516757190767
  0
LWPOLYLINE
  5
13A
100
AcDbEntity
  8
USP-GEO
100
AcDbPolyline
 90
        2
 70
   128
 43
0.0
 10
0.7323415654660846
 20
1.221925463861003
 10
1.519608748342125
 20
2.578791642099554
  0
LWPOLYLINE
  5
13B
100
AcDbEntity
  8
USP-GEO
100
AcDbPolyline
 90
        2
 70
   128
 43
0.0
 10
2.347561573744059
 20
4.031269080273956
 10
0.6780940420982269
 20
4.995518808137634
  0
LWPOLYLINE
  5
13C
100
AcDbEntity
  8
USP-GEO
100
AcDbPolyline
 90
        2
 70
   128
 43
0.0
 10
0.7323415654660846
 20
1.221925463861003
 10
0.6916559229401909
 20
1.249049225544933
  0
LWPOLYLINE
  5
13D
100
AcDbEntity
  8
USP-GEO
100
AcDbPolyline
 90
        2
 70
   128
 43
0.0
 10
0.0
 20
3.814278986802523
 10
0.6916559229401909
 20
1.249049225544933
  0
LWPOLYLINE
  5
13E
100
AcDbEntity
  8
USP-GEO
100
AcDbPolyline
 90
        2
 70
   128
 43
0.0
 10
0.6780940420982269
 20
4.995518808137634
 10
0.0
 20
3.814278986802523
  0
LWPOLYLINE
  5
13F
100
AcDbEntity
  8
USP-GEO
100
AcDbPolyline
 90
        2
 70
   128
 43
0.0
 10
0.96357163382158
 20
3.637974535856985
 10
0.5695989953625116
 20
2.945640518874695
  0
ARC
  5
140
100
AcDbEntity
  8
USP-GEO
100
AcDbCircle
 10
1.034863259428529
 20
3.598555020444001
 30
0.0
 40
0.078
100
AcDbArc
 50
326.8891210270158
 51
151.0603319391238
  0
LWPOLYLINE
  5
141
100
AcDbEntity
  8
USP-GEO
100
AcDbPolyline
 90
        2
 70
   128
 43
0.0
 10
0.7052178037821566
 20
2.864269233822907
 10
1.099190442241225
 20
3.556603250805197
  0
ARC
  5
142
100
AcDbEntity
  8
USP-GEO
100
AcDbCircle
 10
0.6375002649250661
 20
2.91030317635222
 30
0.0
 40
0.078
100
AcDbArc
 50
152.5065206149111
 51
325.792389294133
  0
LWPOLYLINE
  5
143
100
AcDbEntity
  8
USP-GEO
100
AcDbPolyline
 90
        2
 70
   128
 43
0.0
 10
0.4611039486267945
 20
0.8550765870858629
 10
0.4882277103107242
 20
0.9093241104537206
  0
LWPOLYLINE
  5
144
100
AcDbEntity
  8
USP-GEO
100
AcDbPolyline
 90
        2
 70
   128
 43
0.0
 10
0.6374083995723332
 20
1.044942918873365
 10
0.5424752336785819
 20
0.8822003487697926
  0
LWPOLYLINE
  5
145
100
AcDbEntity
  8
USP-GEO
100
AcDbPolyline
 90
        2
 70
   128
 43
0.0
 10
0.4882277103107242
 20
0.9093241104537206
 10
0.5424752336785819
 20
0.8822003487697926
  0
LWPOLYLINE
  5
146
100
AcDbEntity
  8
USP-GEO
100
AcDbPolyline
 90
        2
 70
   128
 43
0.0
 10
0.4882277103107242
 20
0.9093241104537206
 10
0.5967227570464396
 20
1.072066680557295
  0
LWPOLYLINE
  5
147
100
AcDbEntity
  8
USP-GEO
100
AcDbPolyline
 90
        2
 70
   128
 43
0.0
 10
0.7323415654660846
 20
1.221925463861003
 10
0.6374083995723332
 20
1.044942918873365
  0
LWPOLYLINE
  5
148
100
AcDbEntity
  8
USP-GEO
100
AcDbPolyline
 90
        2
 70
   128
 43
0.0
 10
0.5967227570464396
 20
1.072066680557295
 10
0.6916559229401909
 20
1.249049225544933
  0
ELLIPSE
  5
149
100
AcDbEntity
  8
USP-GEO
  6
CONTINUOUS
100
AcDbEllipse
 10
1.053227036019318
 20
4.39626556991949
 30
0.0
 11
0.0390000000000003
 21
0.0675499814951864
 31
0.0
210
0.0
220
0.0
230
1.0
 40
0.707106781186548
 41
2.493631783365044
 42
2.499306713698433
1001
ACAD
1000
RTLwPs
1070
   128
  0
ELLIPSE
  5
14A
100
AcDbEntity
  8
USP-GEO
  6
CONTINUOUS
100
AcDbEllipse
 10
1.053227036019318
 20
4.39626556991949
 30
0.0
 11
0.0390000000000003
 21
0.0675499814951864
 31
0.0
210
0.0
220
0.0
230
1.0
 40
0.707106781186548
 41
1.56322543482102
 42
2.824490863199786
1001
ACAD
1000
RTLwPs
1070
   128
  0
ELLIPSE
  5
14B
100
AcDbEntity
  8
USP-GEO
  6
CONTINUOUS
100
AcDbEllipse
 10
1.053227036019318
 20
4.39626556991949
 30
0.0
 11
0.0390000000000003
 21
0.0675499814951864
 31
0.0
210
0.0
220
0.0
230
1.0
 40
0.707106781186548
 41
0.3591326667063696
 42
1.56322543482102
1001
ACAD
1000
RTLwPs
1070
   128
  0
CIRCLE
  5
14C
100
AcDbEntity
  8
USP-GEO
100
AcDbCircle
 10
1.198678058703933
 20
4.312289382818624
 30
0.0
 40
0.2974894956128706
  0
ELLIPSE
  5
14D
100
AcDbEntity
  8
USP-GEO
  6
CONTINUOUS
100
AcDbEllipse
 10
1.020016367230912
 20
4.415439758484444
 30
0.0
 11
-0.0390000000000003
 21
-0.0675499814951864
 31
0.0
210
0.0
220
0.0
230
1.0
 40
0.707106781186548
 41
4.077404444888406
 42
10.3509916696404
1001
ACAD
1000
RTLwPs
1070
   128
  0
ELLIPSE
  5
14E
100
AcDbEntity
  8
USP-GEO
  6
CONTINUOUS
100
AcDbEllipse
 10
1.020016367230912
 20
4.415439758484444
 30
0.0
 11
-0.0390000000000003
 21
-0.0675499814951864
 31
0.0
210
0.0
220
0.0
230
1.0
 40
0.707106781186548
 41
3.116853766672259
 42
9.38909536365448
1001
ACAD
1000
RTLwPs
1070
   128
  0
ELLIPSE
  5
14F
100
AcDbEntity
  8
USP-GEO
  6
CONTINUOUS
100
AcDbEllipse
 10
1.020016367230912
 20
4.415439758484444
 30
0.0
 11
-0.0390000000000003
 21
-0.0675499814951864
 31
0.0
210
0.0
220
0.0
230
1.0
 40
0.707106781186548
 41
2.759249173434647
 42
9.033938438718571
1001
ACAD
1000
RTLwPs
1070
   128
  0
ELLIPSE
  5
150
100
AcDbEntity
  8
USP-GEO
  6
CONTINUOUS
100
AcDbEllipse
 10
1.053573446180905
 20
4.396065569919452
 30
0.0
 11
0.0390000000000003
 21
0.0675499814951864
 31
0.0
210
0.0
220
0.0
230
1.0
 40
0.707106781186547
 41
2.112110686867396
 42
2.113838902460164
1001
ACAD
1000
RTLwPs
1070
   128
  0
ELLIPSE
  5
151
100
AcDbEntity
  8
USP-GEO
  6
CONTINUOUS
100
AcDbEllipse
 10
1.053573446180905
 20
4.396065569919452
 30
0.0
 11
0.0390000000000003
 21
0.0675499814951864
 31
0.0
210
0.0
220
0.0
230
1.0
 40
0.707106781186547
 41
1.563278286373381
 42
2.301727378985357
1001
ACAD
1000
RTLwPs
1070
   128
  0
ELLIPSE
  5
152
100
AcDbEntity
  8
USP-GEO
  6
CONTINUOUS
100
AcDbEllipse
 10
1.053573446180905
 20
4.396065569919452
 30
0.0
 11
0.0390000000000003
 21
0.0675499814951864
 31
0.0
210
0.0
220
0.0
230
1.0
 40
0.707106781186547
 41
0.8179557276428088
 42
1.563278286373381
1001
ACAD
1000
RTLwPs
1070
   128
  0
TEXT
  5
153
100
AcDbEntity
  8
USP-TXT
100
AcDbText
 10
-0.3231095508134614
 20
-0.796366259036244
 30
0.0
 40
0.25
  1
TMP4 - SIDE VIEW
 72
     1
 11
1.635223782519872
 21
-0.796366259036244
 31
0.0
100
AcDbText
  0
ENDBLK
  5
155
100
AcDbEntity
  8
0
100
AcDbBlockEnd
  0
ENDSEC
  0
SECTION
  2
ENTITIES
  0
INSERT
  5
3
100
AcDbEntity
  8
USP
100
AcDbBlockReference
  2
TMP4PR_T
 10
0.0023664324177046
 20
10.3441500117425
 30
0.0
  0
INSERT
  5
83
100
AcDbEntity
  8
USP
100
AcDbBlockReference
  2
TMP4PR_F
 10
0.0023664324177046
 20
1.982572378629276
 30
0.0
  0
INSERT
  5
10D
100
AcDbEntity
  8
USP
100
AcDbBlockReference
  2
TMP4PR_S
 10
10.68234759546477
 20
1.982572378629276
 30
0.0
  0
ENDSEC
  0
SECTION
  2
OBJECTS
  0
DICTIONARY
  5
16D
100
AcDbDictionary
  3
ACAD_GROUP
350
16B
  3
ACAD_MLINESTYLE
350
16C
  0
DICTIONARY
  5
9
100
AcDbDictionary
280
     1
  3
ACAD_XREC_ROUNDTRIP
360
A
  0
DICTIONARY
  5
7D
100
AcDbDictionary
280
     1
  3
ACAD_XREC_ROUNDTRIP
360
7E
  0
DICTIONARY
  5
170
100
AcDbDictionary
280
     1
  3
ACAD_XREC_ROUNDTRIP
360
171
  0
DICTIONARY
  5
156
100
AcDbDictionary
280
     1
  3
ACAD_LAYOUTSELFREF
360
157
  0
DICTIONARY
  5
15B
100
AcDbDictionary
280
     1
  3
ACAD_LAYOUTSELFREF
360
15C
  0
DICTIONARY
  5
16B
102
{ACAD_REACTORS
330
16D
102
}
100
AcDbDictionary
  0
DICTIONARY
  5
16C
102
{ACAD_REACTORS
330
16D
102
}
100
AcDbDictionary
  3
STANDARD
350
16E
  0
XRECORD
  5
A
102
{ACAD_REACTORS
330
9
102
}
100
AcDbXrecord
102
EXTNAMES
  1
USP-GEO
  2
USP-Geo
  0
XRECORD
  5
7E
102
{ACAD_REACTORS
330
7D
102
}
100
AcDbXrecord
102
EXTNAMES
  1
USP-TXT
  2
USP-Txt
  0
XRECORD
  5
171
102
{ACAD_REACTORS
330
170
102
}
100
AcDbXrecord
102
ACADR14ROUNDTRIP
1000
DSTYLE
1002
{
1070
   276
 70
     2
1070
   277
 70
     5
1002
}
  0
XRECORD
  5
157
102
{ACAD_REACTORS
330
156
102
}
100
AcDbXrecord
340
2
  0
XRECORD
  5
15C
102
{ACAD_REACTORS
330
15B
102
}
100
AcDbXrecord
340
0
  0
MLINESTYLE
  5
16E
102
{ACAD_REACTORS
330
16C
102
}
100
AcDbMlineStyle
  2
STANDARD
 70
     0
  3

 62
     0
 51
90.0
 52
90.0
 71
     2
 49
0.5
 62
   256
  6
BYLAYER
 49
-0.5
 62
   256
  6
BYLAYER
  0
ENDSEC
  0
EOF
